  0
SECTION
  2
HEADER
  0
ENDSEC
  0
SECTION
  2
TABLES
  0
TABLE
  2
LTYPE
 70
     4
  0
LTYPE
  2
CONTINUOUS
 70
    64
  3
Solid line
 72
    65
 73
     0
 40
0.000000
  0
LTYPE
  2
DASHED
 70
    64
  3
__ __ __ __ __ __ __ __ __ __ __ __ __ __ __
 72
    65
 73
     2
 40
3.500000
 49
2.000000
 49
-1.500000
  0
LTYPE
  2
CENTER
 70
    64
  3
____ _ ____ _ ____ _ ____ _ ____ _ ____ _ ____
 72
    65
 73
     4
 40
17.500000
 49
13.000000
 49
-1.500000
 49
1.500000
 49
-1.500000
  0
LTYPE
  2
PHANTOM
 70
    64
  3
_____ _ _ _____ _ _ _____ _ _ _____ _ _ ____  
 72
    65
 73
     6
 40
15.500000
 49
8.000000
 49
-1.500000
 49
1.500000
 49
-1.500000
 49
1.500000
 49
-1.500000
  0
LTYPE
  2
DASHED1
 70
    64
  3
__ __ __ __ __ __ __ __ __ __ __ __ __ __ __
 72
    65
 73
     2
 40
1.500000
 49
1.000000
 49
-0.500000
  0
LTYPE
  2
DASHED2
 70
    64
  3
__ __ __ __ __ __ __ __ __ __ __ __ __ __ __
 72
    65
 73
     2
 40
3.500000
 49
2.500000
 49
-1.000000
  0
LTYPE
  2
DASHED3
 70
    64
  3
__ __ __ __ __ __ __ __ __ __ __ __ __ __ __
 72
    65
 73
     2
 40
6.000000
 49
4.000000
 49
-2.000000
  0
LTYPE
  2
DASHED4
 70
    64
  3
__ __ __ __ __ __ __ __ __ __ __ __ __ __ __
 72
    65
 73
     2
 40
12.000000
 49
10.000000
 49
-2.000000
  0
LTYPE
  2
DASHED5
 70
    64
  3
__ __ __ __ __ __ __ __ __ __ __ __ __ __ __
 72
    65
 73
     2
 40
17.000000
 49
15.000000
 49
-2.000000
  0
LTYPE
  2
DASHED6
 70
    64
  3
__ __ __ __ __ __ __ __ __ __ __ __ __ __ __
 72
    65
 73
     2
 40
29.000000
 49
27.000000
 49
-2.000000
  0
LTYPE
  2
PHANTOM1
 70
    64
  3
_____ _ _ _____ _ _ _____ _ _ _____ _ _ ____  
 72
    65
 73
     6
 40
31.000000
 49
25.000000
 49
-1.500000
 49
1.000000
 49
-1.000000
 49
1.000000
 49
-1.500000
  0
LTYPE
  2
PHANTOM2
 70
    64
  3
_____ _ _ _____ _ _ _____ _ _ _____ _ _ ____  
 72
    65
 73
     6
 40
36.000000
 49
27.000000
 49
-1.500000
 49
2.500000
 49
-1.000000
 49
2.500000
 49
-1.500000
  0
LTYPE
  2
PHANTOM3
 70
    64
  3
_____ _ _ _____ _ _ _____ _ _ _____ _ _ ____  
 72
    65
 73
     6
 40
78.000000
 49
64.000000
 49
-2.000000
 49
4.000000
 49
-2.000000
 49
4.000000
 49
-2.000000
  0
LTYPE
  2
CENTER1
 70
    64
  3
____ _ ____ _ ____ _ ____ _ ____ _ ____ _ ____
 72
    65
 73
     4
 40
19.000000
 49
14.000000
 49
-1.000000
 49
3.000000
 49
-1.000000
  0
LTYPE
  2
CENTER2
 70
    64
  3
____ _ ____ _ ____ _ ____ _ ____ _ ____ _ ____
 72
    65
 73
     4
 40
28.500000
 49
25.000000
 49
-1.000000
 49
1.500000
 49
-1.000000
  0
LTYPE
  2
CENTER3
 70
    64
  3
____ _ ____ _ ____ _ ____ _ ____ _ ____ _ ____
 72
    65
 73
     4
 40
31.500000
 49
27.000000
 49
-1.000000
 49
2.500000
 49
-1.000000
  0
LTYPE
  2
CENTER4
 70
    64
  3
____ _ ____ _ ____ _ ____ _ ____ _ ____ _ ____
 72
    65
 73
     4
 40
50.000000
 49
45.000000
 49
-1.000000
 49
3.000000
 49
-1.000000
  0
LTYPE
  2
CENTER5
 70
    64
  3
____ _ ____ _ ____ _ ____ _ ____ _ ____ _ ____
 72
    65
 73
     4
 40
100.000000
 49
92.000000
 49
-2.000000
 49
4.000000
 49
-2.000000
  0
LTYPE
  2
SBK1
 70
    64
  3
______ _ _ _ ______ _ _ _ ______ _ _ _ _____  
 72
    65
 73
     8
 40
60.500000
 49
45.000000
 49
-2.000000
 49
2.500000
 49
-2.000000
 49
2.500000
 49
-2.000000
 49
2.500000
 49
-2.000000
  0
LTYPE
  2
SBK2
 70
    64
  3
______ _ _ _ ______ _ _ _ ______ _ _ _ _____  
 72
    65
 73
     8
 40
84.000000
 49
64.000000
 49
-2.000000
 49
4.000000
 49
-2.000000
 49
4.000000
 49
-2.000000
 49
4.000000
 49
-2.000000
  0
LTYPE
  2
STCH
 70
    64
  3
__ __ __ __ __ __ __ __ __ __ __ __ __ __ __
 72
    65
 73
     2
 40
3.000000
 49
1.000000
 49
-2.000000
  0
LTYPE
  2
MTCH
 70
    64
  3
_____ _ _ _____ _ _ _____ _ _ _____ _ _ ____  
 72
    65
 73
     6
 40
80.000000
 49
66.000000
 49
-2.000000
 49
4.000000
 49
-2.000000
 49
4.000000
 49
-2.000000
  0
ENDTAB
  0
TABLE
  2
LAYER
 70
     1
  0
LAYER
  2
0
 70
     0
 62
     7
  6
CONTINUOUS
  0
ENDTAB
  0
TABLE
  2
STYLE
 70
     1
  0
STYLE
  2
STANDARD
 70
     0
 40
0.000000
 41
1.000000
 50
0.000000
 71
     0
 42
0.200000
  3
txt
  4
BIGFONT
  0
ENDTAB
  0
TABLE
  2
VIEW
 70
     0
  0
ENDTAB
  0
ENDSEC
  0
SECTION
  2
BLOCKS
  0
ENDSEC
  0
SECTION
  2
ENTITIES
  0
POINT
  8
0
 10
257.247223
 20
110.000046
  0
POINT
  8
0
 10
311.147247
 20
110.000046
  0
POINT
  8
0
 10
257.247223
 20
256.646912
  0
POINT
  8
0
 10
311.147217
 20
256.646912
  0
POINT
  8
0
 10
97.077225
 20
110.000053
  0
POINT
  8
0
 10
126.577225
 20
110.000053
  0
POINT
  8
0
 10
424.261963
 20
110.000038
  0
POINT
  8
0
 10
453.761963
 20
110.000038
  0
LINE
  8
0
 62
     3
 10
0.000000
 20
0.000000
 11
0.000000
 21
360.000092
  0
LINE
  8
0
 62
     3
 10
524.494446
 20
360.000092
 11
524.494446
 21
0.000000
  0
LINE
  8
0
 62
     3
 10
0.000000
 20
0.000000
 11
524.494446
 21
0.000000
  0
LINE
  8
0
 62
     3
 10
0.000000
 20
360.000092
 11
524.494446
 21
360.000092
  0
LINE
  8
0
 62
     3
 10
0.000000
 20
339.775330
 11
107.865173
 21
339.775330
  0
LINE
  8
0
 62
     3
 10
107.865173
 20
339.775330
 11
107.865173
 21
360.000092
  0
LINE
  8
0
 62
     3
 10
416.629272
 20
20.224701
 11
524.494446
 21
20.224701
  0
LINE
  8
0
 62
     3
 10
416.629272
 20
339.775330
 11
524.494446
 21
339.775330
  0
LINE
  8
0
 62
     3
 10
416.629272
 20
360.000092
 11
416.629272
 21
339.775330
  0
LINE
  8
0
 62
     3
 10
416.629272
 20
20.224701
 11
416.629272
 21
0.000000
  0
LINE
  8
0
 10
257.247223
 20
256.646881
 11
341.147186
 21
279.127808
  0
LINE
  8
0
 10
257.247253
 20
256.646851
 11
341.147247
 21
234.165909
  0
LINE
  8
0
 10
224.147247
 20
131.000046
 11
311.147247
 21
131.000046
  0
LINE
  8
0
 10
224.147247
 20
89.000046
 11
311.147247
 21
89.000046
  0
LINE
  8
0
 10
300.147247
 20
131.000061
 11
300.147247
 21
111.500046
  0
LINE
  8
0
 10
228.147247
 20
131.000046
 11
228.147247
 21
89.000046
  0
LINE
  8
0
  6
CENTER
 10
221.147247
 20
110.000046
 11
319.897247
 21
110.000046
  0
LINE
  8
0
  6
CENTER
 10
257.247223
 20
164.000000
 11
257.247223
 21
56.000061
  0
LINE
  8
0
  6
CENTER
 10
274.688995
 20
101.500046
 11
284.397247
 21
101.500046
  0
LINE
  8
0
  6
CENTER
 10
279.647247
 20
113.800049
 11
279.647247
 21
87.500061
  0
LINE
  8
0
 10
311.147247
 20
131.000061
 11
311.147247
 21
111.500046
  0
LINE
  8
0
 10
224.147247
 20
131.000046
 11
224.147247
 21
89.000046
  0
LINE
  8
0
  6
PHANTOM
 10
275.897247
 20
112.800049
 11
283.397247
 21
112.800049
  0
LINE
  8
0
  6
PHANTOM
 10
283.397247
 20
112.800049
 11
283.397247
 21
89.500061
  0
LINE
  8
0
  6
PHANTOM
 10
275.897247
 20
112.800049
 11
275.897247
 21
89.500061
  0
LINE
  8
0
  6
PHANTOM
 10
282.647247
 20
112.000046
 11
282.647247
 21
99.300079
  0
LINE
  8
0
  6
PHANTOM
 10
276.647247
 20
112.000046
 11
276.647247
 21
99.300079
  0
LINE
  8
0
  6
PHANTOM
 10
276.647247
 20
112.000046
 11
282.647247
 21
112.000046
  0
LINE
  8
0
  6
PHANTOM
 10
276.647247
 20
99.300079
 11
277.997253
 21
99.300079
  0
LINE
  8
0
  6
PHANTOM
 10
278.147247
 20
98.800079
 11
279.125214
 21
98.800079
  0
LINE
  8
0
  6
PHANTOM
 10
278.147247
 20
99.195190
 11
278.147247
 21
98.800079
  0
LINE
  8
0
  6
PHANTOM
 10
281.147247
 20
99.195190
 11
281.147247
 21
98.800079
  0
LINE
  8
0
  6
PHANTOM
 10
281.297241
 20
99.300079
 11
282.647247
 21
99.300079
  0
LINE
  8
0
  6
PHANTOM
 10
280.169250
 20
98.800079
 11
281.147247
 21
98.800079
  0
LINE
  8
0
  6
PHANTOM
 10
272.397247
 20
108.000046
 11
275.897247
 21
108.000046
  0
LINE
  8
0
  6
PHANTOM
 10
283.397247
 20
108.000046
 11
292.897247
 21
108.000046
  0
LINE
  8
0
  6
PHANTOM
 10
272.397247
 20
112.000046
 11
275.897247
 21
112.000046
  0
LINE
  8
0
  6
PHANTOM
 10
272.397247
 20
112.000046
 11
272.397247
 21
108.000046
  0
LINE
  8
0
  6
PHANTOM
 10
270.897217
 20
111.133995
 11
272.397217
 21
112.000023
  0
LINE
  8
0
  6
PHANTOM
 10
270.897247
 20
111.134033
 11
270.897247
 21
108.866074
  0
LINE
  8
0
  6
PHANTOM
 10
270.897186
 20
108.866074
 11
272.397217
 21
108.000046
  0
LINE
  8
0
  6
PHANTOM
 10
283.397247
 20
112.000046
 11
292.897247
 21
112.000046
  0
LINE
  8
0
  6
PHANTOM
 10
292.897247
 20
112.000046
 11
292.897247
 21
108.000046
  0
LINE
  8
0
  6
PHANTOM
 10
292.897278
 20
112.000023
 11
294.897247
 21
111.500023
  0
LINE
  8
0
  6
PHANTOM
 10
294.997253
 20
111.500046
 11
294.997253
 21
108.500046
  0
LINE
  8
0
  6
PHANTOM
 10
292.897278
 20
107.999954
 11
294.897278
 21
108.499954
  0
LINE
  8
0
  6
PHANTOM
 10
294.997253
 20
108.500046
 11
316.297241
 21
108.500046
  0
LINE
  8
0
  6
PHANTOM
 10
294.997253
 20
111.500046
 11
316.297241
 21
111.500046
  0
LINE
  8
0
  6
CENTER
 10
277.147247
 20
118.500046
 11
282.147247
 21
118.500046
  0
LINE
  8
0
  6
CENTER
 10
279.647247
 20
121.000046
 11
279.647247
 21
116.000046
  0
LINE
  8
0
  6
PHANTOM
 10
275.897247
 20
96.368744
 11
283.397247
 21
96.368744
  0
LINE
  8
0
  6
PHANTOM
 10
275.897247
 20
89.500061
 11
283.397247
 21
89.500061
  0
LINE
  8
0
  6
PHANTOM
 10
252.247238
 20
59.500134
 11
252.747238
 21
59.000137
  0
LINE
  8
0
 10
252.247238
 20
160.499969
 11
252.747253
 21
160.999969
  0
LINE
  8
0
 10
252.247223
 20
160.500046
 11
262.247253
 21
160.500046
  0
LINE
  8
0
 10
252.247223
 20
160.500046
 11
252.247223
 21
133.000046
  0
LINE
  8
0
 10
262.247223
 20
160.500061
 11
261.747253
 21
161.000061
  0
LINE
  8
0
 10
262.247223
 20
160.500046
 11
262.247223
 21
133.000046
  0
LINE
  8
0
 10
247.247238
 20
133.000046
 11
267.247253
 21
133.000046
  0
LINE
  8
0
 10
267.247253
 20
133.000061
 11
267.247253
 21
131.000046
  0
LINE
  8
0
 10
265.247253
 20
87.000046
 11
265.247253
 21
89.000046
  0
LINE
  8
0
 10
249.247238
 20
87.000046
 11
265.247253
 21
87.000046
  0
LINE
  8
0
 10
249.247238
 20
87.000046
 11
249.247238
 21
89.000046
  0
LINE
  8
0
  6
PHANTOM
 10
252.247238
 20
59.500046
 11
252.247238
 21
87.000046
  0
LINE
  8
0
  6
PHANTOM
 10
262.247253
 20
59.500031
 11
262.247253
 21
87.000046
  0
LINE
  8
0
  6
PHANTOM
 10
252.247238
 20
59.500031
 11
262.247223
 21
59.500031
  0
LINE
  8
0
  6
PHANTOM
 10
262.247223
 20
59.500053
 11
261.747223
 21
59.000061
  0
LINE
  8
0
  6
PHANTOM
 10
252.747223
 20
59.000061
 11
263.447235
 21
59.000061
  0
LINE
  8
0
 10
247.247238
 20
133.000046
 11
247.247238
 21
131.000046
  0
LINE
  8
0
 10
252.747192
 20
161.000000
 11
263.447235
 21
161.000000
  0
LINE
  8
0
 10
252.747238
 20
86.500046
 11
261.747253
 21
86.500046
  0
LINE
  8
0
 10
252.247253
 20
87.000061
 11
252.747269
 21
86.500061
  0
LINE
  8
0
 10
262.247192
 20
87.000069
 11
261.747192
 21
86.500069
  0
LINE
  8
0
 10
263.447235
 20
161.000000
 11
263.447235
 21
141.000000
  0
LINE
  8
0
 10
262.247253
 20
141.000000
 11
263.447235
 21
141.000000
  0
LINE
  8
0
  6
PHANTOM
 10
263.447235
 20
59.000046
 11
263.447235
 21
79.000046
  0
LINE
  8
0
  6
PHANTOM
 10
262.247223
 20
79.000046
 11
263.447235
 21
79.000046
  0
LINE
  8
0
 10
300.147247
 20
108.500046
 11
300.147247
 21
89.000046
  0
LINE
  8
0
 10
311.147247
 20
108.500046
 11
311.147247
 21
89.000046
  0
LINE
  8
0
  6
PHANTOM
 10
278.586609
 20
100.439400
 11
280.707916
 21
102.560699
  0
LINE
  8
0
  6
PHANTOM
 10
278.586578
 20
102.560730
 11
280.707916
 21
100.439377
  0
LINE
  8
0
 10
224.147247
 20
227.146927
 11
311.147217
 21
227.146927
  0
LINE
  8
0
 10
224.147247
 20
286.146942
 11
311.147217
 21
286.146942
  0
LINE
  8
0
 10
311.147217
 20
286.146912
 11
311.147217
 21
227.146927
  0
LINE
  8
0
 10
224.147247
 20
286.146912
 11
224.147247
 21
227.146927
  0
LINE
  8
0
  6
CENTER
 10
221.147247
 20
256.646912
 11
314.147217
 21
256.646912
  0
LINE
  8
0
  6
CENTER
 10
257.247223
 20
289.146912
 11
257.247223
 21
224.146927
  0
LINE
  8
0
  6
PHANTOM
 10
270.897217
 20
289.280884
 11
270.897217
 21
287.012939
  0
LINE
  8
0
  6
PHANTOM
 10
272.397217
 20
290.146912
 11
272.397217
 21
286.146912
  0
LINE
  8
0
  6
PHANTOM
 10
272.397217
 20
290.146942
 11
275.897217
 21
290.146942
  0
LINE
  8
0
  6
PHANTOM
 10
283.397217
 20
290.146942
 11
292.897217
 21
290.146942
  0
LINE
  8
0
  6
PHANTOM
 10
270.897278
 20
289.280945
 11
272.397278
 21
290.146973
  0
LINE
  8
0
  6
PHANTOM
 10
270.897247
 20
287.013062
 11
272.397278
 21
286.147034
  0
LINE
  8
0
  6
PHANTOM
 10
292.897217
 20
290.146912
 11
292.897217
 21
286.146912
  0
LINE
  8
0
  6
PHANTOM
 10
294.897217
 20
286.646942
 11
314.897217
 21
286.646942
  0
LINE
  8
0
  6
PHANTOM
 10
294.897217
 20
289.646942
 11
314.897217
 21
289.646942
  0
LINE
  8
0
  6
PHANTOM
 10
294.897217
 20
289.646912
 11
294.897217
 21
286.646912
  0
LINE
  8
0
  6
PHANTOM
 10
292.897308
 20
290.147186
 11
294.897308
 21
289.647186
  0
LINE
  8
0
  6
PHANTOM
 10
292.897217
 20
286.147125
 11
294.897217
 21
286.647125
  0
LINE
  8
0
  6
CENTER
 10
317.897247
 20
288.146942
 11
291.897217
 21
288.146942
  0
LINE
  8
0
  6
CENTER
 10
279.647217
 20
295.646912
 11
279.647217
 21
284.146942
  0
LINE
  8
0
  6
PHANTOM
 10
283.397217
 20
291.646912
 11
283.397217
 21
286.646912
  0
LINE
  8
0
  6
PHANTOM
 10
275.897217
 20
291.646912
 11
275.897217
 21
286.646912
  0
LINE
  8
0
  6
PHANTOM
 10
275.897217
 20
286.646942
 11
283.397217
 21
286.646942
  0
LINE
  8
0
  6
PHANTOM
 10
275.897217
 20
291.646942
 11
283.397217
 21
291.646942
  0
LINE
  8
0
  6
PHANTOM
 62
     3
 10
282.397217
 20
292.446594
 11
282.397217
 21
291.646912
  0
LINE
  8
0
  6
PHANTOM
 62
     3
 10
276.897217
 20
292.446594
 11
276.897217
 21
291.646912
  0
LINE
  8
0
  6
PHANTOM
 10
270.897217
 20
224.012955
 11
270.897217
 21
226.280899
  0
LINE
  8
0
  6
PHANTOM
 10
272.397217
 20
223.146927
 11
272.397217
 21
227.146927
  0
LINE
  8
0
  6
PHANTOM
 10
272.397217
 20
223.146927
 11
275.897217
 21
223.146927
  0
LINE
  8
0
  6
PHANTOM
 10
283.397217
 20
223.146927
 11
292.897217
 21
223.146927
  0
LINE
  8
0
  6
PHANTOM
 10
270.897339
 20
224.013107
 11
272.397339
 21
223.147095
  0
LINE
  8
0
  6
PHANTOM
 10
270.897308
 20
226.280869
 11
272.397278
 21
227.146881
  0
LINE
  8
0
  6
PHANTOM
 10
292.897217
 20
223.146927
 11
292.897217
 21
227.146927
  0
LINE
  8
0
  6
PHANTOM
 10
294.897217
 20
226.646927
 11
314.897217
 21
226.646927
  0
LINE
  8
0
  6
PHANTOM
 10
294.897217
 20
223.646927
 11
314.897217
 21
223.646927
  0
LINE
  8
0
  6
PHANTOM
 10
294.897217
 20
223.646927
 11
294.897217
 21
226.646927
  0
LINE
  8
0
  6
PHANTOM
 10
292.897217
 20
223.146942
 11
294.897217
 21
223.646942
  0
LINE
  8
0
  6
PHANTOM
 10
292.897247
 20
227.146957
 11
294.897247
 21
226.646957
  0
LINE
  8
0
  6
CENTER
 10
317.897247
 20
225.146927
 11
291.897217
 21
225.146927
  0
LINE
  8
0
  6
CENTER
 10
279.647217
 20
217.646927
 11
279.647217
 21
229.146927
  0
LINE
  8
0
  6
PHANTOM
 10
283.397217
 20
221.646927
 11
283.397217
 21
226.646927
  0
LINE
  8
0
  6
PHANTOM
 10
275.897217
 20
221.646927
 11
275.897217
 21
226.646927
  0
LINE
  8
0
  6
PHANTOM
 10
275.897217
 20
226.646927
 11
283.397217
 21
226.646927
  0
LINE
  8
0
  6
PHANTOM
 10
275.897217
 20
221.646927
 11
283.397217
 21
221.646927
  0
LINE
  8
0
  6
PHANTOM
 62
     3
 10
282.397217
 20
220.847275
 11
282.397217
 21
221.646927
  0
LINE
  8
0
  6
PHANTOM
 62
     3
 10
276.897217
 20
220.847275
 11
276.897217
 21
221.646927
  0
LINE
  8
0
 10
300.147186
 20
286.146912
 11
300.147186
 21
227.146896
  0
LINE
  8
0
  6
CENTER
 10
254.247238
 20
280.646912
 11
260.747223
 21
280.646912
  0
LINE
  8
0
  6
CENTER
 10
233.247253
 20
260.146912
 11
233.247253
 21
253.646927
  0
LINE
  8
0
  6
CENTER
 10
281.247253
 20
260.146912
 11
281.247253
 21
253.646927
  0
LINE
  8
0
 10
228.147232
 20
286.146912
 11
228.147232
 21
227.146927
  0
LINE
  8
0
  6
CENTER
 10
254.247238
 20
232.646927
 11
260.747223
 21
232.646927
  0
LINE
  8
0
  6
CENTER
 10
242.247253
 20
260.646912
 11
242.247253
 21
252.646927
  0
LINE
  8
0
  6
CENTER
 10
272.247223
 20
260.646912
 11
272.247223
 21
252.646927
  0
LINE
  8
0
  6
CENTER
 10
253.247238
 20
241.646927
 11
261.247223
 21
241.646927
  0
LINE
  8
0
  6
CENTER
 10
253.247238
 20
271.646912
 11
261.247223
 21
271.646912
  0
LINE
  8
0
 10
260.447235
 20
258.146912
 11
263.447235
 21
258.146912
  0
LINE
  8
0
 10
260.447235
 20
258.146912
 11
260.447235
 21
255.146927
  0
LINE
  8
0
 10
263.447235
 20
258.146912
 11
263.447235
 21
255.146927
  0
LINE
  8
0
 10
260.447235
 20
255.146927
 11
263.447235
 21
255.146927
  0
LINE
  8
0
 10
243.413956
 20
257.813690
 11
241.080536
 21
255.480255
  0
LINE
  8
0
 10
241.080551
 20
257.813690
 11
243.414017
 21
255.480209
  0
LINE
  8
0
 10
256.080536
 20
242.813690
 11
258.413971
 21
240.480255
  0
LINE
  8
0
 10
256.080536
 20
240.480225
 11
258.414001
 21
242.813690
  0
LINE
  8
0
 10
271.080536
 20
255.480255
 11
273.413940
 21
257.813660
  0
LINE
  8
0
 10
273.414001
 20
255.480225
 11
271.080536
 21
257.813690
  0
LINE
  8
0
 10
258.413971
 20
270.480194
 11
256.080536
 21
272.813629
  0
LINE
  8
0
 10
258.413971
 20
272.813660
 11
256.080505
 21
270.480194
  0
LINE
  8
0
 10
71.577240
 20
89.000053
 11
122.577225
 21
89.000053
  0
LINE
  8
0
 10
71.577240
 20
131.000061
 11
122.577225
 21
131.000061
  0
LINE
  8
0
 10
67.577225
 20
127.000053
 11
67.577225
 21
93.000053
  0
LINE
  8
0
 10
126.577225
 20
127.000053
 11
126.577225
 21
93.000053
  0
LINE
  8
0
  6
CENTER
 10
59.077225
 20
110.000053
 11
135.077225
 21
110.000053
  0
LINE
  8
0
  6
CENTER
 10
97.077225
 20
164.000000
 11
97.077225
 21
56.000053
  0
LINE
  8
0
  6
PHANTOM
 10
63.577225
 20
112.000053
 11
63.577225
 21
108.000053
  0
LINE
  8
0
  6
PHANTOM
 10
64.443207
 20
108.866081
 11
66.711212
 21
108.866081
  0
LINE
  8
0
  6
PHANTOM
 10
63.577209
 20
108.000053
 11
67.577209
 21
108.000053
  0
LINE
  8
0
  6
PHANTOM
 10
63.577209
 20
112.000053
 11
67.577209
 21
112.000053
  0
LINE
  8
0
  6
PHANTOM
 10
64.443207
 20
111.134026
 11
66.711212
 21
111.134026
  0
LINE
  8
0
  6
PHANTOM
 10
64.443192
 20
111.134026
 11
64.443192
 21
108.866081
  0
LINE
  8
0
  6
PHANTOM
 10
66.711197
 20
111.134026
 11
66.711197
 21
108.866081
  0
LINE
  8
0
  6
PHANTOM
 10
63.577492
 20
112.000359
 11
64.443481
 21
111.134338
  0
LINE
  8
0
  6
PHANTOM
 10
64.443260
 20
108.866005
 11
63.577271
 21
107.999985
  0
LINE
  8
0
  6
PHANTOM
 10
66.711212
 20
108.866158
 11
67.577217
 21
108.000130
  0
LINE
  8
0
  6
PHANTOM
 10
66.711418
 20
111.133842
 11
67.577408
 21
111.999863
  0
LINE
  8
0
  6
PHANTOM
 10
62.077225
 20
112.800056
 11
67.077225
 21
112.800056
  0
LINE
  8
0
  6
PHANTOM
 10
67.077225
 20
112.800056
 11
67.077225
 21
112.000053
  0
LINE
  8
0
  6
PHANTOM
 10
67.077225
 20
108.000053
 11
67.077225
 21
101.500053
  0
LINE
  8
0
  6
PHANTOM
 10
62.077225
 20
112.800056
 11
62.077225
 21
96.368767
  0
LINE
  8
0
  6
PHANTOM
 62
     3
 10
61.277573
 20
104.250053
 11
62.077225
 21
104.250053
  0
LINE
  8
0
  6
PHANTOM
 62
     3
 10
61.277573
 20
98.750053
 11
62.077225
 21
98.750053
  0
LINE
  8
0
  6
PHANTOM
 62
     1
 10
67.077225
 20
102.750053
 11
67.577225
 21
102.750053
  0
LINE
  8
0
  6
PHANTOM
 62
     1
 10
67.077225
 20
102.479561
 11
67.577225
 21
102.479561
  0
LINE
  8
0
  6
PHANTOM
 10
64.577240
 20
89.500053
 11
68.577225
 21
89.500053
  0
LINE
  8
0
  6
PHANTOM
 10
68.577225
 20
90.354332
 11
68.577225
 21
89.500069
  0
LINE
  8
0
  6
PHANTOM
 10
130.577240
 20
112.000053
 11
130.577240
 21
108.000053
  0
LINE
  8
0
  6
PHANTOM
 10
129.711243
 20
108.866081
 11
127.443237
 21
108.866081
  0
LINE
  8
0
  6
PHANTOM
 10
130.577240
 20
108.000053
 11
126.577240
 21
108.000053
  0
LINE
  8
0
  6
PHANTOM
 10
130.577240
 20
112.000053
 11
126.577240
 21
112.000053
  0
LINE
  8
0
  6
PHANTOM
 10
129.711243
 20
111.134026
 11
127.443237
 21
111.134026
  0
LINE
  8
0
  6
PHANTOM
 10
129.711243
 20
111.134026
 11
129.711243
 21
108.866081
  0
LINE
  8
0
  6
PHANTOM
 10
127.443237
 20
111.134026
 11
127.443237
 21
108.866081
  0
LINE
  8
0
  6
PHANTOM
 10
130.577148
 20
112.000175
 11
129.711151
 21
111.134148
  0
LINE
  8
0
  6
PHANTOM
 10
129.711166
 20
108.865982
 11
130.577148
 21
107.999969
  0
LINE
  8
0
  6
PHANTOM
 10
127.443214
 20
108.866135
 11
126.577209
 21
108.000107
  0
LINE
  8
0
  6
PHANTOM
 10
127.443237
 20
111.134048
 11
126.577232
 21
112.000084
  0
LINE
  8
0
  6
PHANTOM
 10
132.077225
 20
112.800056
 11
127.077225
 21
112.800056
  0
LINE
  8
0
  6
PHANTOM
 10
127.077225
 20
112.800056
 11
127.077225
 21
112.000053
  0
LINE
  8
0
  6
PHANTOM
 10
127.077225
 20
108.000053
 11
127.077225
 21
101.500053
  0
LINE
  8
0
  6
PHANTOM
 10
132.077225
 20
112.800056
 11
132.077225
 21
96.368752
  0
LINE
  8
0
  6
CENTER
 10
135.077225
 20
101.500053
 11
125.577225
 21
101.500053
  0
LINE
  8
0
  6
PHANTOM
 62
     3
 10
132.876877
 20
104.250053
 11
132.077225
 21
104.250053
  0
LINE
  8
0
  6
PHANTOM
 62
     3
 10
132.876877
 20
98.750053
 11
132.077225
 21
98.750053
  0
LINE
  8
0
  6
PHANTOM
 62
     1
 10
127.077225
 20
102.750053
 11
126.577225
 21
102.750053
  0
LINE
  8
0
  6
PHANTOM
 62
     1
 10
127.077225
 20
102.479561
 11
126.577225
 21
102.479561
  0
LINE
  8
0
  6
PHANTOM
 10
129.577225
 20
89.500053
 11
125.577225
 21
89.500053
  0
LINE
  8
0
  6
PHANTOM
 10
125.577225
 20
90.354332
 11
125.577225
 21
89.500069
  0
LINE
  8
0
  6
PHANTOM
 10
92.077225
 20
59.500053
 11
102.077225
 21
59.500053
  0
LINE
  8
0
 10
92.077240
 20
160.499969
 11
92.577232
 21
160.999954
  0
LINE
  8
0
 10
92.077225
 20
160.500061
 11
102.077225
 21
160.500061
  0
LINE
  8
0
 10
92.077225
 20
160.500061
 11
92.077225
 21
133.000061
  0
LINE
  8
0
 10
102.077240
 20
160.500092
 11
101.577248
 21
161.000076
  0
LINE
  8
0
 10
102.077225
 20
160.500061
 11
102.077225
 21
133.000061
  0
LINE
  8
0
 10
87.077225
 20
133.000061
 11
107.077225
 21
133.000061
  0
LINE
  8
0
 10
107.077225
 20
133.000061
 11
107.077225
 21
131.000061
  0
LINE
  8
0
 10
87.077225
 20
133.000061
 11
87.077225
 21
131.000061
  0
LINE
  8
0
 10
92.577194
 20
161.000000
 11
101.577271
 21
161.000000
  0
LINE
  8
0
  6
PHANTOM
 10
92.577225
 20
59.000053
 11
101.577225
 21
59.000053
  0
LINE
  8
0
 10
92.577240
 20
86.500053
 11
101.577225
 21
86.500053
  0
LINE
  8
0
 10
102.077240
 20
87.000015
 11
101.577232
 21
86.500008
  0
LINE
  8
0
  6
PHANTOM
 10
102.077202
 20
59.499996
 11
101.577209
 21
59.000008
  0
LINE
  8
0
 10
92.077286
 20
87.000084
 11
92.577293
 21
86.500092
  0
LINE
  8
0
  6
PHANTOM
 10
92.077271
 20
59.500191
 11
92.577271
 21
59.000191
  0
LINE
  8
0
 10
107.077225
 20
87.000053
 11
107.077225
 21
89.000053
  0
LINE
  8
0
 10
87.077225
 20
87.000053
 11
107.077225
 21
87.000053
  0
LINE
  8
0
 10
87.077225
 20
87.000053
 11
87.077225
 21
89.000053
  0
LINE
  8
0
  6
PHANTOM
 10
92.077225
 20
59.500053
 11
92.077225
 21
87.000053
  0
LINE
  8
0
  6
PHANTOM
 10
102.077225
 20
59.500053
 11
102.077225
 21
87.000053
  0
LINE
  8
0
  6
CENTER
 10
59.077225
 20
101.500053
 11
68.577225
 21
101.500053
  0
LINE
  8
0
  6
CENTER
 10
67.577225
 20
125.000053
 11
79.577225
 21
125.000053
  0
LINE
  8
0
  6
CENTER
 10
67.577225
 20
95.000053
 11
79.577225
 21
95.000053
  0
LINE
  8
0
  6
CENTER
 10
114.577225
 20
95.000053
 11
126.577225
 21
95.000053
  0
LINE
  8
0
  6
CENTER
 10
114.577225
 20
125.000053
 11
126.577225
 21
125.000053
  0
LINE
  8
0
  6
CENTER
 10
73.577225
 20
131.000061
 11
73.577225
 21
119.000053
  0
LINE
  8
0
  6
CENTER
 10
73.577225
 20
101.000053
 11
73.577225
 21
89.000053
  0
LINE
  8
0
  6
CENTER
 10
120.577225
 20
101.000053
 11
120.577225
 21
89.000053
  0
LINE
  8
0
  6
CENTER
 10
120.577225
 20
131.000061
 11
120.577225
 21
119.000053
  0
LINE
  8
0
  6
PHANTOM
 10
64.577339
 20
89.500084
 11
62.077324
 21
96.368805
  0
LINE
  8
0
  6
PHANTOM
 10
129.577225
 20
89.500053
 11
132.077225
 21
96.368744
  0
LINE
  8
0
 10
71.668022
 20
93.090904
 11
75.486374
 21
96.909256
  0
LINE
  8
0
 10
71.668037
 20
96.909225
 11
75.486397
 21
93.090858
  0
LINE
  8
0
 10
71.667976
 20
126.909195
 11
75.486336
 21
123.090843
  0
LINE
  8
0
 10
71.668030
 20
123.090881
 11
75.486389
 21
126.909241
  0
LINE
  8
0
 10
122.486450
 20
93.090866
 11
118.668091
 21
96.909218
  0
LINE
  8
0
 10
122.486412
 20
96.909218
 11
118.668053
 21
93.090858
  0
LINE
  8
0
 10
122.486450
 20
126.909210
 11
118.668083
 21
123.090851
  0
LINE
  8
0
 10
122.486420
 20
123.090881
 11
118.668060
 21
126.909248
  0
LINE
  8
0
 10
398.761963
 20
89.000038
 11
449.761963
 21
89.000038
  0
LINE
  8
0
 10
398.761963
 20
131.000031
 11
449.761963
 21
131.000031
  0
LINE
  8
0
 10
394.761963
 20
127.000038
 11
394.761963
 21
93.000038
  0
LINE
  8
0
 10
453.761963
 20
127.000038
 11
453.761963
 21
93.000038
  0
LINE
  8
0
  6
CENTER
 10
386.261963
 20
110.000038
 11
462.261963
 21
110.000038
  0
LINE
  8
0
  6
CENTER
 10
424.261963
 20
164.000000
 11
424.261963
 21
56.000038
  0
LINE
  8
0
  6
PHANTOM
 10
390.761963
 20
112.000038
 11
390.761963
 21
108.000038
  0
LINE
  8
0
  6
PHANTOM
 10
391.627930
 20
108.866066
 11
393.895935
 21
108.866066
  0
LINE
  8
0
  6
PHANTOM
 10
390.761932
 20
108.000038
 11
394.761932
 21
108.000038
  0
LINE
  8
0
  6
PHANTOM
 10
390.761932
 20
112.000038
 11
394.761932
 21
112.000038
  0
LINE
  8
0
  6
PHANTOM
 10
391.627930
 20
111.134010
 11
393.895935
 21
111.134010
  0
LINE
  8
0
  6
PHANTOM
 10
391.627930
 20
111.134010
 11
391.627930
 21
108.866066
  0
LINE
  8
0
  6
PHANTOM
 10
393.895935
 20
111.134010
 11
393.895935
 21
108.866066
  0
LINE
  8
0
  6
PHANTOM
 10
390.762054
 20
112.000244
 11
391.628052
 21
111.134209
  0
LINE
  8
0
  6
PHANTOM
 10
391.627930
 20
108.866020
 11
390.761963
 21
108.000015
  0
LINE
  8
0
  6
PHANTOM
 10
393.895905
 20
108.866127
 11
394.761902
 21
108.000099
  0
LINE
  8
0
  6
PHANTOM
 10
393.895966
 20
111.133957
 11
394.761963
 21
111.999992
  0
LINE
  8
0
  6
PHANTOM
 10
389.261963
 20
112.800041
 11
394.261963
 21
112.800041
  0
LINE
  8
0
  6
PHANTOM
 10
394.261963
 20
112.800041
 11
394.261963
 21
112.000038
  0
LINE
  8
0
  6
PHANTOM
 10
394.261963
 20
108.000038
 11
394.261963
 21
101.500038
  0
LINE
  8
0
  6
PHANTOM
 10
389.261963
 20
112.800041
 11
389.261963
 21
96.368752
  0
LINE
  8
0
  6
PHANTOM
 62
     3
 10
388.462280
 20
104.250038
 11
389.261963
 21
104.250038
  0
LINE
  8
0
  6
PHANTOM
 62
     3
 10
388.462280
 20
98.750038
 11
389.261963
 21
98.750038
  0
LINE
  8
0
  6
PHANTOM
 62
     1
 10
394.261963
 20
102.750038
 11
394.761963
 21
102.750038
  0
LINE
  8
0
  6
PHANTOM
 62
     1
 10
394.261963
 20
102.479546
 11
394.761963
 21
102.479546
  0
LINE
  8
0
  6
PHANTOM
 10
391.761963
 20
89.500038
 11
395.761963
 21
89.500038
  0
LINE
  8
0
  6
PHANTOM
 10
395.761963
 20
90.354317
 11
395.761963
 21
89.500053
  0
LINE
  8
0
  6
PHANTOM
 10
457.761963
 20
112.000038
 11
457.761963
 21
108.000038
  0
LINE
  8
0
  6
PHANTOM
 10
456.895966
 20
108.866066
 11
454.627960
 21
108.866066
  0
LINE
  8
0
  6
PHANTOM
 10
457.761963
 20
108.000038
 11
453.761963
 21
108.000038
  0
LINE
  8
0
  6
PHANTOM
 10
457.761963
 20
112.000038
 11
453.761963
 21
112.000038
  0
LINE
  8
0
  6
PHANTOM
 10
456.895966
 20
111.134010
 11
454.627960
 21
111.134010
  0
LINE
  8
0
  6
PHANTOM
 10
456.895966
 20
111.134010
 11
456.895966
 21
108.866066
  0
LINE
  8
0
  6
PHANTOM
 10
454.627960
 20
111.134010
 11
454.627960
 21
108.866066
  0
LINE
  8
0
  6
PHANTOM
 10
457.761871
 20
112.000122
 11
456.895905
 21
111.134117
  0
LINE
  8
0
  6
PHANTOM
 10
456.895966
 20
108.866066
 11
457.761963
 21
108.000038
  0
LINE
  8
0
  6
PHANTOM
 10
454.627960
 20
108.866051
 11
453.761932
 21
108.000031
  0
LINE
  8
0
  6
PHANTOM
 10
454.627899
 20
111.133995
 11
453.761902
 21
112.000023
  0
LINE
  8
0
  6
PHANTOM
 10
459.261963
 20
112.800041
 11
454.261963
 21
112.800041
  0
LINE
  8
0
  6
PHANTOM
 10
454.261963
 20
112.800041
 11
454.261963
 21
112.000038
  0
LINE
  8
0
  6
PHANTOM
 10
454.261963
 20
108.000038
 11
454.261963
 21
101.500038
  0
LINE
  8
0
  6
PHANTOM
 10
459.261963
 20
112.800041
 11
459.261963
 21
96.368736
  0
LINE
  8
0
  6
CENTER
 10
462.261963
 20
101.500038
 11
452.761963
 21
101.500038
  0
LINE
  8
0
  6
PHANTOM
 62
     3
 10
460.061584
 20
104.250038
 11
459.261963
 21
104.250038
  0
LINE
  8
0
  6
PHANTOM
 62
     3
 10
460.061584
 20
98.750038
 11
459.261963
 21
98.750038
  0
LINE
  8
0
  6
PHANTOM
 62
     1
 10
454.261963
 20
102.750038
 11
453.761963
 21
102.750038
  0
LINE
  8
0
  6
PHANTOM
 62
     1
 10
454.261963
 20
102.479546
 11
453.761963
 21
102.479546
  0
LINE
  8
0
  6
PHANTOM
 10
456.761963
 20
89.500038
 11
452.761963
 21
89.500038
  0
LINE
  8
0
  6
PHANTOM
 10
452.761963
 20
90.354317
 11
452.761963
 21
89.500053
  0
LINE
  8
0
  6
PHANTOM
 10
419.261963
 20
59.500038
 11
422.761963
 21
59.500038
  0
LINE
  8
0
 10
419.261932
 20
160.499985
 11
419.761902
 21
160.999969
  0
LINE
  8
0
 10
419.261963
 20
160.500031
 11
422.761963
 21
160.500031
  0
LINE
  8
0
 10
419.261963
 20
160.500031
 11
419.261963
 21
133.000031
  0
LINE
  8
0
 10
429.261932
 20
160.500046
 11
428.761932
 21
161.000031
  0
LINE
  8
0
 10
429.261963
 20
160.500031
 11
429.261963
 21
133.000031
  0
LINE
  8
0
 10
414.261963
 20
133.000031
 11
434.261963
 21
133.000031
  0
LINE
  8
0
 10
434.261963
 20
133.000061
 11
434.261963
 21
131.000031
  0
LINE
  8
0
 10
414.261963
 20
133.000031
 11
414.261963
 21
131.000031
  0
LINE
  8
0
 10
419.761902
 20
161.000000
 11
428.761993
 21
161.000000
  0
LINE
  8
0
  6
PHANTOM
 10
419.761963
 20
59.000038
 11
428.761963
 21
59.000038
  0
LINE
  8
0
 10
419.761963
 20
86.500038
 11
428.761963
 21
86.500038
  0
LINE
  8
0
 10
429.261902
 20
87.000046
 11
428.761902
 21
86.500038
  0
LINE
  8
0
  6
PHANTOM
 10
429.261932
 20
59.500031
 11
428.761932
 21
59.000042
  0
LINE
  8
0
 10
419.261993
 20
87.000046
 11
419.761993
 21
86.500069
  0
LINE
  8
0
  6
PHANTOM
 10
419.261993
 20
59.500122
 11
419.761963
 21
59.000134
  0
LINE
  8
0
 10
434.261963
 20
87.000038
 11
434.261963
 21
89.000038
  0
LINE
  8
0
 10
414.261963
 20
87.000038
 11
434.261963
 21
87.000038
  0
LINE
  8
0
 10
414.261963
 20
87.000038
 11
414.261963
 21
89.000038
  0
LINE
  8
0
  6
PHANTOM
 10
419.261963
 20
59.500038
 11
419.261963
 21
87.000038
  0
LINE
  8
0
  6
PHANTOM
 10
429.261963
 20
59.500038
 11
429.261963
 21
87.000038
  0
LINE
  8
0
  6
CENTER
 10
386.261963
 20
101.500038
 11
395.761963
 21
101.500038
  0
LINE
  8
0
  6
PHANTOM
 10
391.761932
 20
89.500008
 11
389.261902
 21
96.368744
  0
LINE
  8
0
  6
PHANTOM
 10
456.761963
 20
89.500046
 11
459.261963
 21
96.368729
  0
LINE
  8
0
 10
422.761963
 20
161.000000
 11
422.761963
 21
141.000000
  0
LINE
  8
0
 10
425.761963
 20
161.000000
 11
425.761963
 21
141.000000
  0
LINE
  8
0
 10
422.761963
 20
141.000000
 11
425.761963
 21
141.000000
  0
LINE
  8
0
  6
PHANTOM
 10
422.761963
 20
79.000038
 11
425.761963
 21
79.000038
  0
LINE
  8
0
  6
PHANTOM
 10
422.761963
 20
79.000038
 11
422.761963
 21
59.000038
  0
LINE
  8
0
  6
PHANTOM
 10
425.761963
 20
79.000038
 11
425.761963
 21
59.000038
  0
LINE
  8
0
 10
425.761963
 20
160.500031
 11
429.261963
 21
160.500031
  0
LINE
  8
0
  6
PHANTOM
 10
425.761963
 20
59.500038
 11
429.261963
 21
59.500038
  0
LINE
  8
0
  6
CENTER
 10
408.261963
 20
119.000038
 11
420.261963
 21
119.000038
  0
LINE
  8
0
  6
CENTER
 10
428.261963
 20
101.000038
 11
440.261963
 21
101.000038
  0
LINE
  8
0
  6
CENTER
 10
434.261963
 20
107.000038
 11
434.261963
 21
95.000038
  0
LINE
  8
0
  6
CENTER
 10
414.261963
 20
125.000038
 11
414.261963
 21
113.000038
  0
LINE
  8
0
  6
CENTER
 10
395.261963
 20
125.000038
 11
406.261963
 21
125.000038
  0
LINE
  8
0
  6
CENTER
 10
442.261963
 20
125.000038
 11
453.261963
 21
125.000038
  0
LINE
  8
0
  6
CENTER
 10
442.261963
 20
95.000038
 11
453.261963
 21
95.000038
  0
LINE
  8
0
  6
CENTER
 10
395.261963
 20
95.000038
 11
406.261963
 21
95.000038
  0
LINE
  8
0
  6
CENTER
 10
400.761963
 20
100.500038
 11
400.761963
 21
89.500038
  0
LINE
  8
0
  6
CENTER
 10
400.761963
 20
130.500031
 11
400.761963
 21
119.500038
  0
LINE
  8
0
  6
CENTER
 10
447.761963
 20
130.500031
 11
447.761963
 21
119.500038
  0
LINE
  8
0
  6
CENTER
 10
447.761963
 20
100.500038
 11
447.761963
 21
89.500038
  0
LINE
  8
0
 62
     3
 10
398.761963
 20
126.154747
 11
398.761963
 21
123.845345
  0
LINE
  8
0
 62
     3
 10
402.761963
 20
126.154747
 11
402.761963
 21
123.845345
  0
LINE
  8
0
 62
     3
 10
398.761932
 20
126.154732
 11
400.761963
 21
127.309441
  0
LINE
  8
0
 62
     3
 10
400.761963
 20
122.690620
 11
402.761932
 21
123.845314
  0
LINE
  8
0
 62
     3
 10
400.761963
 20
127.309425
 11
402.761963
 21
126.154732
  0
LINE
  8
0
 62
     3
 10
398.761963
 20
123.845329
 11
400.761963
 21
122.690636
  0
LINE
  8
0
 62
     3
 10
445.761963
 20
126.154747
 11
445.761963
 21
123.845345
  0
LINE
  8
0
 62
     3
 10
449.761963
 20
126.154747
 11
449.761963
 21
123.845345
  0
LINE
  8
0
 62
     3
 10
445.761932
 20
126.154724
 11
447.761932
 21
127.309418
  0
LINE
  8
0
 62
     3
 10
447.761932
 20
122.690620
 11
449.761932
 21
123.845314
  0
LINE
  8
0
 62
     3
 10
447.761963
 20
127.309433
 11
449.761932
 21
126.154739
  0
LINE
  8
0
 62
     3
 10
445.761963
 20
123.845360
 11
447.761963
 21
122.690666
  0
LINE
  8
0
 62
     3
 10
445.761963
 20
96.154747
 11
445.761963
 21
93.845345
  0
LINE
  8
0
 62
     3
 10
449.761963
 20
96.154747
 11
449.761963
 21
93.845345
  0
LINE
  8
0
 62
     3
 10
445.761932
 20
96.154709
 11
447.761932
 21
97.309402
  0
LINE
  8
0
 62
     3
 10
447.761993
 20
92.690605
 11
449.761963
 21
93.845299
  0
LINE
  8
0
 62
     3
 10
447.761963
 20
97.309448
 11
449.761963
 21
96.154755
  0
LINE
  8
0
 62
     3
 10
445.761963
 20
93.845352
 11
447.761963
 21
92.690659
  0
LINE
  8
0
 62
     3
 10
398.761963
 20
96.154747
 11
398.761963
 21
93.845345
  0
LINE
  8
0
 62
     3
 10
402.761963
 20
96.154747
 11
402.761963
 21
93.845345
  0
LINE
  8
0
 62
     3
 10
398.761932
 20
96.154709
 11
400.761932
 21
97.309418
  0
LINE
  8
0
 62
     3
 10
400.761963
 20
92.690620
 11
402.761932
 21
93.845314
  0
LINE
  8
0
 62
     3
 10
400.761963
 20
97.309441
 11
402.761963
 21
96.154747
  0
LINE
  8
0
 62
     3
 10
398.761963
 20
93.845345
 11
400.761963
 21
92.690651
  0
CIRCLE
  8
0
 10
279.647247
 20
118.500046
 40
1.500000
  0
CIRCLE
  8
0
 10
279.647247
 20
118.500046
 40
1.229500
  0
CIRCLE
  8
0
  6
PHANTOM
 62
     3
 10
279.647247
 20
101.500076
 40
2.750000
  0
ARC
  8
0
  6
PHANTOM
 10
315.635803
 20
110.750046
 40
1.000000
 50
311.409637
 51
48.590370
  0
ARC
  8
0
  6
PHANTOM
 10
316.958679
 20
109.250046
 40
1.000000
 50
131.409622
 51
228.590378
  0
ARC
  8
0
  6
PHANTOM
 10
315.635803
 20
109.250046
 40
1.000000
 50
311.409637
 51
48.590370
  0
CIRCLE
  8
0
 62
     3
 10
257.247223
 20
241.646927
 40
3.000000
  0
CIRCLE
  8
0
 62
     3
 10
257.247223
 20
271.646912
 40
3.000000
  0
CIRCLE
  8
0
 62
     3
 10
272.247223
 20
256.646912
 40
3.000000
  0
CIRCLE
  8
0
 62
     3
 10
242.247253
 20
256.646912
 40
3.000000
  0
ARC
  8
0
 10
257.247223
 20
256.646912
 40
4.999989
 50
17.457645
 51
342.542358
  0
ARC
  8
0
 10
257.247223
 20
256.646912
 40
4.500004
 50
19.471201
 51
340.528809
  0
ARC
  8
0
  6
PHANTOM
 10
314.235809
 20
287.396942
 40
1.000000
 50
311.409637
 51
48.590370
  0
ARC
  8
0
  6
PHANTOM
 10
314.235809
 20
288.896942
 40
1.000000
 50
311.409637
 51
48.590370
  0
ARC
  8
0
  6
PHANTOM
 10
315.558685
 20
288.896942
 40
1.000000
 50
131.409622
 51
228.590378
  0
ARC
  8
0
  6
PHANTOM
 62
     3
 10
279.647217
 20
288.646942
 40
5.000006
 50
61.264477
 51
118.735214
  0
ARC
  8
0
  6
PHANTOM
 62
     3
 10
281.730530
 20
292.446564
 40
0.666687
 50
0.000000
 51
61.264580
  0
ARC
  8
0
  6
PHANTOM
 62
     3
 10
277.563934
 20
292.446564
 40
0.666699
 50
118.735420
 51
180.000000
  0
ARC
  8
0
  6
PHANTOM
 62
     3
 10
277.563934
 20
220.847275
 40
0.666687
 50
180.000000
 51
241.264587
  0
ARC
  8
0
  6
PHANTOM
 10
314.235809
 20
224.396927
 40
1.000000
 50
311.409637
 51
48.590370
  0
ARC
  8
0
  6
PHANTOM
 10
314.235809
 20
225.896927
 40
1.000000
 50
311.409637
 51
48.590370
  0
ARC
  8
0
  6
PHANTOM
 10
315.558685
 20
225.896927
 40
1.000000
 50
131.409622
 51
228.590378
  0
ARC
  8
0
  6
PHANTOM
 62
     3
 10
279.647217
 20
224.646927
 40
5.000006
 50
241.264481
 51
298.735229
  0
ARC
  8
0
  6
PHANTOM
 62
     3
 10
281.730530
 20
220.847275
 40
0.666699
 50
298.735413
 51
0.000000
  0
CIRCLE
  8
0
 10
257.247223
 20
256.646912
 40
10.000000
  0
CIRCLE
  8
0
 10
257.247223
 20
256.646912
 40
19.000000
  0
CIRCLE
  8
0
 10
233.247253
 20
256.646912
 40
2.066999
  0
CIRCLE
  8
0
 10
257.247223
 20
232.646927
 40
2.066999
  0
CIRCLE
  8
0
 10
281.247253
 20
256.646912
 40
2.066999
  0
CIRCLE
  8
0
 10
233.247253
 20
256.646912
 40
2.500000
  0
CIRCLE
  8
0
 10
281.247253
 20
256.646912
 40
2.500000
  0
CIRCLE
  8
0
 10
257.247223
 20
232.646927
 40
2.500000
  0
CIRCLE
  8
0
 10
257.247223
 20
280.646912
 40
2.500000
  0
CIRCLE
  8
0
 10
257.247223
 20
280.646912
 40
2.066999
  0
CIRCLE
  8
0
 62
     3
 10
73.577225
 20
95.000053
 40
5.000000
  0
CIRCLE
  8
0
 62
     3
 10
73.577225
 20
125.000053
 40
5.000000
  0
CIRCLE
  8
0
 62
     3
 10
120.577225
 20
125.000053
 40
5.000000
  0
CIRCLE
  8
0
 62
     3
 10
120.577225
 20
95.000053
 40
5.000000
  0
ARC
  8
0
 10
71.577225
 20
127.000053
 40
4.000008
 50
90.000000
 51
180.000000
  0
ARC
  8
0
  6
PHANTOM
 62
     3
 10
132.876877
 20
103.583351
 40
0.666699
 50
28.735418
 51
90.000000
  0
ARC
  8
0
  6
PHANTOM
 62
     3
 10
132.876877
 20
99.416756
 40
0.666702
 50
270.000000
 51
331.264587
  0
ARC
  8
0
 10
122.577225
 20
127.000053
 40
4.000000
 50
0.000000
 51
90.000000
  0
ARC
  8
0
 10
122.577225
 20
93.000053
 40
4.000000
 50
270.000000
 51
0.000000
  0
ARC
  8
0
 10
71.577225
 20
93.000053
 40
4.000000
 50
180.000000
 51
270.000000
  0
ARC
  8
0
  6
PHANTOM
 62
     3
 10
129.077225
 20
101.500053
 40
4.999999
 50
331.264618
 51
28.735369
  0
ARC
  8
0
  6
PHANTOM
 62
     3
 10
65.077225
 20
101.500053
 40
4.999999
 50
151.264633
 51
208.735352
  0
ARC
  8
0
  6
PHANTOM
 62
     3
 10
61.277542
 20
103.583351
 40
0.666702
 50
90.000000
 51
151.264587
  0
ARC
  8
0
  6
PHANTOM
 62
     3
 10
61.277542
 20
99.416756
 40
0.666699
 50
208.735413
 51
270.000000
  0
CIRCLE
  8
0
 62
     3
 10
447.761963
 20
95.000038
 40
4.250000
  0
CIRCLE
  8
0
 62
     3
 10
400.761963
 20
95.000038
 40
4.250000
  0
CIRCLE
  8
0
 62
     3
 10
400.761963
 20
95.000038
 40
3.730385
  0
CIRCLE
  8
0
 62
     3
 10
447.761963
 20
95.000038
 40
3.730385
  0
ARC
  8
0
 10
398.761963
 20
127.000038
 40
3.999992
 50
90.000000
 51
180.000000
  0
ARC
  8
0
  6
PHANTOM
 62
     3
 10
460.061584
 20
103.583336
 40
0.666699
 50
28.735418
 51
90.000000
  0
ARC
  8
0
  6
PHANTOM
 62
     3
 10
460.061584
 20
99.416740
 40
0.666702
 50
270.000000
 51
331.264587
  0
ARC
  8
0
 10
449.761963
 20
127.000038
 40
4.000000
 50
0.000000
 51
90.000000
  0
ARC
  8
0
 10
449.761963
 20
93.000038
 40
4.000000
 50
270.000000
 51
0.000000
  0
ARC
  8
0
 10
398.761963
 20
93.000038
 40
4.000000
 50
180.000000
 51
270.000000
  0
ARC
  8
0
  6
PHANTOM
 62
     3
 10
456.261963
 20
101.500038
 40
4.999999
 50
331.264618
 51
28.735369
  0
ARC
  8
0
  6
PHANTOM
 62
     3
 10
392.261963
 20
101.500038
 40
4.999999
 50
151.264633
 51
208.735367
  0
ARC
  8
0
  6
PHANTOM
 62
     3
 10
388.462280
 20
103.583336
 40
0.666702
 50
90.000000
 51
151.264587
  0
ARC
  8
0
  6
PHANTOM
 62
     3
 10
388.462280
 20
99.416740
 40
0.666699
 50
208.735413
 51
270.000000
  0
ARC
  8
0
  6
PHANTOM
 10
424.261963
 20
79.000038
 40
1.500000
 50
0.000000
 51
180.000000
  0
ARC
  8
0
 10
424.261963
 20
141.000000
 40
1.500000
 50
180.000000
 51
0.000000
  0
CIRCLE
  8
0
 10
414.261963
 20
119.000038
 40
4.863999
  0
CIRCLE
  8
0
 10
434.261963
 20
101.000038
 40
4.863999
  0
CIRCLE
  8
0
 10
434.261963
 20
101.000038
 40
4.283000
  0
CIRCLE
  8
0
 10
414.261963
 20
119.000038
 40
4.283000
  0
CIRCLE
  8
0
 62
     3
 10
400.761963
 20
125.000038
 40
4.250000
  0
CIRCLE
  8
0
 62
     3
 10
400.761963
 20
125.000038
 40
3.730385
  0
CIRCLE
  8
0
 62
     3
 10
447.761963
 20
125.000038
 40
4.250000
  0
CIRCLE
  8
0
 62
     3
 10
447.761963
 20
125.000038
 40
3.730385
  0
TEXT
  8
0
 10
422.460297
 20
345.487762
 40
6.000000
  1
DATE : MAR ,1992
 50
0.000000
 41
1.052631
 51
0.000000
  7
STANDARD
  0
TEXT
  8
0
 10
30.750000
 20
289.475342
 40
7.000000
  1
        RAPS20-100
 50
0.000000
 41
1.052632
 51
0.000000
  7
STANDARD
  0
TEXT
  8
0
 10
2.364407
 20
344.587708
 40
7.000000
  1
ROTARY ACUTUATOR
 50
0.000000
 41
0.956938
 51
0.000000
  7
STANDARD
  0
TEXT
  8
0
 10
329.057800
 20
244.689590
 40
5.000000
  1
〃
 50
90.000000
 41
0.833333
 51
0.000000
  7
STANDARD
  0
TEXT
  8
0
 10
329.057800
 20
262.676117
 40
5.000000
  1
〃
 50
90.000000
 41
0.833333
 51
0.000000
  7
STANDARD
  0
TEXT
  8
0
 10
338.647217
 20
254.314941
 40
5.000000
  1
D
 50
90.000000
 41
0.845557
 51
0.000000
  7
STANDARD
  0
TEXT
  8
0
 10
30.750000
 20
299.475342
 40
7.000000
  1
MODEL : RAPS20-90
 50
0.000000
 41
1.052632
 51
0.000000
  7
STANDARD
  0
TEXT
  8
0
 10
427.811859
 20
4.812350
 40
7.000000
  1
KOGANEI,CORP
 50
0.000000
 41
1.052632
 51
0.000000
  7
STANDARD
  0
TEXT
  8
0
 10
324.016113
 20
285.011810
 40
3.200000
  1
            
 50
277.500000
 41
1.052632
 51
0.000000
  7
STANDARD
  0
ARC
  8
0
 10
257.247375
 20
256.646912
 40
68.899841
 50
0.000000
 51
14.999988
  0
LINE
  8
0
 10
326.147217
 20
256.646912
 11
325.307922
 21
259.526886
  0
LINE
  8
0
 10
326.147217
 20
256.646912
 11
326.860352
 21
259.560669
  0
LINE
  8
0
 10
323.799530
 20
274.479492
 11
325.242493
 21
271.849579
  0
LINE
  8
0
 10
323.799530
 20
274.479492
 11
323.734222
 21
271.480438
  0
LINE
  8
0
 10
314.147247
 20
256.646912
 11
328.433228
 21
256.646912
  0
LINE
  8
0
 10
341.147217
 20
279.127838
 11
321.591400
 21
273.887878
  0
LINE
  8
0
 10
436.694031
 20
96.787682
 11
461.397491
 21
54.000027
  0
LINE
  8
0
 10
461.397491
 20
54.000027
 11
498.770935
 21
54.000027
  0
LINE
  8
0
 10
436.694031
 20
96.787682
 11
437.470490
 21
93.889908
  0
LINE
  8
0
 10
436.694031
 20
96.787682
 11
438.815338
 21
94.666359
  0
TEXT
  8
0
 10
462.592377
 20
55.000027
 40
5.000000
  1
2-Rc1/8
 50
0.000000
 41
1.052632
 51
0.000000
  7
STANDARD
  0
TEXT
  8
0
 10
340.120209
 20
241.184387
 40
5.000000
  1
　　　
 50
89.900002
 41
0.833333
 51
0.000000
  7
STANDARD
  0
ARC
  8
0
 10
257.247253
 20
256.646912
 40
83.899986
 50
345.000000
 51
14.999993
  0
LINE
  8
0
 10
338.288422
 20
234.932007
 11
338.234772
 21
237.931381
  0
LINE
  8
0
 10
338.288422
 20
234.932007
 11
339.741669
 21
237.556366
  0
LINE
  8
0
 10
338.288422
 20
278.361816
 11
339.741669
 21
275.737488
  0
LINE
  8
0
 10
338.288422
 20
278.361816
 11
338.234802
 21
275.362457
  0
LINE
  8
0
 10
331.912079
 20
236.640594
 11
340.496552
 21
234.340378
  0
LINE
  8
0
 10
330.686798
 20
276.324951
 11
340.496490
 21
278.953491
  0
TEXT
  8
0
 10
323.286255
 20
238.060944
 40
3.200000
  1
　　　
 50
82.500000
 41
0.833333
 51
0.000000
  7
STANDARD
  0
ARC
  8
0
 10
257.247131
 20
256.646912
 40
68.900108
 50
345.000000
 51
0.000000
  0
LINE
  8
0
 10
323.799530
 20
238.814255
 11
323.734222
 21
241.813309
  0
LINE
  8
0
 10
323.799530
 20
238.814255
 11
325.242493
 21
241.444168
  0
LINE
  8
0
 10
326.147247
 20
256.646912
 11
326.860382
 21
253.733139
  0
LINE
  8
0
 10
326.147247
 20
256.646912
 11
325.307953
 21
253.766953
  0
LINE
  8
0
 10
341.147186
 20
234.165909
 11
321.591370
 21
239.405869
  0
LINE
  8
0
 10
314.147247
 20
256.646912
 11
328.433228
 21
256.646912
  0
ENDSEC
  0
EOF
