  0
SECTION
  2
HEADER
  0
ENDSEC
  0
SECTION
  2
TABLES
  0
TABLE
  2
LTYPE
 70
     4
  0
LTYPE
  2
CONTINUOUS
 70
    64
  3
Solid line
 72
    65
 73
     0
 40
0.000000
  0
LTYPE
  2
DASHED
 70
    64
  3
__ __ __ __ __ __ __ __ __ __ __ __ __ __ __
 72
    65
 73
     2
 40
3.500000
 49
2.000000
 49
-1.500000
  0
LTYPE
  2
CENTER
 70
    64
  3
____ _ ____ _ ____ _ ____ _ ____ _ ____ _ ____
 72
    65
 73
     4
 40
17.500000
 49
13.000000
 49
-1.500000
 49
1.500000
 49
-1.500000
  0
LTYPE
  2
PHANTOM
 70
    64
  3
_____ _ _ _____ _ _ _____ _ _ _____ _ _ ____  
 72
    65
 73
     6
 40
15.500000
 49
8.000000
 49
-1.500000
 49
1.500000
 49
-1.500000
 49
1.500000
 49
-1.500000
  0
LTYPE
  2
DASHED1
 70
    64
  3
__ __ __ __ __ __ __ __ __ __ __ __ __ __ __
 72
    65
 73
     2
 40
1.500000
 49
1.000000
 49
-0.500000
  0
LTYPE
  2
DASHED2
 70
    64
  3
__ __ __ __ __ __ __ __ __ __ __ __ __ __ __
 72
    65
 73
     2
 40
3.500000
 49
2.500000
 49
-1.000000
  0
LTYPE
  2
DASHED3
 70
    64
  3
__ __ __ __ __ __ __ __ __ __ __ __ __ __ __
 72
    65
 73
     2
 40
6.000000
 49
4.000000
 49
-2.000000
  0
LTYPE
  2
DASHED4
 70
    64
  3
__ __ __ __ __ __ __ __ __ __ __ __ __ __ __
 72
    65
 73
     2
 40
12.000000
 49
10.000000
 49
-2.000000
  0
LTYPE
  2
DASHED5
 70
    64
  3
__ __ __ __ __ __ __ __ __ __ __ __ __ __ __
 72
    65
 73
     2
 40
17.000000
 49
15.000000
 49
-2.000000
  0
LTYPE
  2
DASHED6
 70
    64
  3
__ __ __ __ __ __ __ __ __ __ __ __ __ __ __
 72
    65
 73
     2
 40
29.000000
 49
27.000000
 49
-2.000000
  0
LTYPE
  2
PHANTOM1
 70
    64
  3
_____ _ _ _____ _ _ _____ _ _ _____ _ _ ____  
 72
    65
 73
     6
 40
31.000000
 49
25.000000
 49
-1.500000
 49
1.000000
 49
-1.000000
 49
1.000000
 49
-1.500000
  0
LTYPE
  2
PHANTOM2
 70
    64
  3
_____ _ _ _____ _ _ _____ _ _ _____ _ _ ____  
 72
    65
 73
     6
 40
36.000000
 49
27.000000
 49
-1.500000
 49
2.500000
 49
-1.000000
 49
2.500000
 49
-1.500000
  0
LTYPE
  2
PHANTOM3
 70
    64
  3
_____ _ _ _____ _ _ _____ _ _ _____ _ _ ____  
 72
    65
 73
     6
 40
78.000000
 49
64.000000
 49
-2.000000
 49
4.000000
 49
-2.000000
 49
4.000000
 49
-2.000000
  0
LTYPE
  2
CENTER1
 70
    64
  3
____ _ ____ _ ____ _ ____ _ ____ _ ____ _ ____
 72
    65
 73
     4
 40
19.000000
 49
14.000000
 49
-1.000000
 49
3.000000
 49
-1.000000
  0
LTYPE
  2
CENTER2
 70
    64
  3
____ _ ____ _ ____ _ ____ _ ____ _ ____ _ ____
 72
    65
 73
     4
 40
28.500000
 49
25.000000
 49
-1.000000
 49
1.500000
 49
-1.000000
  0
LTYPE
  2
CENTER3
 70
    64
  3
____ _ ____ _ ____ _ ____ _ ____ _ ____ _ ____
 72
    65
 73
     4
 40
31.500000
 49
27.000000
 49
-1.000000
 49
2.500000
 49
-1.000000
  0
LTYPE
  2
CENTER4
 70
    64
  3
____ _ ____ _ ____ _ ____ _ ____ _ ____ _ ____
 72
    65
 73
     4
 40
50.000000
 49
45.000000
 49
-1.000000
 49
3.000000
 49
-1.000000
  0
LTYPE
  2
CENTER5
 70
    64
  3
____ _ ____ _ ____ _ ____ _ ____ _ ____ _ ____
 72
    65
 73
     4
 40
100.000000
 49
92.000000
 49
-2.000000
 49
4.000000
 49
-2.000000
  0
LTYPE
  2
SBK1
 70
    64
  3
______ _ _ _ ______ _ _ _ ______ _ _ _ _____  
 72
    65
 73
     8
 40
60.500000
 49
45.000000
 49
-2.000000
 49
2.500000
 49
-2.000000
 49
2.500000
 49
-2.000000
 49
2.500000
 49
-2.000000
  0
LTYPE
  2
SBK2
 70
    64
  3
______ _ _ _ ______ _ _ _ ______ _ _ _ _____  
 72
    65
 73
     8
 40
84.000000
 49
64.000000
 49
-2.000000
 49
4.000000
 49
-2.000000
 49
4.000000
 49
-2.000000
 49
4.000000
 49
-2.000000
  0
LTYPE
  2
STCH
 70
    64
  3
__ __ __ __ __ __ __ __ __ __ __ __ __ __ __
 72
    65
 73
     2
 40
3.000000
 49
1.000000
 49
-2.000000
  0
LTYPE
  2
MTCH
 70
    64
  3
_____ _ _ _____ _ _ _____ _ _ _____ _ _ ____  
 72
    65
 73
     6
 40
80.000000
 49
66.000000
 49
-2.000000
 49
4.000000
 49
-2.000000
 49
4.000000
 49
-2.000000
  0
ENDTAB
  0
TABLE
  2
LAYER
 70
     1
  0
LAYER
  2
0
 70
     0
 62
     7
  6
CONTINUOUS
  0
ENDTAB
  0
TABLE
  2
STYLE
 70
     1
  0
STYLE
  2
STANDARD
 70
     0
 40
0.000000
 41
1.000000
 50
0.000000
 71
     0
 42
0.200000
  3
txt
  4
BIGFONT
  0
ENDTAB
  0
TABLE
  2
VIEW
 70
     0
  0
ENDTAB
  0
ENDSEC
  0
SECTION
  2
BLOCKS
  0
ENDSEC
  0
SECTION
  2
ENTITIES
  0
POINT
  8
0
 10
176.336792
 20
74.279236
  0
POINT
  8
0
 10
226.836792
 20
74.279236
  0
POINT
  8
0
 10
176.336807
 20
180.926086
  0
POINT
  8
0
 10
226.836792
 20
180.926086
  0
POINT
  8
0
 10
176.336792
 20
180.926117
  0
POINT
  8
0
 10
61.166710
 20
74.279221
  0
POINT
  8
0
 10
83.666710
 20
74.279221
  0
POINT
  8
0
 10
307.300323
 20
74.279228
  0
POINT
  8
0
 10
329.800293
 20
74.279228
  0
LINE
  8
0
 62
     3
 10
0.000000
 20
0.000000
 11
0.000000
 21
254.558472
  0
LINE
  8
0
 62
     3
 10
370.873566
 20
254.558472
 11
370.873566
 21
0.000000
  0
LINE
  8
0
 62
     3
 10
0.000000
 20
0.000000
 11
370.873566
 21
0.000000
  0
LINE
  8
0
 62
     3
 10
0.000000
 20
254.558472
 11
370.873566
 21
254.558472
  0
LINE
  8
0
 62
     3
 10
0.000000
 20
240.257431
 11
76.272194
 21
240.257431
  0
LINE
  8
0
 62
     3
 10
76.272194
 20
240.257431
 11
76.272194
 21
254.558472
  0
LINE
  8
0
 62
     3
 10
294.601379
 20
14.301025
 11
370.873566
 21
14.301025
  0
LINE
  8
0
 62
     3
 10
294.601379
 20
240.257431
 11
370.873566
 21
240.257431
  0
LINE
  8
0
 62
     3
 10
294.601379
 20
254.558472
 11
294.601379
 21
240.257431
  0
LINE
  8
0
 62
     3
 10
294.601379
 20
14.301025
 11
294.601379
 21
0.000000
  0
LINE
  8
0
 10
176.336792
 20
180.926041
 11
251.836777
 21
201.156189
  0
LINE
  8
0
 10
176.336777
 20
180.926041
 11
251.836761
 21
160.695892
  0
LINE
  8
0
 10
148.836807
 20
90.279236
 11
226.836792
 21
90.279236
  0
LINE
  8
0
 10
148.836807
 20
58.279236
 11
226.836792
 21
58.279236
  0
LINE
  8
0
 10
215.836792
 20
90.279236
 11
215.836792
 21
75.779236
  0
LINE
  8
0
 10
151.836792
 20
90.279236
 11
151.836792
 21
58.279236
  0
LINE
  8
0
  6
CENTER
 10
146.736801
 20
74.279236
 11
235.586792
 21
74.279236
  0
LINE
  8
0
  6
CENTER
 10
176.336792
 20
113.279236
 11
176.336792
 21
35.279236
  0
LINE
  8
0
  6
CENTER
 10
181.586792
 20
65.779236
 11
191.086792
 21
65.779236
  0
LINE
  8
0
  6
CENTER
 10
186.336792
 20
78.079239
 11
186.336792
 21
56.779251
  0
LINE
  8
0
 10
226.836792
 20
90.279236
 11
226.836792
 21
75.779236
  0
LINE
  8
0
 10
148.836807
 20
90.279236
 11
148.836807
 21
58.279236
  0
LINE
  8
0
 10
183.336792
 20
56.279236
 11
183.336792
 21
58.279236
  0
LINE
  8
0
 10
169.336792
 20
56.279236
 11
183.336792
 21
56.279236
  0
LINE
  8
0
 10
179.336792
 20
55.779259
 11
179.836792
 21
56.279270
  0
LINE
  8
0
 10
173.336792
 20
55.779236
 11
179.336792
 21
55.779236
  0
LINE
  8
0
 10
173.336792
 20
55.779263
 11
172.836792
 21
56.279263
  0
LINE
  8
0
 10
169.336792
 20
56.279236
 11
169.336792
 21
58.279236
  0
LINE
  8
0
  6
PHANTOM
 10
173.336792
 20
38.779236
 11
173.336792
 21
55.779236
  0
LINE
  8
0
  6
PHANTOM
 10
179.336792
 20
48.279236
 11
179.336792
 21
55.779236
  0
LINE
  8
0
  6
PHANTOM
 10
173.336792
 20
38.779236
 11
178.836792
 21
38.779236
  0
LINE
  8
0
  6
PHANTOM
 10
173.836792
 20
38.279236
 11
178.836792
 21
38.279236
  0
LINE
  8
0
  6
PHANTOM
 10
173.336823
 20
38.779255
 11
173.836823
 21
38.279255
  0
LINE
  8
0
  6
PHANTOM
 10
179.336838
 20
48.279209
 11
178.836838
 21
47.779209
  0
LINE
  8
0
  6
PHANTOM
 10
182.586792
 20
77.079239
 11
190.086792
 21
77.079239
  0
LINE
  8
0
  6
PHANTOM
 10
190.086792
 20
77.079239
 11
190.086792
 21
58.779251
  0
LINE
  8
0
  6
PHANTOM
 10
182.586792
 20
77.079239
 11
182.586792
 21
58.779251
  0
LINE
  8
0
  6
PHANTOM
 10
189.336792
 20
76.279236
 11
189.336792
 21
63.579235
  0
LINE
  8
0
  6
PHANTOM
 10
183.336792
 20
76.279236
 11
183.336792
 21
63.579235
  0
LINE
  8
0
  6
PHANTOM
 10
183.336792
 20
76.279236
 11
189.336792
 21
76.279236
  0
LINE
  8
0
  6
PHANTOM
 10
183.336792
 20
63.579235
 11
184.686798
 21
63.579235
  0
LINE
  8
0
  6
PHANTOM
 10
184.836792
 20
63.079239
 11
185.814774
 21
63.079239
  0
LINE
  8
0
  6
PHANTOM
 10
184.836792
 20
63.474346
 11
184.836792
 21
63.079239
  0
LINE
  8
0
  6
PHANTOM
 10
187.836792
 20
63.474346
 11
187.836792
 21
63.079239
  0
LINE
  8
0
  6
PHANTOM
 10
187.986801
 20
63.579235
 11
189.336792
 21
63.579235
  0
LINE
  8
0
  6
PHANTOM
 10
186.858810
 20
63.079239
 11
187.836792
 21
63.079239
  0
LINE
  8
0
  6
PHANTOM
 10
179.086792
 20
72.279236
 11
182.586792
 21
72.279236
  0
LINE
  8
0
  6
PHANTOM
 10
190.086792
 20
72.279236
 11
199.586792
 21
72.279236
  0
LINE
  8
0
  6
PHANTOM
 10
179.086792
 20
76.279236
 11
182.586792
 21
76.279236
  0
LINE
  8
0
  6
PHANTOM
 10
179.086792
 20
76.279236
 11
179.086792
 21
72.279236
  0
LINE
  8
0
  6
PHANTOM
 10
177.586807
 20
75.413193
 11
179.086792
 21
76.279213
  0
LINE
  8
0
  6
PHANTOM
 10
177.586792
 20
75.413223
 11
177.586792
 21
73.145264
  0
LINE
  8
0
  6
PHANTOM
 10
177.586792
 20
73.145241
 11
179.086777
 21
72.279221
  0
LINE
  8
0
  6
PHANTOM
 10
190.086792
 20
76.279236
 11
199.586792
 21
76.279236
  0
LINE
  8
0
  6
PHANTOM
 10
199.586792
 20
76.279236
 11
199.586792
 21
72.279236
  0
LINE
  8
0
  6
PHANTOM
 10
199.586807
 20
76.279213
 11
201.586807
 21
75.779213
  0
LINE
  8
0
  6
PHANTOM
 10
201.586792
 20
75.779236
 11
201.586792
 21
72.779236
  0
LINE
  8
0
  6
PHANTOM
 10
199.586807
 20
72.279167
 11
201.586807
 21
72.779167
  0
LINE
  8
0
  6
PHANTOM
 10
201.586792
 20
72.779236
 11
231.986786
 21
72.779236
  0
LINE
  8
0
  6
PHANTOM
 10
201.586792
 20
75.779236
 11
231.986786
 21
75.779236
  0
LINE
  8
0
  6
CENTER
 10
183.836792
 20
82.779236
 11
188.836792
 21
82.779236
  0
LINE
  8
0
  6
CENTER
 10
186.336792
 20
85.279236
 11
186.336792
 21
80.279236
  0
LINE
  8
0
  6
PHANTOM
 10
182.586792
 20
61.779236
 11
190.086792
 21
61.779236
  0
LINE
  8
0
  6
PHANTOM
 10
182.586792
 20
58.779251
 11
190.086792
 21
58.779251
  0
LINE
  8
0
  6
PHANTOM
 10
178.836792
 20
38.279236
 11
178.836792
 21
47.779221
  0
LINE
  8
0
 10
178.836792
 20
110.279236
 11
178.836792
 21
100.779251
  0
LINE
  8
0
 10
183.336792
 20
92.279236
 11
183.336792
 21
90.279236
  0
LINE
  8
0
 10
169.336792
 20
92.279236
 11
183.336792
 21
92.279236
  0
LINE
  8
0
 10
179.336792
 20
92.779205
 11
179.836792
 21
92.279205
  0
LINE
  8
0
 10
173.336792
 20
92.779236
 11
179.336792
 21
92.779236
  0
LINE
  8
0
 10
173.336807
 20
92.779205
 11
172.836807
 21
92.279205
  0
LINE
  8
0
 10
169.336792
 20
92.279236
 11
169.336792
 21
90.279236
  0
LINE
  8
0
 10
173.336792
 20
109.779236
 11
173.336792
 21
92.779236
  0
LINE
  8
0
 10
179.336792
 20
100.279236
 11
179.336792
 21
92.779236
  0
LINE
  8
0
 10
173.336792
 20
109.779236
 11
178.836792
 21
109.779236
  0
LINE
  8
0
 10
173.836792
 20
110.279236
 11
178.836792
 21
110.279236
  0
LINE
  8
0
 10
173.336807
 20
109.779228
 11
173.836807
 21
110.279228
  0
LINE
  8
0
 10
179.336792
 20
100.279243
 11
178.836777
 21
100.779243
  0
LINE
  8
0
  6
PHANTOM
 10
185.276169
 20
64.718582
 11
187.397461
 21
66.839882
  0
LINE
  8
0
  6
PHANTOM
 10
185.276123
 20
66.839897
 11
187.397461
 21
64.718567
  0
LINE
  8
0
 10
215.836792
 20
72.779236
 11
215.836792
 21
58.279236
  0
LINE
  8
0
 10
226.836792
 20
72.779236
 11
226.836792
 21
58.279236
  0
LINE
  8
0
 10
151.836792
 20
203.426086
 11
151.836792
 21
158.426086
  0
LINE
  8
0
 10
148.836807
 20
158.426086
 11
226.836792
 21
158.426086
  0
LINE
  8
0
 10
148.836807
 20
203.426086
 11
226.836792
 21
203.426086
  0
LINE
  8
0
 10
226.836792
 20
203.426086
 11
226.836792
 21
158.426086
  0
LINE
  8
0
 10
148.836807
 20
203.426086
 11
148.836807
 21
158.426086
  0
LINE
  8
0
  6
CENTER
 10
176.336807
 20
206.426086
 11
176.336807
 21
155.426086
  0
LINE
  8
0
  6
CENTER
 10
164.586807
 20
188.926086
 11
172.086807
 21
188.926086
  0
LINE
  8
0
  6
CENTER
 10
180.586807
 20
188.926086
 11
188.086792
 21
188.926086
  0
LINE
  8
0
  6
CENTER
 10
180.586807
 20
172.926086
 11
188.086792
 21
172.926086
  0
LINE
  8
0
  6
CENTER
 10
164.586807
 20
172.926086
 11
172.086792
 21
172.926086
  0
LINE
  8
0
  6
CENTER
 10
168.336807
 20
176.676086
 11
168.336807
 21
169.176086
  0
LINE
  8
0
  6
CENTER
 10
184.336807
 20
176.676086
 11
184.336807
 21
169.176086
  0
LINE
  8
0
  6
CENTER
 10
184.336807
 20
192.676086
 11
184.336807
 21
185.176086
  0
LINE
  8
0
  6
CENTER
 10
168.336807
 20
192.676086
 11
168.336807
 21
185.176086
  0
LINE
  8
0
  6
PHANTOM
 10
174.186798
 20
206.560059
 11
174.186798
 21
204.292114
  0
LINE
  8
0
  6
PHANTOM
 10
175.686798
 20
207.426086
 11
175.686798
 21
203.426086
  0
LINE
  8
0
  6
PHANTOM
 10
175.686798
 20
207.426086
 11
179.186798
 21
207.426086
  0
LINE
  8
0
  6
PHANTOM
 10
186.686798
 20
207.426086
 11
196.186798
 21
207.426086
  0
LINE
  8
0
  6
PHANTOM
 10
174.186798
 20
206.560089
 11
175.686813
 21
207.426117
  0
LINE
  8
0
  6
PHANTOM
 10
174.186813
 20
204.292114
 11
175.686798
 21
203.426102
  0
LINE
  8
0
  6
PHANTOM
 10
196.186798
 20
207.426086
 11
196.186798
 21
203.426086
  0
LINE
  8
0
  6
PHANTOM
 10
198.186798
 20
203.926086
 11
224.186798
 21
203.926086
  0
LINE
  8
0
  6
PHANTOM
 10
198.186798
 20
206.926086
 11
224.186798
 21
206.926086
  0
LINE
  8
0
  6
PHANTOM
 10
198.186798
 20
206.926086
 11
198.186798
 21
203.926086
  0
LINE
  8
0
  6
PHANTOM
 10
196.186829
 20
207.426208
 11
198.186829
 21
206.926208
  0
LINE
  8
0
  6
PHANTOM
 10
196.186783
 20
203.426193
 11
198.186783
 21
203.926193
  0
LINE
  8
0
  6
CENTER
 10
227.186798
 20
205.426086
 11
195.186798
 21
205.426086
  0
LINE
  8
0
  6
CENTER
 10
182.936798
 20
212.926086
 11
182.936798
 21
201.426086
  0
LINE
  8
0
  6
PHANTOM
 10
186.686798
 20
208.926086
 11
186.686798
 21
203.926086
  0
LINE
  8
0
  6
PHANTOM
 10
179.186798
 20
208.926086
 11
179.186798
 21
203.926086
  0
LINE
  8
0
  6
PHANTOM
 10
179.186798
 20
203.926086
 11
186.686798
 21
203.926086
  0
LINE
  8
0
  6
PHANTOM
 10
179.186798
 20
208.926086
 11
186.686798
 21
208.926086
  0
LINE
  8
0
  6
PHANTOM
 62
     3
 10
185.686798
 20
209.725739
 11
185.686798
 21
208.926086
  0
LINE
  8
0
  6
PHANTOM
 62
     3
 10
180.186798
 20
209.725739
 11
180.186798
 21
208.926086
  0
LINE
  8
0
  6
PHANTOM
 10
174.186798
 20
155.292114
 11
174.186798
 21
157.560059
  0
LINE
  8
0
  6
PHANTOM
 10
175.686798
 20
154.426086
 11
175.686798
 21
158.426086
  0
LINE
  8
0
  6
PHANTOM
 10
175.686798
 20
154.426086
 11
179.186798
 21
154.426086
  0
LINE
  8
0
  6
PHANTOM
 10
186.686798
 20
154.426086
 11
196.186798
 21
154.426086
  0
LINE
  8
0
  6
PHANTOM
 10
174.186844
 20
155.292160
 11
175.686829
 21
154.426132
  0
LINE
  8
0
  6
PHANTOM
 10
174.186813
 20
157.560028
 11
175.686829
 21
158.426056
  0
LINE
  8
0
  6
PHANTOM
 10
196.186798
 20
154.426086
 11
196.186798
 21
158.426086
  0
LINE
  8
0
  6
PHANTOM
 10
198.186798
 20
157.926086
 11
224.186798
 21
157.926086
  0
LINE
  8
0
  6
PHANTOM
 10
198.186798
 20
154.926086
 11
224.186798
 21
154.926086
  0
LINE
  8
0
  6
PHANTOM
 10
198.186798
 20
154.926086
 11
198.186798
 21
157.926086
  0
LINE
  8
0
  6
PHANTOM
 10
196.186798
 20
154.426071
 11
198.186798
 21
154.926071
  0
LINE
  8
0
  6
PHANTOM
 10
196.186798
 20
158.426086
 11
198.186798
 21
157.926086
  0
LINE
  8
0
  6
CENTER
 10
227.186798
 20
156.426086
 11
195.186798
 21
156.426086
  0
LINE
  8
0
  6
CENTER
 10
182.936798
 20
148.926086
 11
182.936798
 21
160.426086
  0
LINE
  8
0
  6
PHANTOM
 10
186.686798
 20
152.926086
 11
186.686798
 21
157.926086
  0
LINE
  8
0
  6
PHANTOM
 10
179.186798
 20
152.926086
 11
179.186798
 21
157.926086
  0
LINE
  8
0
  6
PHANTOM
 10
179.186798
 20
157.926086
 11
186.686798
 21
157.926086
  0
LINE
  8
0
  6
PHANTOM
 10
179.186798
 20
152.926086
 11
186.686798
 21
152.926086
  0
LINE
  8
0
  6
PHANTOM
 62
     3
 10
185.686798
 20
152.126434
 11
185.686798
 21
152.926086
  0
LINE
  8
0
  6
PHANTOM
 62
     3
 10
180.186798
 20
152.126434
 11
180.186798
 21
152.926086
  0
LINE
  8
0
 10
215.836792
 20
203.426086
 11
215.836792
 21
158.426086
  0
LINE
  8
0
  6
CENTER
 10
162.336807
 20
187.176086
 11
162.336807
 21
174.676086
  0
LINE
  8
0
  6
CENTER
 10
190.336792
 20
187.176086
 11
190.336792
 21
174.676086
  0
LINE
  8
0
 10
178.836807
 20
182.584396
 11
178.836807
 21
179.267776
  0
LINE
  8
0
  6
CENTER
 10
145.836807
 20
180.926086
 11
232.555588
 21
180.926086
  0
LINE
  8
0
 10
167.417603
 20
173.845352
 11
169.256058
 21
172.006897
  0
LINE
  8
0
 10
167.417542
 20
172.006851
 11
169.256058
 21
173.845367
  0
LINE
  8
0
 10
167.417511
 20
189.845337
 11
169.256027
 21
188.006821
  0
LINE
  8
0
 10
167.417572
 20
188.006821
 11
169.256027
 21
189.845276
  0
LINE
  8
0
 10
185.256058
 20
172.006821
 11
183.417557
 21
173.845337
  0
LINE
  8
0
 10
185.256042
 20
173.845337
 11
183.417572
 21
172.006882
  0
LINE
  8
0
 10
185.256058
 20
189.845337
 11
183.417557
 21
188.006836
  0
LINE
  8
0
 10
185.256027
 20
188.006836
 11
183.417572
 21
189.845291
  0
LINE
  8
0
 10
42.666733
 20
58.279221
 11
79.666710
 21
58.279221
  0
LINE
  8
0
 10
42.666733
 20
90.279221
 11
79.666710
 21
90.279221
  0
LINE
  8
0
 10
38.666733
 20
86.279221
 11
38.666733
 21
62.279221
  0
LINE
  8
0
 10
83.666710
 20
86.279221
 11
83.666710
 21
62.279221
  0
LINE
  8
0
  6
CENTER
 10
30.166702
 20
74.279221
 11
92.166710
 21
74.279221
  0
LINE
  8
0
  6
CENTER
 10
61.166710
 20
113.279221
 11
61.166710
 21
35.279221
  0
LINE
  8
0
  6
PHANTOM
 10
58.166748
 20
38.779263
 11
58.666752
 21
38.279263
  0
LINE
  8
0
 10
58.166710
 20
109.779129
 11
58.666698
 21
110.279121
  0
LINE
  8
0
 10
58.166710
 20
109.779221
 11
64.166710
 21
109.779221
  0
LINE
  8
0
 10
58.166710
 20
109.779221
 11
58.166710
 21
92.779221
  0
LINE
  8
0
 10
64.166718
 20
109.779228
 11
63.666718
 21
110.279228
  0
LINE
  8
0
 10
64.166710
 20
109.779221
 11
64.166710
 21
92.779221
  0
LINE
  8
0
 10
58.166710
 20
92.779221
 11
64.166710
 21
92.779221
  0
LINE
  8
0
 10
54.166702
 20
92.279221
 11
68.166710
 21
92.279221
  0
LINE
  8
0
 10
64.166718
 20
92.779236
 11
64.666725
 21
92.279236
  0
LINE
  8
0
 10
58.166725
 20
92.779198
 11
57.666725
 21
92.279198
  0
LINE
  8
0
 10
68.166710
 20
92.279221
 11
68.166710
 21
90.279221
  0
LINE
  8
0
 10
68.166710
 20
56.279221
 11
68.166710
 21
58.279221
  0
LINE
  8
0
 10
54.166702
 20
56.279221
 11
68.166710
 21
56.279221
  0
LINE
  8
0
 10
64.166702
 20
55.779213
 11
64.666710
 21
56.279224
  0
LINE
  8
0
 10
58.166710
 20
55.779221
 11
64.166710
 21
55.779221
  0
LINE
  8
0
 10
58.166748
 20
55.779263
 11
57.666748
 21
56.279263
  0
LINE
  8
0
 10
54.166702
 20
56.279221
 11
54.166702
 21
58.279221
  0
LINE
  8
0
  6
PHANTOM
 10
58.166710
 20
38.779221
 11
58.166710
 21
55.779221
  0
LINE
  8
0
  6
PHANTOM
 10
64.166710
 20
38.779221
 11
64.166710
 21
55.779221
  0
LINE
  8
0
  6
PHANTOM
 10
58.166710
 20
38.779221
 11
64.166710
 21
38.779221
  0
LINE
  8
0
  6
PHANTOM
 10
64.166733
 20
38.779209
 11
63.666725
 21
38.279198
  0
LINE
  8
0
  6
PHANTOM
 10
58.666710
 20
38.279221
 11
63.666710
 21
38.279221
  0
LINE
  8
0
  6
PHANTOM
 10
34.666702
 20
76.279221
 11
34.666702
 21
72.279221
  0
LINE
  8
0
  6
PHANTOM
 10
35.532700
 20
73.145248
 11
37.800705
 21
73.145248
  0
LINE
  8
0
  6
PHANTOM
 10
34.666702
 20
72.279221
 11
38.666702
 21
72.279221
  0
LINE
  8
0
  6
PHANTOM
 10
34.666702
 20
76.279221
 11
38.666702
 21
76.279221
  0
LINE
  8
0
  6
PHANTOM
 10
35.532700
 20
75.413193
 11
37.800705
 21
75.413193
  0
LINE
  8
0
  6
PHANTOM
 10
35.532700
 20
75.413193
 11
35.532700
 21
73.145248
  0
LINE
  8
0
  6
PHANTOM
 10
37.800705
 20
75.413193
 11
37.800705
 21
73.145248
  0
LINE
  8
0
  6
PHANTOM
 10
34.666832
 20
76.279411
 11
35.532822
 21
75.413391
  0
LINE
  8
0
  6
PHANTOM
 10
35.532703
 20
73.145218
 11
34.666714
 21
72.279198
  0
LINE
  8
0
  6
PHANTOM
 10
37.800705
 20
73.145294
 11
38.666710
 21
72.279266
  0
LINE
  8
0
  6
PHANTOM
 10
37.800812
 20
75.413094
 11
38.666801
 21
76.279114
  0
LINE
  8
0
  6
PHANTOM
 10
33.166702
 20
77.079224
 11
38.166702
 21
77.079224
  0
LINE
  8
0
  6
PHANTOM
 10
38.166702
 20
77.079224
 11
38.166702
 21
76.279221
  0
LINE
  8
0
  6
PHANTOM
 10
38.166702
 20
72.279221
 11
38.166702
 21
65.779236
  0
LINE
  8
0
  6
PHANTOM
 10
33.166702
 20
77.079224
 11
33.166702
 21
61.779221
  0
LINE
  8
0
  6
CENTER
 10
30.166702
 20
65.779221
 11
39.666702
 21
65.779221
  0
LINE
  8
0
  6
PHANTOM
 62
     3
 10
32.367050
 20
68.529221
 11
33.166702
 21
68.529221
  0
LINE
  8
0
  6
PHANTOM
 62
     3
 10
32.367050
 20
63.029221
 11
33.166702
 21
63.029221
  0
LINE
  8
0
  6
PHANTOM
 62
     1
 10
38.166702
 20
67.029221
 11
38.666702
 21
67.029221
  0
LINE
  8
0
  6
PHANTOM
 62
     1
 10
38.166702
 20
66.758728
 11
38.666702
 21
66.758728
  0
LINE
  8
0
 10
54.166702
 20
92.279221
 11
54.166702
 21
90.279221
  0
LINE
  8
0
 10
58.666679
 20
110.279175
 11
63.666756
 21
110.279175
  0
LINE
  8
0
  6
PHANTOM
 10
36.166702
 20
58.779221
 11
39.666702
 21
58.779221
  0
LINE
  8
0
  6
PHANTOM
 10
36.166805
 20
58.779343
 11
33.166813
 21
61.779327
  0
LINE
  8
0
  6
CENTER
 10
39.666702
 20
85.279221
 11
47.666702
 21
85.279221
  0
LINE
  8
0
  6
CENTER
 10
39.666702
 20
63.279221
 11
47.666702
 21
63.279221
  0
LINE
  8
0
  6
CENTER
 10
74.666710
 20
63.279221
 11
82.666710
 21
63.279221
  0
LINE
  8
0
  6
CENTER
 10
74.666710
 20
85.279221
 11
82.666710
 21
85.279221
  0
LINE
  8
0
  6
CENTER
 10
43.666702
 20
89.279221
 11
43.666702
 21
81.279221
  0
LINE
  8
0
  6
CENTER
 10
43.666702
 20
67.279221
 11
43.666702
 21
59.279221
  0
LINE
  8
0
  6
CENTER
 10
78.666710
 20
67.279221
 11
78.666710
 21
59.279221
  0
LINE
  8
0
  6
CENTER
 10
78.666710
 20
89.279221
 11
78.666710
 21
81.279221
  0
LINE
  8
0
  6
PHANTOM
 10
39.666702
 20
59.633499
 11
39.666702
 21
58.779236
  0
LINE
  8
0
  6
PHANTOM
 10
87.666725
 20
76.279221
 11
87.666725
 21
72.279221
  0
LINE
  8
0
  6
PHANTOM
 10
86.800728
 20
73.145248
 11
84.532722
 21
73.145248
  0
LINE
  8
0
  6
PHANTOM
 10
87.666725
 20
72.279221
 11
83.666725
 21
72.279221
  0
LINE
  8
0
  6
PHANTOM
 10
87.666725
 20
76.279221
 11
83.666725
 21
76.279221
  0
LINE
  8
0
  6
PHANTOM
 10
86.800728
 20
75.413193
 11
84.532722
 21
75.413193
  0
LINE
  8
0
  6
PHANTOM
 10
86.800728
 20
75.413193
 11
86.800728
 21
73.145248
  0
LINE
  8
0
  6
PHANTOM
 10
84.532722
 20
75.413193
 11
84.532722
 21
73.145248
  0
LINE
  8
0
  6
PHANTOM
 10
87.666687
 20
76.279335
 11
86.800690
 21
75.413307
  0
LINE
  8
0
  6
PHANTOM
 10
86.800697
 20
73.145187
 11
87.666702
 21
72.279160
  0
LINE
  8
0
  6
PHANTOM
 10
84.532753
 20
73.145302
 11
83.666733
 21
72.279266
  0
LINE
  8
0
  6
PHANTOM
 10
84.532684
 20
75.413193
 11
83.666687
 21
76.279221
  0
LINE
  8
0
  6
PHANTOM
 10
89.166710
 20
77.079224
 11
84.166710
 21
77.079224
  0
LINE
  8
0
  6
PHANTOM
 10
84.166710
 20
77.079224
 11
84.166710
 21
76.279221
  0
LINE
  8
0
  6
PHANTOM
 10
84.166710
 20
72.279221
 11
84.166710
 21
65.779236
  0
LINE
  8
0
  6
PHANTOM
 10
89.166710
 20
77.079224
 11
89.166710
 21
61.779221
  0
LINE
  8
0
  6
CENTER
 10
92.166710
 20
65.779221
 11
82.666710
 21
65.779221
  0
LINE
  8
0
  6
PHANTOM
 62
     3
 10
89.966362
 20
68.529221
 11
89.166710
 21
68.529221
  0
LINE
  8
0
  6
PHANTOM
 62
     3
 10
89.966362
 20
63.029221
 11
89.166710
 21
63.029221
  0
LINE
  8
0
  6
PHANTOM
 62
     1
 10
84.166710
 20
67.029221
 11
83.666710
 21
67.029221
  0
LINE
  8
0
  6
PHANTOM
 62
     1
 10
84.166710
 20
66.758728
 11
83.666710
 21
66.758728
  0
LINE
  8
0
  6
PHANTOM
 10
86.166710
 20
58.779221
 11
82.666710
 21
58.779221
  0
LINE
  8
0
  6
PHANTOM
 10
86.166725
 20
58.779217
 11
89.166733
 21
61.779221
  0
LINE
  8
0
  6
PHANTOM
 10
82.666710
 20
59.633499
 11
82.666710
 21
58.779236
  0
LINE
  8
0
 10
42.393883
 20
86.551979
 11
44.939449
 21
84.006416
  0
LINE
  8
0
 10
42.393887
 20
84.006462
 11
44.939453
 21
86.552025
  0
LINE
  8
0
 10
79.939522
 20
86.551994
 11
77.393951
 21
84.006432
  0
LINE
  8
0
 10
79.939522
 20
84.006447
 11
77.393967
 21
86.552002
  0
LINE
  8
0
 10
42.393898
 20
62.006428
 11
44.939465
 21
64.551994
  0
LINE
  8
0
 10
42.393906
 20
64.552017
 11
44.939465
 21
62.006462
  0
LINE
  8
0
 10
79.939514
 20
62.006420
 11
77.393951
 21
64.551987
  0
LINE
  8
0
 10
79.939545
 20
64.551994
 11
77.393990
 21
62.006439
  0
LINE
  8
0
 10
288.800323
 20
58.279228
 11
325.800293
 21
58.279228
  0
LINE
  8
0
 10
288.800323
 20
90.279228
 11
325.800293
 21
90.279228
  0
LINE
  8
0
 10
284.800323
 20
86.279228
 11
284.800323
 21
62.279228
  0
LINE
  8
0
 10
329.800293
 20
86.279228
 11
329.800293
 21
62.279228
  0
LINE
  8
0
  6
CENTER
 10
276.300323
 20
74.279228
 11
338.300293
 21
74.279228
  0
LINE
  8
0
  6
CENTER
 10
307.300323
 20
113.279228
 11
307.300323
 21
35.279228
  0
LINE
  8
0
  6
PHANTOM
 10
304.300323
 20
38.779274
 11
304.800323
 21
38.279266
  0
LINE
  8
0
 10
304.300293
 20
109.779175
 11
304.800262
 21
110.279167
  0
LINE
  8
0
 10
304.300323
 20
109.779228
 11
310.300323
 21
109.779228
  0
LINE
  8
0
 10
304.300323
 20
109.779228
 11
304.300323
 21
92.779228
  0
LINE
  8
0
 10
310.300262
 20
109.779243
 11
309.800262
 21
110.279243
  0
LINE
  8
0
 10
310.300323
 20
109.779228
 11
310.300323
 21
92.779228
  0
LINE
  8
0
 10
304.300323
 20
92.779228
 11
310.300323
 21
92.779228
  0
LINE
  8
0
 10
300.300323
 20
92.279228
 11
314.300293
 21
92.279228
  0
LINE
  8
0
 10
310.300293
 20
92.779236
 11
310.800262
 21
92.279243
  0
LINE
  8
0
 10
304.300262
 20
92.779205
 11
303.800262
 21
92.279213
  0
LINE
  8
0
 10
314.300293
 20
92.279236
 11
314.300293
 21
90.279228
  0
LINE
  8
0
 10
314.300293
 20
56.279228
 11
314.300293
 21
58.279228
  0
LINE
  8
0
 10
300.300323
 20
56.279228
 11
314.300293
 21
56.279228
  0
LINE
  8
0
 10
310.300293
 20
55.779259
 11
310.800293
 21
56.279251
  0
LINE
  8
0
 10
304.300323
 20
55.779228
 11
310.300323
 21
55.779228
  0
LINE
  8
0
 10
304.300293
 20
55.779251
 11
303.800293
 21
56.279251
  0
LINE
  8
0
 10
300.300323
 20
56.279228
 11
300.300323
 21
58.279228
  0
LINE
  8
0
  6
PHANTOM
 10
304.300323
 20
38.779228
 11
304.300323
 21
55.779228
  0
LINE
  8
0
  6
PHANTOM
 10
310.300323
 20
38.779228
 11
310.300323
 21
55.779228
  0
LINE
  8
0
  6
PHANTOM
 10
304.300323
 20
38.779228
 11
310.300323
 21
38.779228
  0
LINE
  8
0
  6
PHANTOM
 10
310.300293
 20
38.779202
 11
309.800293
 21
38.279198
  0
LINE
  8
0
  6
PHANTOM
 10
304.800323
 20
38.279228
 11
309.800323
 21
38.279228
  0
LINE
  8
0
  6
PHANTOM
 10
280.800293
 20
76.279228
 11
280.800293
 21
72.279228
  0
LINE
  8
0
  6
PHANTOM
 10
280.800293
 20
72.279228
 11
284.800293
 21
72.279228
  0
LINE
  8
0
  6
PHANTOM
 10
280.800293
 20
76.279228
 11
284.800293
 21
76.279228
  0
LINE
  8
0
  6
PHANTOM
 10
279.300323
 20
77.079231
 11
284.300323
 21
77.079231
  0
LINE
  8
0
  6
PHANTOM
 10
284.300323
 20
77.079231
 11
284.300323
 21
76.279228
  0
LINE
  8
0
  6
PHANTOM
 10
284.300323
 20
72.279228
 11
284.300323
 21
65.779243
  0
LINE
  8
0
  6
PHANTOM
 10
279.300323
 20
77.079231
 11
279.300323
 21
61.779228
  0
LINE
  8
0
  6
CENTER
 10
276.300323
 20
65.779228
 11
285.800323
 21
65.779228
  0
LINE
  8
0
  6
PHANTOM
 62
     3
 10
278.500671
 20
68.529228
 11
279.300323
 21
68.529228
  0
LINE
  8
0
  6
PHANTOM
 62
     3
 10
278.500671
 20
63.029228
 11
279.300323
 21
63.029228
  0
LINE
  8
0
  6
PHANTOM
 62
     1
 10
284.300323
 20
67.029228
 11
284.800323
 21
67.029228
  0
LINE
  8
0
  6
PHANTOM
 62
     1
 10
284.300323
 20
66.758736
 11
284.800323
 21
66.758736
  0
LINE
  8
0
 10
300.300323
 20
92.279228
 11
300.300323
 21
90.279228
  0
LINE
  8
0
 10
304.800293
 20
110.279182
 11
309.800354
 21
110.279182
  0
LINE
  8
0
  6
PHANTOM
 10
282.300323
 20
58.779228
 11
285.800323
 21
58.779228
  0
LINE
  8
0
  6
PHANTOM
 10
282.300262
 20
58.779213
 11
279.300262
 21
61.779217
  0
LINE
  8
0
  6
PHANTOM
 10
285.800323
 20
59.633507
 11
285.800323
 21
58.779243
  0
LINE
  8
0
  6
PHANTOM
 10
333.800354
 20
76.279228
 11
333.800354
 21
72.279228
  0
LINE
  8
0
  6
PHANTOM
 10
333.800354
 20
72.279228
 11
329.800354
 21
72.279228
  0
LINE
  8
0
  6
PHANTOM
 10
333.800354
 20
76.279228
 11
329.800354
 21
76.279228
  0
LINE
  8
0
  6
PHANTOM
 10
335.300293
 20
77.079231
 11
330.300293
 21
77.079231
  0
LINE
  8
0
  6
PHANTOM
 10
330.300293
 20
77.079231
 11
330.300293
 21
76.279228
  0
LINE
  8
0
  6
PHANTOM
 10
330.300293
 20
72.279228
 11
330.300293
 21
65.779243
  0
LINE
  8
0
  6
PHANTOM
 10
335.300293
 20
77.079231
 11
335.300293
 21
61.779228
  0
LINE
  8
0
  6
CENTER
 10
338.300293
 20
65.779228
 11
328.800293
 21
65.779228
  0
LINE
  8
0
  6
PHANTOM
 62
     3
 10
336.099976
 20
68.529228
 11
335.300293
 21
68.529228
  0
LINE
  8
0
  6
PHANTOM
 62
     3
 10
336.099976
 20
63.029228
 11
335.300293
 21
63.029228
  0
LINE
  8
0
  6
PHANTOM
 62
     1
 10
330.300293
 20
67.029228
 11
329.800293
 21
67.029228
  0
LINE
  8
0
  6
PHANTOM
 62
     1
 10
330.300293
 20
66.758736
 11
329.800293
 21
66.758736
  0
LINE
  8
0
  6
PHANTOM
 10
332.300293
 20
58.779228
 11
328.800293
 21
58.779228
  0
LINE
  8
0
  6
PHANTOM
 10
332.300140
 20
58.779331
 11
335.300171
 21
61.779335
  0
LINE
  8
0
  6
PHANTOM
 10
328.800293
 20
59.633507
 11
328.800293
 21
58.779243
  0
LINE
  8
0
  6
CENTER
 10
282.800323
 20
78.279228
 11
282.800323
 21
70.279228
  0
LINE
  8
0
  6
CENTER
 10
331.800293
 20
78.279228
 11
331.800293
 21
70.279228
  0
LINE
  8
0
  6
CENTER
 10
299.300323
 20
85.279228
 11
299.300323
 21
73.279228
  0
LINE
  8
0
  6
CENTER
 10
315.300293
 20
75.279228
 11
315.300293
 21
63.279228
  0
LINE
  8
0
  6
CENTER
 10
293.300323
 20
79.279228
 11
305.300323
 21
79.279228
  0
LINE
  8
0
  6
CENTER
 10
309.300323
 20
69.279228
 11
321.300293
 21
69.279228
  0
LINE
  8
0
 62
     3
 10
288.300323
 20
86.145256
 11
288.300323
 21
84.413200
  0
LINE
  8
0
 62
     3
 10
291.300323
 20
86.145256
 11
291.300323
 21
84.413208
  0
LINE
  8
0
 62
     3
 10
288.300323
 20
86.145226
 11
289.800323
 21
87.011253
  0
LINE
  8
0
 62
     3
 10
289.800323
 20
83.547150
 11
291.300323
 21
84.413177
  0
LINE
  8
0
 62
     3
 10
289.800323
 20
87.011292
 11
291.300323
 21
86.145264
  0
LINE
  8
0
 62
     3
 10
288.300323
 20
84.413200
 11
289.800323
 21
83.547173
  0
LINE
  8
0
 62
     3
 10
288.300323
 20
64.145256
 11
288.300323
 21
62.413200
  0
LINE
  8
0
 62
     3
 10
291.300323
 20
64.145256
 11
291.300323
 21
62.413200
  0
LINE
  8
0
 62
     3
 10
288.300293
 20
64.145218
 11
289.800293
 21
65.011246
  0
LINE
  8
0
 62
     3
 10
289.800323
 20
61.547157
 11
291.300323
 21
62.413185
  0
LINE
  8
0
 62
     3
 10
289.800323
 20
65.011284
 11
291.300323
 21
64.145256
  0
LINE
  8
0
 62
     3
 10
288.300323
 20
62.413208
 11
289.800323
 21
61.547180
  0
LINE
  8
0
 62
     3
 10
323.300293
 20
64.145256
 11
323.300293
 21
62.413200
  0
LINE
  8
0
 62
     3
 10
326.300293
 20
64.145256
 11
326.300293
 21
62.413200
  0
LINE
  8
0
 62
     3
 10
323.300323
 20
64.145241
 11
324.800323
 21
65.011269
  0
LINE
  8
0
 62
     3
 10
324.800323
 20
61.547146
 11
326.300323
 21
62.413174
  0
LINE
  8
0
 62
     3
 10
324.800354
 20
65.011276
 11
326.300354
 21
64.145248
  0
LINE
  8
0
 62
     3
 10
323.300323
 20
62.413216
 11
324.800323
 21
61.547188
  0
LINE
  8
0
 62
     3
 10
323.300293
 20
86.145256
 11
323.300293
 21
84.413200
  0
LINE
  8
0
 62
     3
 10
326.300293
 20
86.145256
 11
326.300293
 21
84.413208
  0
LINE
  8
0
 62
     3
 10
323.300323
 20
86.145248
 11
324.800323
 21
87.011276
  0
LINE
  8
0
 62
     3
 10
324.800354
 20
83.547165
 11
326.300354
 21
84.413193
  0
LINE
  8
0
 62
     3
 10
324.800323
 20
87.011284
 11
326.300323
 21
86.145256
  0
LINE
  8
0
 62
     3
 10
323.300323
 20
84.413208
 11
324.800323
 21
83.547180
  0
LINE
  8
0
  6
CENTER
 10
289.800323
 20
89.779228
 11
289.800323
 21
80.779228
  0
LINE
  8
0
  6
CENTER
 10
324.800293
 20
89.779228
 11
324.800293
 21
80.779228
  0
LINE
  8
0
  6
CENTER
 10
324.800293
 20
67.779228
 11
324.800293
 21
58.779228
  0
LINE
  8
0
  6
CENTER
 10
289.800323
 20
67.779228
 11
289.800323
 21
58.779228
  0
LINE
  8
0
  6
CENTER
 10
285.300323
 20
63.279228
 11
294.300323
 21
63.279228
  0
LINE
  8
0
  6
CENTER
 10
285.300323
 20
85.279228
 11
294.300323
 21
85.279228
  0
LINE
  8
0
  6
CENTER
 10
320.300293
 20
85.279228
 11
329.300293
 21
85.279228
  0
LINE
  8
0
  6
CENTER
 10
320.300293
 20
63.279228
 11
329.300293
 21
63.279228
  0
CIRCLE
  8
0
 10
186.336792
 20
82.779236
 40
1.500000
  0
CIRCLE
  8
0
 10
186.336792
 20
82.779236
 40
1.229500
  0
CIRCLE
  8
0
  6
PHANTOM
 62
     3
 10
186.336792
 20
65.779236
 40
2.750000
  0
ARC
  8
0
  6
PHANTOM
 10
231.325348
 20
75.029236
 40
1.000000
 50
311.409637
 51
48.590370
  0
ARC
  8
0
  6
PHANTOM
 10
232.648224
 20
73.529236
 40
1.000000
 50
131.409622
 51
228.590378
  0
ARC
  8
0
  6
PHANTOM
 10
231.325348
 20
73.529236
 40
1.000000
 50
311.409637
 51
48.590370
  0
CIRCLE
  8
0
 10
176.336807
 20
180.926086
 40
3.000000
  0
CIRCLE
  8
0
 10
176.336807
 20
180.926086
 40
2.500000
  0
ARC
  8
0
 10
176.336807
 20
180.926086
 40
15.500000
 50
17.598831
 51
162.401169
  0
ARC
  8
0
 10
176.336807
 20
180.926086
 40
15.500000
 50
197.598831
 51
342.401184
  0
CIRCLE
  8
0
 10
176.336807
 20
180.926086
 40
7.000000
  0
CIRCLE
  8
0
 62
     3
 10
168.336807
 20
188.926086
 40
2.599999
  0
CIRCLE
  8
0
 62
     3
 10
184.336807
 20
188.926086
 40
2.599999
  0
CIRCLE
  8
0
 62
     3
 10
184.336807
 20
172.926086
 40
2.599999
  0
CIRCLE
  8
0
 62
     3
 10
168.336807
 20
172.926086
 40
2.599999
  0
ARC
  8
0
  6
PHANTOM
 10
223.525360
 20
204.676086
 40
1.000000
 50
311.409637
 51
48.590370
  0
ARC
  8
0
  6
PHANTOM
 10
223.525360
 20
206.176086
 40
1.000000
 50
311.409637
 51
48.590370
  0
ARC
  8
0
  6
PHANTOM
 10
224.848236
 20
206.176086
 40
1.000000
 50
131.409622
 51
228.590378
  0
ARC
  8
0
  6
PHANTOM
 62
     3
 10
182.936798
 20
205.926086
 40
4.999999
 50
61.264629
 51
118.735367
  0
ARC
  8
0
  6
PHANTOM
 62
     3
 10
185.020096
 20
209.725739
 40
0.666702
 50
0.000000
 51
61.264580
  0
ARC
  8
0
  6
PHANTOM
 62
     3
 10
180.853500
 20
209.725739
 40
0.666699
 50
118.735420
 51
180.000000
  0
ARC
  8
0
  6
PHANTOM
 62
     3
 10
180.853500
 20
152.126434
 40
0.666702
 50
180.000000
 51
241.264587
  0
ARC
  8
0
  6
PHANTOM
 10
223.525360
 20
155.676086
 40
1.000000
 50
311.409637
 51
48.590370
  0
ARC
  8
0
  6
PHANTOM
 10
223.525360
 20
157.176086
 40
1.000000
 50
311.409637
 51
48.590370
  0
ARC
  8
0
  6
PHANTOM
 10
224.848236
 20
157.176086
 40
1.000000
 50
131.409622
 51
228.590378
  0
ARC
  8
0
  6
PHANTOM
 62
     3
 10
182.936798
 20
155.926086
 40
4.999999
 50
241.264633
 51
298.735382
  0
ARC
  8
0
  6
PHANTOM
 62
     3
 10
185.020096
 20
152.126434
 40
0.666699
 50
298.735413
 51
0.000000
  0
CIRCLE
  8
0
 10
162.336807
 20
180.926086
 40
2.750000
  0
CIRCLE
  8
0
 10
190.336792
 20
180.926086
 40
2.750000
  0
CIRCLE
  8
0
 10
190.336792
 20
180.926086
 40
4.750000
  0
CIRCLE
  8
0
 10
162.336807
 20
180.926086
 40
4.750000
  0
CIRCLE
  8
0
 62
     3
 10
78.666710
 20
85.279221
 40
3.000000
  0
CIRCLE
  8
0
 62
     3
 10
78.666710
 20
63.279221
 40
3.000000
  0
ARC
  8
0
 10
42.666733
 20
86.279221
 40
4.000000
 50
90.000000
 51
180.000000
  0
CIRCLE
  8
0
 62
     3
 10
43.666702
 20
63.279221
 40
3.000000
  0
ARC
  8
0
  6
PHANTOM
 62
     3
 10
89.966362
 20
67.862518
 40
0.666699
 50
28.735418
 51
90.000000
  0
ARC
  8
0
  6
PHANTOM
 62
     3
 10
89.966362
 20
63.695919
 40
0.666698
 50
270.000000
 51
331.264587
  0
ARC
  8
0
 10
79.666710
 20
86.279221
 40
4.000000
 50
0.000000
 51
90.000000
  0
ARC
  8
0
 10
79.666710
 20
62.279221
 40
4.000000
 50
270.000000
 51
0.000000
  0
ARC
  8
0
 10
42.666733
 20
62.279221
 40
4.000000
 50
180.000000
 51
270.000000
  0
ARC
  8
0
  6
PHANTOM
 62
     3
 10
86.166710
 20
65.779221
 40
5.000001
 50
331.264587
 51
28.735369
  0
ARC
  8
0
  6
PHANTOM
 62
     3
 10
36.166702
 20
65.779221
 40
4.999999
 50
151.264633
 51
208.735321
  0
ARC
  8
0
  6
PHANTOM
 62
     3
 10
32.367050
 20
67.862518
 40
0.666702
 50
90.000000
 51
151.264587
  0
ARC
  8
0
  6
PHANTOM
 62
     3
 10
32.367050
 20
63.695919
 40
0.666699
 50
208.735413
 51
270.000000
  0
CIRCLE
  8
0
 62
     3
 10
43.666702
 20
85.279221
 40
3.000000
  0
CIRCLE
  8
0
 62
     3
 10
324.800293
 20
63.279228
 40
3.500000
  0
CIRCLE
  8
0
 62
     3
 10
324.800293
 20
85.279228
 40
2.807179
  0
CIRCLE
  8
0
 62
     3
 10
324.800293
 20
63.279228
 40
2.807179
  0
CIRCLE
  8
0
 62
     3
 10
324.800293
 20
85.279228
 40
3.500000
  0
ARC
  8
0
  6
PHANTOM
 62
     3
 10
282.300323
 20
65.779228
 40
4.999999
 50
151.264633
 51
208.735336
  0
ARC
  8
0
  6
PHANTOM
 62
     3
 10
278.500671
 20
67.862526
 40
0.666702
 50
90.000000
 51
151.264587
  0
ARC
  8
0
  6
PHANTOM
 62
     3
 10
278.500671
 20
63.695930
 40
0.666699
 50
208.735413
 51
270.000000
  0
ARC
  8
0
 10
288.800323
 20
62.279228
 40
4.000000
 50
180.000000
 51
270.000000
  0
ARC
  8
0
 10
288.800323
 20
86.279228
 40
4.000000
 50
90.000000
 51
180.000000
  0
ARC
  8
0
 10
325.800293
 20
86.279228
 40
4.000000
 50
0.000000
 51
90.000000
  0
ARC
  8
0
 10
325.800293
 20
62.279228
 40
4.000000
 50
270.000000
 51
0.000000
  0
ARC
  8
0
  6
PHANTOM
 62
     3
 10
336.099976
 20
63.695930
 40
0.666698
 50
270.000000
 51
331.264587
  0
ARC
  8
0
  6
PHANTOM
 62
     3
 10
336.099976
 20
67.862526
 40
0.666699
 50
28.735418
 51
90.000000
  0
ARC
  8
0
  6
PHANTOM
 62
     3
 10
332.300293
 20
65.779228
 40
5.000001
 50
331.264587
 51
28.735369
  0
CIRCLE
  8
0
  6
PHANTOM
 10
282.800323
 20
74.279228
 40
1.500000
  0
CIRCLE
  8
0
  6
PHANTOM
 10
331.800293
 20
74.279228
 40
1.500000
  0
CIRCLE
  8
0
 10
299.300323
 20
79.279228
 40
4.283000
  0
CIRCLE
  8
0
 10
315.300293
 20
69.279228
 40
4.283000
  0
CIRCLE
  8
0
 10
315.300293
 20
69.279228
 40
4.573500
  0
CIRCLE
  8
0
 10
299.300323
 20
79.279228
 40
4.573500
  0
CIRCLE
  8
0
 62
     3
 10
289.800323
 20
85.279228
 40
3.500000
  0
CIRCLE
  8
0
 62
     3
 10
289.800323
 20
85.279228
 40
2.807179
  0
CIRCLE
  8
0
 62
     3
 10
289.800323
 20
63.279228
 40
3.500000
  0
CIRCLE
  8
0
 62
     3
 10
289.800323
 20
63.279228
 40
2.807179
  0
TEXT
  8
0
 10
298.797760
 20
244.589584
 40
4.242641
  1
DATE : MAR ,1992
 50
0.000000
 41
1.052631
 51
0.000000
  7
STANDARD
  0
TEXT
  8
0
 10
2.113382
 20
243.907959
 40
5.000000
  1
ROTARY ACUTUATOR
 50
0.000000
 41
0.937799
 51
0.000000
  7
STANDARD
  0
TEXT
  8
0
 10
22.035715
 20
201.757431
 40
5.000000
  1
        RAPS5-190
 50
0.000000
 41
1.052632
 51
0.000000
  7
STANDARD
  0
TEXT
  8
0
 10
2.113382
 20
243.907959
 40
5.000000
  1
ROTARY ACUTUATOR
 50
0.000000
 41
0.937799
 51
0.000000
  7
STANDARD
  0
TEXT
  8
0
 10
243.426392
 20
170.376801
 40
3.500000
  1
〃
 50
90.000000
 41
0.833333
 51
0.000000
  7
STANDARD
  0
TEXT
  8
0
 10
243.426407
 20
187.475708
 40
3.500000
  1
〃
 50
90.000000
 41
0.833333
 51
0.000000
  7
STANDARD
  0
TEXT
  8
0
 10
249.986755
 20
178.926117
 40
3.500000
  1
D
 50
90.000000
 41
1.052632
 51
0.000000
  7
STANDARD
  0
TEXT
  8
0
 10
22.035715
 20
211.757431
 40
5.000000
  1
MODEL : RAPS5-180
 50
0.000000
 41
1.052632
 51
0.000000
  7
STANDARD
  0
TEXT
  8
0
 10
302.273193
 20
3.650512
 40
5.000000
  1
KOGANEI,CORP
 50
0.000000
 41
1.052632
 51
0.000000
  7
STANDARD
  0
LINE
  8
0
 10
317.586914
 20
65.318443
 11
336.084747
 21
33.279209
  0
LINE
  8
0
 10
336.084747
 20
33.279209
 11
362.338104
 21
33.279224
  0
LINE
  8
0
 10
317.586914
 20
65.318443
 11
318.363373
 21
62.420666
  0
LINE
  8
0
 10
317.586914
 20
65.318443
 11
319.708221
 21
63.197121
  0
TEXT
  8
0
 10
337.088104
 20
34.279224
 40
3.500000
  1
2-Rc1/8
 50
0.000000
 41
1.052632
 51
0.000000
  7
STANDARD
  0
TEXT
  8
0
 10
240.778931
 20
200.915634
 40
3.200000
  1
       
 50
277.500000
 41
1.052632
 51
0.000000
  7
STANDARD
  0
ARC
  8
0
 10
176.337021
 20
180.926117
 40
65.499741
 50
0.000000
 51
14.999994
  0
LINE
  8
0
 10
241.836761
 20
180.926117
 11
240.994217
 21
183.805099
  0
LINE
  8
0
 10
241.836761
 20
180.926117
 11
242.546585
 21
183.840652
  0
LINE
  8
0
 10
239.604919
 20
197.878693
 11
241.044907
 21
195.247177
  0
LINE
  8
0
 10
239.604919
 20
197.878693
 11
239.536224
 21
194.879730
  0
LINE
  8
0
 10
232.555573
 20
180.926117
 11
244.122772
 21
180.926117
  0
LINE
  8
0
 10
251.836777
 20
201.156174
 11
237.396820
 21
197.287003
  0
TEXT
  8
0
 10
250.836761
 20
171.926117
 40
3.500000
  1
　　　　　
 50
90.000000
 41
0.833333
 51
0.000000
  7
STANDARD
  0
ARC
  8
0
 10
176.336792
 20
180.926117
 40
75.499977
 50
345.000000
 51
14.999999
  0
LINE
  8
0
 10
249.264175
 20
161.385300
 11
249.204575
 21
164.384521
  0
LINE
  8
0
 10
249.264175
 20
161.385300
 11
250.712173
 21
164.012497
  0
LINE
  8
0
 10
249.264175
 20
200.466949
 11
250.712173
 21
197.839752
  0
LINE
  8
0
 10
249.264175
 20
200.466949
 11
249.204575
 21
197.467728
  0
LINE
  8
0
 10
235.680145
 20
165.025131
 11
251.472290
 21
160.793625
  0
LINE
  8
0
 10
235.015961
 20
196.649033
 11
251.472290
 21
201.058563
  0
TEXT
  8
0
 10
238.169083
 20
156.438736
 40
3.200000
  1
　　　　　
 50
82.500000
 41
0.833333
 51
0.000000
  7
STANDARD
  0
ARC
  8
0
 10
176.336594
 20
180.926117
 40
65.499733
 50
345.000000
 51
0.000000
  0
LINE
  8
0
 10
239.604477
 20
163.973541
 11
239.535782
 21
166.972504
  0
LINE
  8
0
 10
239.604477
 20
163.973541
 11
241.044464
 21
166.605057
  0
LINE
  8
0
 10
241.836334
 20
180.926117
 11
242.546158
 21
178.011581
  0
LINE
  8
0
 10
241.836334
 20
180.926117
 11
240.993790
 21
178.047134
  0
LINE
  8
0
 10
251.836761
 20
160.695908
 11
237.396378
 21
164.565201
  0
LINE
  8
0
 10
232.555573
 20
180.926117
 11
244.122330
 21
180.926117
  0
ENDSEC
  0
EOF
