  0
SECTION
  2
HEADER
  0
ENDSEC
  0
SECTION
  2
TABLES
  0
TABLE
  2
LTYPE
 70
     4
  0
LTYPE
  2
CONTINUOUS
 70
    64
  3
Solid line
 72
    65
 73
     0
 40
0.000000
  0
LTYPE
  2
DASHED
 70
    64
  3
__ __ __ __ __ __ __ __ __ __ __ __ __ __ __
 72
    65
 73
     2
 40
3.500000
 49
2.000000
 49
-1.500000
  0
LTYPE
  2
CENTER
 70
    64
  3
____ _ ____ _ ____ _ ____ _ ____ _ ____ _ ____
 72
    65
 73
     4
 40
17.500000
 49
13.000000
 49
-1.500000
 49
1.500000
 49
-1.500000
  0
LTYPE
  2
PHANTOM
 70
    64
  3
_____ _ _ _____ _ _ _____ _ _ _____ _ _ ____  
 72
    65
 73
     6
 40
15.500000
 49
8.000000
 49
-1.500000
 49
1.500000
 49
-1.500000
 49
1.500000
 49
-1.500000
  0
LTYPE
  2
DASHED1
 70
    64
  3
__ __ __ __ __ __ __ __ __ __ __ __ __ __ __
 72
    65
 73
     2
 40
1.500000
 49
1.000000
 49
-0.500000
  0
LTYPE
  2
DASHED2
 70
    64
  3
__ __ __ __ __ __ __ __ __ __ __ __ __ __ __
 72
    65
 73
     2
 40
3.500000
 49
2.500000
 49
-1.000000
  0
LTYPE
  2
DASHED3
 70
    64
  3
__ __ __ __ __ __ __ __ __ __ __ __ __ __ __
 72
    65
 73
     2
 40
6.000000
 49
4.000000
 49
-2.000000
  0
LTYPE
  2
DASHED4
 70
    64
  3
__ __ __ __ __ __ __ __ __ __ __ __ __ __ __
 72
    65
 73
     2
 40
12.000000
 49
10.000000
 49
-2.000000
  0
LTYPE
  2
DASHED5
 70
    64
  3
__ __ __ __ __ __ __ __ __ __ __ __ __ __ __
 72
    65
 73
     2
 40
17.000000
 49
15.000000
 49
-2.000000
  0
LTYPE
  2
DASHED6
 70
    64
  3
__ __ __ __ __ __ __ __ __ __ __ __ __ __ __
 72
    65
 73
     2
 40
29.000000
 49
27.000000
 49
-2.000000
  0
LTYPE
  2
PHANTOM1
 70
    64
  3
_____ _ _ _____ _ _ _____ _ _ _____ _ _ ____  
 72
    65
 73
     6
 40
31.000000
 49
25.000000
 49
-1.500000
 49
1.000000
 49
-1.000000
 49
1.000000
 49
-1.500000
  0
LTYPE
  2
PHANTOM2
 70
    64
  3
_____ _ _ _____ _ _ _____ _ _ _____ _ _ ____  
 72
    65
 73
     6
 40
36.000000
 49
27.000000
 49
-1.500000
 49
2.500000
 49
-1.000000
 49
2.500000
 49
-1.500000
  0
LTYPE
  2
PHANTOM3
 70
    64
  3
_____ _ _ _____ _ _ _____ _ _ _____ _ _ ____  
 72
    65
 73
     6
 40
78.000000
 49
64.000000
 49
-2.000000
 49
4.000000
 49
-2.000000
 49
4.000000
 49
-2.000000
  0
LTYPE
  2
CENTER1
 70
    64
  3
____ _ ____ _ ____ _ ____ _ ____ _ ____ _ ____
 72
    65
 73
     4
 40
19.000000
 49
14.000000
 49
-1.000000
 49
3.000000
 49
-1.000000
  0
LTYPE
  2
CENTER2
 70
    64
  3
____ _ ____ _ ____ _ ____ _ ____ _ ____ _ ____
 72
    65
 73
     4
 40
28.500000
 49
25.000000
 49
-1.000000
 49
1.500000
 49
-1.000000
  0
LTYPE
  2
CENTER3
 70
    64
  3
____ _ ____ _ ____ _ ____ _ ____ _ ____ _ ____
 72
    65
 73
     4
 40
31.500000
 49
27.000000
 49
-1.000000
 49
2.500000
 49
-1.000000
  0
LTYPE
  2
CENTER4
 70
    64
  3
____ _ ____ _ ____ _ ____ _ ____ _ ____ _ ____
 72
    65
 73
     4
 40
50.000000
 49
45.000000
 49
-1.000000
 49
3.000000
 49
-1.000000
  0
LTYPE
  2
CENTER5
 70
    64
  3
____ _ ____ _ ____ _ ____ _ ____ _ ____ _ ____
 72
    65
 73
     4
 40
100.000000
 49
92.000000
 49
-2.000000
 49
4.000000
 49
-2.000000
  0
LTYPE
  2
SBK1
 70
    64
  3
______ _ _ _ ______ _ _ _ ______ _ _ _ _____  
 72
    65
 73
     8
 40
60.500000
 49
45.000000
 49
-2.000000
 49
2.500000
 49
-2.000000
 49
2.500000
 49
-2.000000
 49
2.500000
 49
-2.000000
  0
LTYPE
  2
SBK2
 70
    64
  3
______ _ _ _ ______ _ _ _ ______ _ _ _ _____  
 72
    65
 73
     8
 40
84.000000
 49
64.000000
 49
-2.000000
 49
4.000000
 49
-2.000000
 49
4.000000
 49
-2.000000
 49
4.000000
 49
-2.000000
  0
LTYPE
  2
STCH
 70
    64
  3
__ __ __ __ __ __ __ __ __ __ __ __ __ __ __
 72
    65
 73
     2
 40
3.000000
 49
1.000000
 49
-2.000000
  0
LTYPE
  2
MTCH
 70
    64
  3
_____ _ _ _____ _ _ _____ _ _ _____ _ _ ____  
 72
    65
 73
     6
 40
80.000000
 49
66.000000
 49
-2.000000
 49
4.000000
 49
-2.000000
 49
4.000000
 49
-2.000000
  0
ENDTAB
  0
TABLE
  2
LAYER
 70
     1
  0
LAYER
  2
0
 70
     0
 62
     7
  6
CONTINUOUS
  0
ENDTAB
  0
TABLE
  2
STYLE
 70
     1
  0
STYLE
  2
STANDARD
 70
     0
 40
0.000000
 41
1.000000
 50
0.000000
 71
     0
 42
0.200000
  3
txt
  4
BIGFONT
  0
ENDTAB
  0
TABLE
  2
VIEW
 70
     0
  0
ENDTAB
  0
ENDSEC
  0
SECTION
  2
BLOCKS
  0
ENDSEC
  0
SECTION
  2
ENTITIES
  0
POINT
  8
0
 10
181.336792
 20
84.279236
  0
POINT
  8
0
 10
220.836792
 20
84.279236
  0
POINT
  8
0
 10
181.336792
 20
190.926117
  0
POINT
  8
0
 10
220.836792
 20
190.926117
  0
POINT
  8
0
 10
66.166725
 20
84.279228
  0
POINT
  8
0
 10
88.666725
 20
84.279228
  0
POINT
  8
0
 10
307.300293
 20
84.279228
  0
POINT
  8
0
 10
329.800293
 20
84.279228
  0
LINE
  8
0
 62
     3
 10
0.000000
 20
0.000000
 11
0.000000
 21
254.558472
  0
LINE
  8
0
 62
     3
 10
370.873566
 20
254.558472
 11
370.873566
 21
0.000000
  0
LINE
  8
0
 62
     3
 10
0.000000
 20
0.000000
 11
370.873566
 21
0.000000
  0
LINE
  8
0
 62
     3
 10
0.000000
 20
254.558472
 11
370.873566
 21
254.558472
  0
LINE
  8
0
 62
     3
 10
0.000000
 20
240.257431
 11
76.272194
 21
240.257431
  0
LINE
  8
0
 62
     3
 10
76.272194
 20
240.257431
 11
76.272194
 21
254.558472
  0
LINE
  8
0
 62
     3
 10
294.601379
 20
14.301025
 11
370.873566
 21
14.301025
  0
LINE
  8
0
 62
     3
 10
294.601379
 20
240.257431
 11
370.873566
 21
240.257431
  0
LINE
  8
0
 62
     3
 10
294.601379
 20
254.558472
 11
294.601379
 21
240.257431
  0
LINE
  8
0
 62
     3
 10
294.601379
 20
14.301025
 11
294.601379
 21
0.000000
  0
LINE
  8
0
 10
181.336792
 20
190.926041
 11
240.015961
 21
206.649078
  0
LINE
  8
0
 10
181.336761
 20
190.926056
 11
240.680099
 21
175.025070
  0
LINE
  8
0
 10
158.836807
 20
100.279236
 11
220.836792
 21
100.279236
  0
LINE
  8
0
 10
158.836807
 20
68.279236
 11
220.836792
 21
68.279236
  0
LINE
  8
0
 10
209.836792
 20
100.279236
 11
209.836792
 21
85.779236
  0
LINE
  8
0
 10
161.836807
 20
100.279236
 11
161.836807
 21
68.279236
  0
LINE
  8
0
  6
CENTER
 10
156.736801
 20
84.279236
 11
229.586792
 21
84.279236
  0
LINE
  8
0
  6
CENTER
 10
181.336792
 20
123.279236
 11
181.336792
 21
45.279236
  0
LINE
  8
0
  6
CENTER
 10
186.586807
 20
75.779236
 11
196.086792
 21
75.779236
  0
LINE
  8
0
  6
CENTER
 10
191.336807
 20
88.079239
 11
191.336807
 21
66.779251
  0
LINE
  8
0
 10
220.836792
 20
100.279236
 11
220.836792
 21
85.779236
  0
LINE
  8
0
 10
158.836807
 20
100.279236
 11
158.836807
 21
68.279236
  0
LINE
  8
0
 10
188.336807
 20
66.279236
 11
188.336807
 21
68.279236
  0
LINE
  8
0
 10
174.336807
 20
66.279236
 11
188.336807
 21
66.279236
  0
LINE
  8
0
 10
184.336807
 20
65.779266
 11
184.836792
 21
66.279259
  0
LINE
  8
0
 10
178.336807
 20
65.779236
 11
184.336807
 21
65.779236
  0
LINE
  8
0
 10
178.336823
 20
65.779274
 11
177.836823
 21
66.279274
  0
LINE
  8
0
 10
174.336807
 20
66.279236
 11
174.336807
 21
68.279236
  0
LINE
  8
0
  6
PHANTOM
 10
178.336807
 20
48.779236
 11
178.336807
 21
65.779236
  0
LINE
  8
0
  6
PHANTOM
 10
184.336807
 20
58.279236
 11
184.336807
 21
65.779236
  0
LINE
  8
0
  6
PHANTOM
 10
178.336807
 20
48.779236
 11
183.836807
 21
48.779236
  0
LINE
  8
0
  6
PHANTOM
 10
178.836807
 20
48.279236
 11
183.836807
 21
48.279236
  0
LINE
  8
0
  6
PHANTOM
 10
178.336823
 20
48.779251
 11
178.836823
 21
48.279251
  0
LINE
  8
0
  6
PHANTOM
 10
184.336823
 20
58.279221
 11
183.836823
 21
57.779221
  0
LINE
  8
0
  6
PHANTOM
 10
187.586807
 20
87.079239
 11
195.086792
 21
87.079239
  0
LINE
  8
0
  6
PHANTOM
 10
195.086792
 20
87.079239
 11
195.086792
 21
68.779251
  0
LINE
  8
0
  6
PHANTOM
 10
187.586807
 20
87.079239
 11
187.586807
 21
68.779251
  0
LINE
  8
0
  6
PHANTOM
 10
194.336792
 20
86.279236
 11
194.336792
 21
73.579239
  0
LINE
  8
0
  6
PHANTOM
 10
188.336807
 20
86.279236
 11
188.336807
 21
73.579239
  0
LINE
  8
0
  6
PHANTOM
 10
188.336807
 20
86.279236
 11
194.336792
 21
86.279236
  0
LINE
  8
0
  6
PHANTOM
 10
188.336807
 20
73.579239
 11
189.686798
 21
73.579239
  0
LINE
  8
0
  6
PHANTOM
 10
189.836807
 20
73.079239
 11
190.814789
 21
73.079239
  0
LINE
  8
0
  6
PHANTOM
 10
189.836807
 20
73.474350
 11
189.836807
 21
73.079239
  0
LINE
  8
0
  6
PHANTOM
 10
192.836792
 20
73.474350
 11
192.836792
 21
73.079239
  0
LINE
  8
0
  6
PHANTOM
 10
192.986801
 20
73.579239
 11
194.336792
 21
73.579239
  0
LINE
  8
0
  6
PHANTOM
 10
191.858810
 20
73.079239
 11
192.836792
 21
73.079239
  0
LINE
  8
0
  6
PHANTOM
 10
184.086807
 20
82.279236
 11
187.586807
 21
82.279236
  0
LINE
  8
0
  6
PHANTOM
 10
195.086792
 20
82.279236
 11
204.586792
 21
82.279236
  0
LINE
  8
0
  6
PHANTOM
 10
184.086807
 20
86.279236
 11
187.586807
 21
86.279236
  0
LINE
  8
0
  6
PHANTOM
 10
184.086807
 20
86.279236
 11
184.086807
 21
82.279236
  0
LINE
  8
0
  6
PHANTOM
 10
182.586807
 20
85.413185
 11
184.086807
 21
86.279213
  0
LINE
  8
0
  6
PHANTOM
 10
182.586807
 20
85.413223
 11
182.586807
 21
83.145264
  0
LINE
  8
0
  6
PHANTOM
 10
182.586792
 20
83.145248
 11
184.086777
 21
82.279228
  0
LINE
  8
0
  6
PHANTOM
 10
195.086792
 20
86.279236
 11
204.586792
 21
86.279236
  0
LINE
  8
0
  6
PHANTOM
 10
204.586792
 20
86.279236
 11
204.586792
 21
82.279236
  0
LINE
  8
0
  6
PHANTOM
 10
204.586823
 20
86.279213
 11
206.586823
 21
85.779213
  0
LINE
  8
0
  6
PHANTOM
 10
206.586792
 20
85.779236
 11
206.586792
 21
82.779236
  0
LINE
  8
0
  6
PHANTOM
 10
204.586823
 20
82.279175
 11
206.586823
 21
82.779175
  0
LINE
  8
0
  6
PHANTOM
 10
206.586792
 20
82.779236
 11
225.986786
 21
82.779236
  0
LINE
  8
0
  6
PHANTOM
 10
206.586792
 20
85.779236
 11
225.986786
 21
85.779236
  0
LINE
  8
0
  6
CENTER
 10
188.836807
 20
92.779236
 11
193.836792
 21
92.779236
  0
LINE
  8
0
  6
CENTER
 10
191.336807
 20
95.279236
 11
191.336807
 21
90.279236
  0
LINE
  8
0
  6
PHANTOM
 10
187.586807
 20
71.779236
 11
195.086792
 21
71.779236
  0
LINE
  8
0
  6
PHANTOM
 10
187.586807
 20
68.779251
 11
195.086792
 21
68.779251
  0
LINE
  8
0
  6
PHANTOM
 10
183.836807
 20
48.279236
 11
183.836807
 21
57.779221
  0
LINE
  8
0
 10
183.836807
 20
120.279236
 11
183.836807
 21
110.779251
  0
LINE
  8
0
 10
188.336807
 20
102.279236
 11
188.336807
 21
100.279236
  0
LINE
  8
0
 10
174.336807
 20
102.279236
 11
188.336807
 21
102.279236
  0
LINE
  8
0
 10
184.336792
 20
102.779205
 11
184.836792
 21
102.279205
  0
LINE
  8
0
 10
178.336807
 20
102.779236
 11
184.336807
 21
102.779236
  0
LINE
  8
0
 10
178.336823
 20
102.779205
 11
177.836823
 21
102.279205
  0
LINE
  8
0
 10
174.336807
 20
102.279236
 11
174.336807
 21
100.279236
  0
LINE
  8
0
 10
178.336807
 20
119.779236
 11
178.336807
 21
102.779236
  0
LINE
  8
0
 10
184.336807
 20
110.279236
 11
184.336807
 21
102.779236
  0
LINE
  8
0
 10
178.336807
 20
119.779236
 11
183.836807
 21
119.779236
  0
LINE
  8
0
 10
178.836807
 20
120.279236
 11
183.836807
 21
120.279236
  0
LINE
  8
0
 10
178.336823
 20
119.779243
 11
178.836807
 21
120.279228
  0
LINE
  8
0
 10
184.336807
 20
110.279251
 11
183.836792
 21
110.779251
  0
LINE
  8
0
  6
PHANTOM
 10
190.276169
 20
74.718590
 11
192.397476
 21
76.839890
  0
LINE
  8
0
  6
PHANTOM
 10
190.276138
 20
76.839905
 11
192.397461
 21
74.718575
  0
LINE
  8
0
 10
209.836792
 20
82.779236
 11
209.836792
 21
68.279236
  0
LINE
  8
0
 10
220.836792
 20
82.779236
 11
220.836792
 21
68.279236
  0
LINE
  8
0
 10
161.836792
 20
213.426117
 11
161.836792
 21
168.426117
  0
LINE
  8
0
 10
158.836792
 20
168.426117
 11
220.836792
 21
168.426117
  0
LINE
  8
0
 10
158.836792
 20
213.426117
 11
220.836792
 21
213.426117
  0
LINE
  8
0
 10
220.836792
 20
213.426117
 11
220.836792
 21
168.426117
  0
LINE
  8
0
 10
158.836792
 20
213.426117
 11
158.836792
 21
168.426117
  0
LINE
  8
0
  6
CENTER
 10
181.336792
 20
216.426117
 11
181.336792
 21
165.426117
  0
LINE
  8
0
  6
CENTER
 10
169.586792
 20
198.926117
 11
177.086792
 21
198.926117
  0
LINE
  8
0
  6
CENTER
 10
185.586792
 20
198.926117
 11
193.086777
 21
198.926117
  0
LINE
  8
0
  6
CENTER
 10
185.586792
 20
182.926117
 11
193.086777
 21
182.926117
  0
LINE
  8
0
  6
CENTER
 10
169.586792
 20
182.926117
 11
177.086792
 21
182.926117
  0
LINE
  8
0
  6
CENTER
 10
173.336792
 20
186.676117
 11
173.336792
 21
179.176117
  0
LINE
  8
0
  6
CENTER
 10
189.336792
 20
186.676117
 11
189.336792
 21
179.176117
  0
LINE
  8
0
  6
CENTER
 10
189.336792
 20
202.676117
 11
189.336792
 21
195.176117
  0
LINE
  8
0
  6
CENTER
 10
173.336792
 20
202.676117
 11
173.336792
 21
195.176117
  0
LINE
  8
0
  6
PHANTOM
 10
179.186783
 20
216.560089
 11
179.186783
 21
214.292145
  0
LINE
  8
0
  6
PHANTOM
 10
180.686783
 20
217.426117
 11
180.686783
 21
213.426117
  0
LINE
  8
0
  6
PHANTOM
 10
180.686783
 20
217.426117
 11
184.186783
 21
217.426117
  0
LINE
  8
0
  6
PHANTOM
 10
191.686783
 20
217.426117
 11
201.186783
 21
217.426117
  0
LINE
  8
0
  6
PHANTOM
 10
179.186783
 20
216.560120
 11
180.686798
 21
217.426147
  0
LINE
  8
0
  6
PHANTOM
 10
179.186813
 20
214.292145
 11
180.686798
 21
213.426132
  0
LINE
  8
0
  6
PHANTOM
 10
201.186783
 20
217.426117
 11
201.186783
 21
213.426117
  0
LINE
  8
0
  6
PHANTOM
 10
203.186798
 20
213.926117
 11
218.186798
 21
213.926117
  0
LINE
  8
0
  6
PHANTOM
 10
203.186798
 20
216.926117
 11
218.186798
 21
216.926117
  0
LINE
  8
0
  6
PHANTOM
 10
203.186798
 20
216.926117
 11
203.186798
 21
213.926117
  0
LINE
  8
0
  6
PHANTOM
 10
201.186813
 20
217.426254
 11
203.186813
 21
216.926254
  0
LINE
  8
0
  6
PHANTOM
 10
201.186783
 20
213.426224
 11
203.186783
 21
213.926224
  0
LINE
  8
0
  6
CENTER
 10
221.186798
 20
215.426117
 11
200.186783
 21
215.426117
  0
LINE
  8
0
  6
CENTER
 10
187.936783
 20
222.926117
 11
187.936783
 21
211.426117
  0
LINE
  8
0
  6
PHANTOM
 10
191.686783
 20
218.926117
 11
191.686783
 21
213.926117
  0
LINE
  8
0
  6
PHANTOM
 10
184.186783
 20
218.926117
 11
184.186783
 21
213.926117
  0
LINE
  8
0
  6
PHANTOM
 10
184.186783
 20
213.926117
 11
191.686783
 21
213.926117
  0
LINE
  8
0
  6
PHANTOM
 10
184.186783
 20
218.926117
 11
191.686783
 21
218.926117
  0
LINE
  8
0
  6
PHANTOM
 62
     3
 10
190.686783
 20
219.725769
 11
190.686783
 21
218.926117
  0
LINE
  8
0
  6
PHANTOM
 62
     3
 10
185.186783
 20
219.725769
 11
185.186783
 21
218.926117
  0
LINE
  8
0
  6
PHANTOM
 10
179.186783
 20
165.292145
 11
179.186783
 21
167.560089
  0
LINE
  8
0
  6
PHANTOM
 10
180.686783
 20
164.426117
 11
180.686783
 21
168.426117
  0
LINE
  8
0
  6
PHANTOM
 10
180.686783
 20
164.426117
 11
184.186783
 21
164.426117
  0
LINE
  8
0
  6
PHANTOM
 10
191.686783
 20
164.426117
 11
201.186783
 21
164.426117
  0
LINE
  8
0
  6
PHANTOM
 10
179.186829
 20
165.292175
 11
180.686813
 21
164.426163
  0
LINE
  8
0
  6
PHANTOM
 10
179.186798
 20
167.560043
 11
180.686813
 21
168.426071
  0
LINE
  8
0
  6
PHANTOM
 10
201.186783
 20
164.426117
 11
201.186783
 21
168.426117
  0
LINE
  8
0
  6
PHANTOM
 10
203.186798
 20
167.926117
 11
218.186798
 21
167.926117
  0
LINE
  8
0
  6
PHANTOM
 10
203.186798
 20
164.926117
 11
218.186798
 21
164.926117
  0
LINE
  8
0
  6
PHANTOM
 10
203.186798
 20
164.926117
 11
203.186798
 21
167.926117
  0
LINE
  8
0
  6
PHANTOM
 10
201.186783
 20
164.426102
 11
203.186783
 21
164.926102
  0
LINE
  8
0
  6
PHANTOM
 10
201.186783
 20
168.426102
 11
203.186783
 21
167.926102
  0
LINE
  8
0
  6
CENTER
 10
221.186798
 20
166.426117
 11
200.186783
 21
166.426117
  0
LINE
  8
0
  6
CENTER
 10
187.936783
 20
158.926117
 11
187.936783
 21
170.426117
  0
LINE
  8
0
  6
PHANTOM
 10
191.686783
 20
162.926117
 11
191.686783
 21
167.926117
  0
LINE
  8
0
  6
PHANTOM
 10
184.186783
 20
162.926117
 11
184.186783
 21
167.926117
  0
LINE
  8
0
  6
PHANTOM
 10
184.186783
 20
167.926117
 11
191.686783
 21
167.926117
  0
LINE
  8
0
  6
PHANTOM
 10
184.186783
 20
162.926117
 11
191.686783
 21
162.926117
  0
LINE
  8
0
  6
PHANTOM
 62
     3
 10
190.686783
 20
162.126465
 11
190.686783
 21
162.926117
  0
LINE
  8
0
  6
PHANTOM
 62
     3
 10
185.186783
 20
162.126465
 11
185.186783
 21
162.926117
  0
LINE
  8
0
 10
209.836792
 20
213.426117
 11
209.836792
 21
168.426117
  0
LINE
  8
0
  6
CENTER
 10
167.336792
 20
197.176117
 11
167.336792
 21
184.676117
  0
LINE
  8
0
  6
CENTER
 10
195.336777
 20
197.176117
 11
195.336777
 21
184.676117
  0
LINE
  8
0
 10
183.836792
 20
192.584412
 11
183.836792
 21
189.267792
  0
LINE
  8
0
  6
CENTER
 10
155.836792
 20
190.926117
 11
226.555573
 21
190.926117
  0
LINE
  8
0
 10
172.417572
 20
183.845367
 11
174.256027
 21
182.006912
  0
LINE
  8
0
 10
172.417526
 20
182.006866
 11
174.256027
 21
183.845367
  0
LINE
  8
0
 10
172.417526
 20
199.845352
 11
174.256027
 21
198.006851
  0
LINE
  8
0
 10
172.417557
 20
198.006851
 11
174.256012
 21
199.845306
  0
LINE
  8
0
 10
190.256058
 20
182.006866
 11
188.417557
 21
183.845367
  0
LINE
  8
0
 10
190.256012
 20
183.845352
 11
188.417557
 21
182.006897
  0
LINE
  8
0
 10
190.256042
 20
199.845352
 11
188.417542
 21
198.006851
  0
LINE
  8
0
 10
190.256012
 20
198.006851
 11
188.417542
 21
199.845306
  0
LINE
  8
0
 10
47.666733
 20
68.279228
 11
84.666725
 21
68.279228
  0
LINE
  8
0
 10
47.666733
 20
100.279228
 11
84.666725
 21
100.279228
  0
LINE
  8
0
 10
43.666733
 20
96.279228
 11
43.666733
 21
72.279228
  0
LINE
  8
0
 10
88.666725
 20
96.279228
 11
88.666725
 21
72.279228
  0
LINE
  8
0
  6
CENTER
 10
35.166733
 20
84.279228
 11
97.166725
 21
84.279228
  0
LINE
  8
0
  6
CENTER
 10
66.166725
 20
123.279228
 11
66.166725
 21
45.279228
  0
LINE
  8
0
  6
PHANTOM
 10
63.166740
 20
48.779289
 11
63.666744
 21
48.279289
  0
LINE
  8
0
 10
63.166733
 20
119.779144
 11
63.666725
 21
120.279137
  0
LINE
  8
0
 10
63.166725
 20
119.779228
 11
69.166725
 21
119.779228
  0
LINE
  8
0
 10
63.166725
 20
119.779228
 11
63.166725
 21
102.779228
  0
LINE
  8
0
 10
69.166733
 20
119.779243
 11
68.666725
 21
120.279243
  0
LINE
  8
0
 10
69.166725
 20
119.779228
 11
69.166725
 21
102.779228
  0
LINE
  8
0
 10
63.166725
 20
102.779228
 11
69.166725
 21
102.779228
  0
LINE
  8
0
 10
59.166725
 20
102.279228
 11
73.166725
 21
102.279228
  0
LINE
  8
0
 10
69.166740
 20
102.779259
 11
69.666740
 21
102.279259
  0
LINE
  8
0
 10
63.166733
 20
102.779205
 11
62.666733
 21
102.279205
  0
LINE
  8
0
 10
73.166725
 20
102.279236
 11
73.166725
 21
100.279228
  0
LINE
  8
0
 10
73.166725
 20
66.279228
 11
73.166725
 21
68.279228
  0
LINE
  8
0
 10
59.166725
 20
66.279228
 11
73.166725
 21
66.279228
  0
LINE
  8
0
 10
69.166733
 20
65.779243
 11
69.666733
 21
66.279243
  0
LINE
  8
0
 10
63.166725
 20
65.779228
 11
69.166725
 21
65.779228
  0
LINE
  8
0
 10
63.166756
 20
65.779274
 11
62.666756
 21
66.279274
  0
LINE
  8
0
 10
59.166725
 20
66.279228
 11
59.166725
 21
68.279228
  0
LINE
  8
0
  6
PHANTOM
 10
63.166725
 20
48.779228
 11
63.166725
 21
65.779228
  0
LINE
  8
0
  6
PHANTOM
 10
69.166725
 20
48.779228
 11
69.166725
 21
65.779228
  0
LINE
  8
0
  6
PHANTOM
 10
63.166725
 20
48.779228
 11
69.166725
 21
48.779228
  0
LINE
  8
0
  6
PHANTOM
 10
69.166748
 20
48.779209
 11
68.666763
 21
48.279221
  0
LINE
  8
0
  6
PHANTOM
 10
63.666725
 20
48.279228
 11
68.666725
 21
48.279228
  0
LINE
  8
0
  6
PHANTOM
 10
39.666702
 20
86.279228
 11
39.666702
 21
82.279228
  0
LINE
  8
0
  6
PHANTOM
 10
40.532700
 20
83.145256
 11
42.800705
 21
83.145256
  0
LINE
  8
0
  6
PHANTOM
 10
39.666702
 20
82.279228
 11
43.666702
 21
82.279228
  0
LINE
  8
0
  6
PHANTOM
 10
39.666702
 20
86.279228
 11
43.666702
 21
86.279228
  0
LINE
  8
0
  6
PHANTOM
 10
40.532700
 20
85.413200
 11
42.800705
 21
85.413200
  0
LINE
  8
0
  6
PHANTOM
 10
40.532700
 20
85.413200
 11
40.532700
 21
83.145256
  0
LINE
  8
0
  6
PHANTOM
 10
42.800705
 20
85.413200
 11
42.800705
 21
83.145256
  0
LINE
  8
0
  6
PHANTOM
 10
39.666843
 20
86.279411
 11
40.532833
 21
85.413391
  0
LINE
  8
0
  6
PHANTOM
 10
40.532730
 20
83.145218
 11
39.666737
 21
82.279198
  0
LINE
  8
0
  6
PHANTOM
 10
42.800713
 20
83.145294
 11
43.666714
 21
82.279266
  0
LINE
  8
0
  6
PHANTOM
 10
42.800819
 20
85.413086
 11
43.666821
 21
86.279114
  0
LINE
  8
0
  6
PHANTOM
 10
38.166733
 20
87.079231
 11
43.166733
 21
87.079231
  0
LINE
  8
0
  6
PHANTOM
 10
43.166733
 20
87.079231
 11
43.166733
 21
86.279228
  0
LINE
  8
0
  6
PHANTOM
 10
43.166733
 20
82.279228
 11
43.166733
 21
75.779243
  0
LINE
  8
0
  6
PHANTOM
 10
38.166733
 20
87.079231
 11
38.166733
 21
71.779228
  0
LINE
  8
0
  6
CENTER
 10
35.166733
 20
75.779228
 11
44.666733
 21
75.779228
  0
LINE
  8
0
  6
PHANTOM
 62
     3
 10
37.367081
 20
78.529228
 11
38.166733
 21
78.529228
  0
LINE
  8
0
  6
PHANTOM
 62
     3
 10
37.367081
 20
73.029228
 11
38.166733
 21
73.029228
  0
LINE
  8
0
  6
PHANTOM
 62
     1
 10
43.166733
 20
77.029228
 11
43.666733
 21
77.029228
  0
LINE
  8
0
  6
PHANTOM
 62
     1
 10
43.166733
 20
76.758736
 11
43.666733
 21
76.758736
  0
LINE
  8
0
 10
59.166725
 20
102.279228
 11
59.166725
 21
100.279228
  0
LINE
  8
0
 10
63.666695
 20
120.279182
 11
68.666771
 21
120.279182
  0
LINE
  8
0
  6
PHANTOM
 10
41.166733
 20
68.779228
 11
44.666733
 21
68.779228
  0
LINE
  8
0
  6
PHANTOM
 10
41.166821
 20
68.779358
 11
38.166821
 21
71.779350
  0
LINE
  8
0
  6
CENTER
 10
44.666733
 20
95.279228
 11
52.666733
 21
95.279228
  0
LINE
  8
0
  6
CENTER
 10
44.666733
 20
73.279228
 11
52.666733
 21
73.279228
  0
LINE
  8
0
  6
CENTER
 10
79.666725
 20
73.279228
 11
87.666725
 21
73.279228
  0
LINE
  8
0
  6
CENTER
 10
79.666725
 20
95.279228
 11
87.666725
 21
95.279228
  0
LINE
  8
0
  6
CENTER
 10
48.666733
 20
99.279228
 11
48.666733
 21
91.279228
  0
LINE
  8
0
  6
CENTER
 10
48.666733
 20
77.279228
 11
48.666733
 21
69.279228
  0
LINE
  8
0
  6
CENTER
 10
83.666725
 20
77.279228
 11
83.666725
 21
69.279228
  0
LINE
  8
0
  6
CENTER
 10
83.666725
 20
99.279228
 11
83.666725
 21
91.279228
  0
LINE
  8
0
  6
PHANTOM
 10
44.666733
 20
69.633507
 11
44.666733
 21
68.779243
  0
LINE
  8
0
  6
PHANTOM
 10
92.666740
 20
86.279228
 11
92.666740
 21
82.279228
  0
LINE
  8
0
  6
PHANTOM
 10
91.800743
 20
83.145256
 11
89.532738
 21
83.145256
  0
LINE
  8
0
  6
PHANTOM
 10
92.666740
 20
82.279228
 11
88.666740
 21
82.279228
  0
LINE
  8
0
  6
PHANTOM
 10
92.666740
 20
86.279228
 11
88.666740
 21
86.279228
  0
LINE
  8
0
  6
PHANTOM
 10
91.800743
 20
85.413200
 11
89.532738
 21
85.413200
  0
LINE
  8
0
  6
PHANTOM
 10
91.800743
 20
85.413200
 11
91.800743
 21
83.145256
  0
LINE
  8
0
  6
PHANTOM
 10
89.532738
 20
85.413200
 11
89.532738
 21
83.145256
  0
LINE
  8
0
  6
PHANTOM
 10
92.666695
 20
86.279335
 11
91.800690
 21
85.413315
  0
LINE
  8
0
  6
PHANTOM
 10
91.800720
 20
83.145203
 11
92.666725
 21
82.279175
  0
LINE
  8
0
  6
PHANTOM
 10
89.532761
 20
83.145317
 11
88.666748
 21
82.279282
  0
LINE
  8
0
  6
PHANTOM
 10
89.532700
 20
85.413208
 11
88.666695
 21
86.279236
  0
LINE
  8
0
  6
PHANTOM
 10
94.166725
 20
87.079231
 11
89.166725
 21
87.079231
  0
LINE
  8
0
  6
PHANTOM
 10
89.166725
 20
87.079231
 11
89.166725
 21
86.279228
  0
LINE
  8
0
  6
PHANTOM
 10
89.166725
 20
82.279228
 11
89.166725
 21
75.779243
  0
LINE
  8
0
  6
PHANTOM
 10
94.166725
 20
87.079231
 11
94.166725
 21
71.779228
  0
LINE
  8
0
  6
CENTER
 10
97.166725
 20
75.779228
 11
87.666725
 21
75.779228
  0
LINE
  8
0
  6
PHANTOM
 62
     3
 10
94.966377
 20
78.529228
 11
94.166725
 21
78.529228
  0
LINE
  8
0
  6
PHANTOM
 62
     3
 10
94.966377
 20
73.029228
 11
94.166725
 21
73.029228
  0
LINE
  8
0
  6
PHANTOM
 62
     1
 10
89.166725
 20
77.029228
 11
88.666725
 21
77.029228
  0
LINE
  8
0
  6
PHANTOM
 62
     1
 10
89.166725
 20
76.758736
 11
88.666725
 21
76.758736
  0
LINE
  8
0
  6
PHANTOM
 10
91.166725
 20
68.779228
 11
87.666725
 21
68.779228
  0
LINE
  8
0
  6
PHANTOM
 10
91.166748
 20
68.779228
 11
94.166756
 21
71.779228
  0
LINE
  8
0
  6
PHANTOM
 10
87.666725
 20
69.633507
 11
87.666725
 21
68.779243
  0
LINE
  8
0
 10
47.393909
 20
96.552010
 11
49.939476
 21
94.006447
  0
LINE
  8
0
 10
47.393906
 20
94.006477
 11
49.939461
 21
96.552040
  0
LINE
  8
0
 10
84.939537
 20
96.552002
 11
82.393974
 21
94.006432
  0
LINE
  8
0
 10
84.939552
 20
94.006454
 11
82.393990
 21
96.552010
  0
LINE
  8
0
 10
47.393925
 20
72.006432
 11
49.939491
 21
74.552002
  0
LINE
  8
0
 10
47.393936
 20
74.552025
 11
49.939495
 21
72.006462
  0
LINE
  8
0
 10
84.939537
 20
72.006439
 11
82.393974
 21
74.552010
  0
LINE
  8
0
 10
84.939560
 20
74.552002
 11
82.394005
 21
72.006447
  0
LINE
  8
0
 10
288.800323
 20
68.279228
 11
325.800293
 21
68.279228
  0
LINE
  8
0
 10
288.800323
 20
100.279228
 11
325.800293
 21
100.279228
  0
LINE
  8
0
 10
284.800323
 20
96.279228
 11
284.800323
 21
72.279228
  0
LINE
  8
0
 10
329.800293
 20
96.279228
 11
329.800293
 21
72.279228
  0
LINE
  8
0
  6
CENTER
 10
276.300293
 20
84.279228
 11
338.300293
 21
84.279228
  0
LINE
  8
0
  6
CENTER
 10
307.300293
 20
123.279228
 11
307.300293
 21
45.279228
  0
LINE
  8
0
  6
PHANTOM
 10
304.300293
 20
48.779285
 11
304.800293
 21
48.279278
  0
LINE
  8
0
 10
304.300262
 20
119.779167
 11
304.800262
 21
120.279160
  0
LINE
  8
0
 10
304.300293
 20
119.779228
 11
310.300293
 21
119.779228
  0
LINE
  8
0
 10
304.300293
 20
119.779228
 11
304.300293
 21
102.779228
  0
LINE
  8
0
 10
310.300262
 20
119.779221
 11
309.800262
 21
120.279221
  0
LINE
  8
0
 10
310.300293
 20
119.779228
 11
310.300293
 21
102.779228
  0
LINE
  8
0
 10
304.300293
 20
102.779228
 11
310.300293
 21
102.779228
  0
LINE
  8
0
 10
300.300293
 20
102.279228
 11
314.300293
 21
102.279228
  0
LINE
  8
0
 10
310.300262
 20
102.779259
 11
310.800262
 21
102.279259
  0
LINE
  8
0
 10
304.300262
 20
102.779228
 11
303.800232
 21
102.279213
  0
LINE
  8
0
 10
314.300293
 20
102.279236
 11
314.300293
 21
100.279228
  0
LINE
  8
0
 10
314.300293
 20
66.279228
 11
314.300293
 21
68.279228
  0
LINE
  8
0
 10
300.300293
 20
66.279228
 11
314.300293
 21
66.279228
  0
LINE
  8
0
 10
310.300262
 20
65.779236
 11
310.800293
 21
66.279251
  0
LINE
  8
0
 10
304.300293
 20
65.779228
 11
310.300293
 21
65.779228
  0
LINE
  8
0
 10
304.300293
 20
65.779236
 11
303.800293
 21
66.279243
  0
LINE
  8
0
 10
300.300293
 20
66.279228
 11
300.300293
 21
68.279228
  0
LINE
  8
0
  6
PHANTOM
 10
304.300293
 20
48.779228
 11
304.300293
 21
65.779228
  0
LINE
  8
0
  6
PHANTOM
 10
310.300293
 20
48.779228
 11
310.300293
 21
65.779228
  0
LINE
  8
0
  6
PHANTOM
 10
304.300293
 20
48.779228
 11
310.300293
 21
48.779228
  0
LINE
  8
0
  6
PHANTOM
 10
310.300293
 20
48.779202
 11
309.800293
 21
48.279198
  0
LINE
  8
0
  6
PHANTOM
 10
304.800293
 20
48.279228
 11
309.800293
 21
48.279228
  0
LINE
  8
0
  6
PHANTOM
 10
280.800293
 20
86.279228
 11
280.800293
 21
82.279228
  0
LINE
  8
0
  6
PHANTOM
 10
280.800293
 20
82.279228
 11
284.800293
 21
82.279228
  0
LINE
  8
0
  6
PHANTOM
 10
280.800293
 20
86.279228
 11
284.800293
 21
86.279228
  0
LINE
  8
0
  6
PHANTOM
 10
279.300293
 20
87.079231
 11
284.300293
 21
87.079231
  0
LINE
  8
0
  6
PHANTOM
 10
284.300293
 20
87.079231
 11
284.300293
 21
86.279228
  0
LINE
  8
0
  6
PHANTOM
 10
284.300293
 20
82.279228
 11
284.300293
 21
75.779243
  0
LINE
  8
0
  6
PHANTOM
 10
279.300293
 20
87.079231
 11
279.300293
 21
71.779228
  0
LINE
  8
0
  6
CENTER
 10
276.300293
 20
75.779228
 11
285.800293
 21
75.779228
  0
LINE
  8
0
  6
PHANTOM
 62
     3
 10
278.500641
 20
78.529228
 11
279.300293
 21
78.529228
  0
LINE
  8
0
  6
PHANTOM
 62
     3
 10
278.500641
 20
73.029228
 11
279.300293
 21
73.029228
  0
LINE
  8
0
  6
PHANTOM
 62
     1
 10
284.300293
 20
77.029228
 11
284.800293
 21
77.029228
  0
LINE
  8
0
  6
PHANTOM
 62
     1
 10
284.300293
 20
76.758736
 11
284.800293
 21
76.758736
  0
LINE
  8
0
 10
300.300293
 20
102.279228
 11
300.300293
 21
100.279228
  0
LINE
  8
0
 10
304.800262
 20
120.279182
 11
309.800354
 21
120.279182
  0
LINE
  8
0
  6
PHANTOM
 10
282.300293
 20
68.779228
 11
285.800293
 21
68.779228
  0
LINE
  8
0
  6
PHANTOM
 10
282.300262
 20
68.779221
 11
279.300262
 21
71.779213
  0
LINE
  8
0
  6
PHANTOM
 10
285.800293
 20
69.633507
 11
285.800293
 21
68.779243
  0
LINE
  8
0
  6
PHANTOM
 10
333.800293
 20
86.279228
 11
333.800293
 21
82.279228
  0
LINE
  8
0
  6
PHANTOM
 10
333.800293
 20
82.279228
 11
329.800293
 21
82.279228
  0
LINE
  8
0
  6
PHANTOM
 10
333.800293
 20
86.279228
 11
329.800293
 21
86.279228
  0
LINE
  8
0
  6
PHANTOM
 10
335.300293
 20
87.079231
 11
330.300293
 21
87.079231
  0
LINE
  8
0
  6
PHANTOM
 10
330.300293
 20
87.079231
 11
330.300293
 21
86.279228
  0
LINE
  8
0
  6
PHANTOM
 10
330.300293
 20
82.279228
 11
330.300293
 21
75.779243
  0
LINE
  8
0
  6
PHANTOM
 10
335.300293
 20
87.079231
 11
335.300293
 21
71.779228
  0
LINE
  8
0
  6
CENTER
 10
338.300293
 20
75.779228
 11
328.800293
 21
75.779228
  0
LINE
  8
0
  6
PHANTOM
 62
     3
 10
336.099976
 20
78.529228
 11
335.300293
 21
78.529228
  0
LINE
  8
0
  6
PHANTOM
 62
     3
 10
336.099976
 20
73.029228
 11
335.300293
 21
73.029228
  0
LINE
  8
0
  6
PHANTOM
 62
     1
 10
330.300293
 20
77.029228
 11
329.800293
 21
77.029228
  0
LINE
  8
0
  6
PHANTOM
 62
     1
 10
330.300293
 20
76.758736
 11
329.800293
 21
76.758736
  0
LINE
  8
0
  6
PHANTOM
 10
332.300293
 20
68.779228
 11
328.800293
 21
68.779228
  0
LINE
  8
0
  6
PHANTOM
 10
332.300140
 20
68.779320
 11
335.300171
 21
71.779343
  0
LINE
  8
0
  6
PHANTOM
 10
328.800293
 20
69.633507
 11
328.800293
 21
68.779243
  0
LINE
  8
0
  6
CENTER
 10
282.800293
 20
88.279228
 11
282.800293
 21
80.279228
  0
LINE
  8
0
  6
CENTER
 10
331.800293
 20
88.279228
 11
331.800293
 21
80.279228
  0
LINE
  8
0
  6
CENTER
 10
299.300293
 20
95.279228
 11
299.300293
 21
83.279228
  0
LINE
  8
0
  6
CENTER
 10
315.300293
 20
85.279228
 11
315.300293
 21
73.279228
  0
LINE
  8
0
  6
CENTER
 10
293.300293
 20
89.279228
 11
305.300293
 21
89.279228
  0
LINE
  8
0
  6
CENTER
 10
309.300293
 20
79.279228
 11
321.300293
 21
79.279228
  0
LINE
  8
0
 62
     3
 10
288.300293
 20
96.145256
 11
288.300293
 21
94.413200
  0
LINE
  8
0
 62
     3
 10
291.300293
 20
96.145256
 11
291.300293
 21
94.413208
  0
LINE
  8
0
 62
     3
 10
288.300323
 20
96.145233
 11
289.800323
 21
97.011261
  0
LINE
  8
0
 62
     3
 10
289.800323
 20
93.547157
 11
291.300323
 21
94.413185
  0
LINE
  8
0
 62
     3
 10
289.800293
 20
97.011292
 11
291.300323
 21
96.145264
  0
LINE
  8
0
 62
     3
 10
288.300293
 20
94.413208
 11
289.800293
 21
93.547180
  0
LINE
  8
0
 62
     3
 10
288.300293
 20
74.145256
 11
288.300293
 21
72.413200
  0
LINE
  8
0
 62
     3
 10
291.300293
 20
74.145256
 11
291.300293
 21
72.413200
  0
LINE
  8
0
 62
     3
 10
288.300293
 20
74.145226
 11
289.800293
 21
75.011253
  0
LINE
  8
0
 62
     3
 10
289.800293
 20
71.547150
 11
291.300293
 21
72.413177
  0
LINE
  8
0
 62
     3
 10
289.800323
 20
75.011269
 11
291.300323
 21
74.145241
  0
LINE
  8
0
 62
     3
 10
288.300323
 20
72.413208
 11
289.800323
 21
71.547180
  0
LINE
  8
0
 62
     3
 10
323.300293
 20
74.145256
 11
323.300293
 21
72.413200
  0
LINE
  8
0
 62
     3
 10
326.300293
 20
74.145256
 11
326.300293
 21
72.413200
  0
LINE
  8
0
 62
     3
 10
323.300293
 20
74.145241
 11
324.800293
 21
75.011269
  0
LINE
  8
0
 62
     3
 10
324.800293
 20
71.547165
 11
326.300293
 21
72.413193
  0
LINE
  8
0
 62
     3
 10
324.800323
 20
75.011284
 11
326.300323
 21
74.145256
  0
LINE
  8
0
 62
     3
 10
323.300293
 20
72.413216
 11
324.800293
 21
71.547188
  0
LINE
  8
0
 62
     3
 10
323.300293
 20
96.145256
 11
323.300293
 21
94.413200
  0
LINE
  8
0
 62
     3
 10
326.300293
 20
96.145256
 11
326.300293
 21
94.413208
  0
LINE
  8
0
 62
     3
 10
323.300293
 20
96.145241
 11
324.800293
 21
97.011269
  0
LINE
  8
0
 62
     3
 10
324.800293
 20
93.547157
 11
326.300323
 21
94.413185
  0
LINE
  8
0
 62
     3
 10
324.800293
 20
97.011284
 11
326.300323
 21
96.145256
  0
LINE
  8
0
 62
     3
 10
323.300323
 20
94.413216
 11
324.800323
 21
93.547188
  0
LINE
  8
0
  6
CENTER
 10
289.800293
 20
99.779228
 11
289.800293
 21
90.779228
  0
LINE
  8
0
  6
CENTER
 10
324.800293
 20
99.779228
 11
324.800293
 21
90.779228
  0
LINE
  8
0
  6
CENTER
 10
324.800293
 20
77.779228
 11
324.800293
 21
68.779228
  0
LINE
  8
0
  6
CENTER
 10
289.800293
 20
77.779228
 11
289.800293
 21
68.779228
  0
LINE
  8
0
  6
CENTER
 10
285.300293
 20
73.279228
 11
294.300293
 21
73.279228
  0
LINE
  8
0
  6
CENTER
 10
285.300293
 20
95.279228
 11
294.300293
 21
95.279228
  0
LINE
  8
0
  6
CENTER
 10
320.300293
 20
95.279228
 11
329.300293
 21
95.279228
  0
LINE
  8
0
  6
CENTER
 10
320.300293
 20
73.279228
 11
329.300293
 21
73.279228
  0
CIRCLE
  8
0
 10
191.336807
 20
92.779236
 40
1.500000
  0
CIRCLE
  8
0
 10
191.336807
 20
92.779236
 40
1.229500
  0
CIRCLE
  8
0
  6
PHANTOM
 62
     3
 10
191.336807
 20
75.779236
 40
2.750000
  0
ARC
  8
0
  6
PHANTOM
 10
225.325348
 20
85.029236
 40
1.000000
 50
311.409637
 51
48.590370
  0
ARC
  8
0
  6
PHANTOM
 10
226.648224
 20
83.529236
 40
1.000000
 50
131.409622
 51
228.590378
  0
ARC
  8
0
  6
PHANTOM
 10
225.325348
 20
83.529236
 40
1.000000
 50
311.409637
 51
48.590370
  0
CIRCLE
  8
0
 10
181.336792
 20
190.926117
 40
3.000000
  0
CIRCLE
  8
0
 10
181.336792
 20
190.926117
 40
2.500000
  0
ARC
  8
0
 10
181.336792
 20
190.926117
 40
15.500000
 50
17.598831
 51
162.401169
  0
ARC
  8
0
 10
181.336792
 20
190.926117
 40
15.500000
 50
197.598831
 51
342.401184
  0
CIRCLE
  8
0
 10
181.336792
 20
190.926117
 40
7.000000
  0
CIRCLE
  8
0
 62
     3
 10
173.336792
 20
198.926117
 40
2.599999
  0
CIRCLE
  8
0
 62
     3
 10
189.336792
 20
198.926117
 40
2.599999
  0
CIRCLE
  8
0
 62
     3
 10
189.336792
 20
182.926117
 40
2.599999
  0
CIRCLE
  8
0
 62
     3
 10
173.336792
 20
182.926117
 40
2.599999
  0
ARC
  8
0
  6
PHANTOM
 10
217.525360
 20
214.676117
 40
1.000000
 50
311.409637
 51
48.590370
  0
ARC
  8
0
  6
PHANTOM
 10
217.525360
 20
216.176117
 40
1.000000
 50
311.409637
 51
48.590370
  0
ARC
  8
0
  6
PHANTOM
 10
218.848236
 20
216.176117
 40
1.000000
 50
131.409622
 51
228.590378
  0
ARC
  8
0
  6
PHANTOM
 62
     3
 10
187.936783
 20
215.926117
 40
4.999999
 50
61.264629
 51
118.735367
  0
ARC
  8
0
  6
PHANTOM
 62
     3
 10
190.020081
 20
219.725769
 40
0.666702
 50
0.000000
 51
61.264580
  0
ARC
  8
0
  6
PHANTOM
 62
     3
 10
185.853485
 20
219.725769
 40
0.666699
 50
118.735420
 51
180.000000
  0
ARC
  8
0
  6
PHANTOM
 62
     3
 10
185.853485
 20
162.126465
 40
0.666702
 50
180.000000
 51
241.264587
  0
ARC
  8
0
  6
PHANTOM
 10
217.525360
 20
165.676117
 40
1.000000
 50
311.409637
 51
48.590370
  0
ARC
  8
0
  6
PHANTOM
 10
217.525360
 20
167.176117
 40
1.000000
 50
311.409637
 51
48.590370
  0
ARC
  8
0
  6
PHANTOM
 10
218.848236
 20
167.176117
 40
1.000000
 50
131.409622
 51
228.590378
  0
ARC
  8
0
  6
PHANTOM
 62
     3
 10
187.936783
 20
165.926117
 40
4.999999
 50
241.264633
 51
298.735382
  0
ARC
  8
0
  6
PHANTOM
 62
     3
 10
190.020081
 20
162.126465
 40
0.666699
 50
298.735413
 51
0.000000
  0
CIRCLE
  8
0
 10
167.336792
 20
190.926117
 40
2.750000
  0
CIRCLE
  8
0
 10
195.336777
 20
190.926117
 40
2.750000
  0
CIRCLE
  8
0
 10
195.336777
 20
190.926117
 40
4.750000
  0
CIRCLE
  8
0
 10
167.336792
 20
190.926117
 40
4.750000
  0
CIRCLE
  8
0
 62
     3
 10
83.666725
 20
95.279228
 40
3.000000
  0
CIRCLE
  8
0
 62
     3
 10
83.666725
 20
73.279228
 40
3.000000
  0
ARC
  8
0
 10
47.666733
 20
96.279228
 40
4.000000
 50
90.000000
 51
180.000000
  0
CIRCLE
  8
0
 62
     3
 10
48.666733
 20
73.279228
 40
3.000000
  0
ARC
  8
0
  6
PHANTOM
 62
     3
 10
94.966377
 20
77.862526
 40
0.666699
 50
28.735418
 51
90.000000
  0
ARC
  8
0
  6
PHANTOM
 62
     3
 10
94.966377
 20
73.695930
 40
0.666702
 50
270.000000
 51
331.264587
  0
ARC
  8
0
 10
84.666725
 20
96.279228
 40
4.000000
 50
0.000000
 51
90.000000
  0
ARC
  8
0
 10
84.666725
 20
72.279228
 40
4.000000
 50
270.000000
 51
0.000000
  0
ARC
  8
0
 10
47.666733
 20
72.279228
 40
4.000000
 50
180.000000
 51
270.000000
  0
ARC
  8
0
  6
PHANTOM
 62
     3
 10
91.166725
 20
75.779228
 40
4.999999
 50
331.264618
 51
28.735369
  0
ARC
  8
0
  6
PHANTOM
 62
     3
 10
41.166733
 20
75.779228
 40
4.999999
 50
151.264633
 51
208.735352
  0
ARC
  8
0
  6
PHANTOM
 62
     3
 10
37.367081
 20
77.862526
 40
0.666702
 50
90.000000
 51
151.264587
  0
ARC
  8
0
  6
PHANTOM
 62
     3
 10
37.367081
 20
73.695930
 40
0.666699
 50
208.735413
 51
270.000000
  0
CIRCLE
  8
0
 62
     3
 10
48.666733
 20
95.279228
 40
3.000000
  0
CIRCLE
  8
0
 62
     3
 10
324.800293
 20
73.279228
 40
3.500000
  0
CIRCLE
  8
0
 62
     3
 10
324.800293
 20
95.279228
 40
2.807179
  0
CIRCLE
  8
0
 62
     3
 10
324.800293
 20
73.279228
 40
2.807179
  0
CIRCLE
  8
0
 62
     3
 10
324.800293
 20
95.279228
 40
3.500000
  0
ARC
  8
0
  6
PHANTOM
 62
     3
 10
282.300293
 20
75.779228
 40
4.999999
 50
151.264633
 51
208.735367
  0
ARC
  8
0
  6
PHANTOM
 62
     3
 10
278.500641
 20
77.862526
 40
0.666702
 50
90.000000
 51
151.264587
  0
ARC
  8
0
  6
PHANTOM
 62
     3
 10
278.500641
 20
73.695930
 40
0.666699
 50
208.735413
 51
270.000000
  0
ARC
  8
0
 10
288.800323
 20
72.279228
 40
4.000000
 50
180.000000
 51
270.000000
  0
ARC
  8
0
 10
288.800323
 20
96.279228
 40
4.000000
 50
90.000000
 51
180.000000
  0
ARC
  8
0
 10
325.800293
 20
96.279228
 40
4.000000
 50
0.000000
 51
90.000000
  0
ARC
  8
0
 10
325.800293
 20
72.279228
 40
4.000000
 50
270.000000
 51
0.000000
  0
ARC
  8
0
  6
PHANTOM
 62
     3
 10
336.099976
 20
73.695930
 40
0.666702
 50
270.000000
 51
331.264587
  0
ARC
  8
0
  6
PHANTOM
 62
     3
 10
336.099976
 20
77.862526
 40
0.666699
 50
28.735418
 51
90.000000
  0
ARC
  8
0
  6
PHANTOM
 62
     3
 10
332.300293
 20
75.779228
 40
4.999999
 50
331.264618
 51
28.735369
  0
CIRCLE
  8
0
  6
PHANTOM
 10
282.800293
 20
84.279228
 40
1.500000
  0
CIRCLE
  8
0
  6
PHANTOM
 10
331.800293
 20
84.279228
 40
1.500000
  0
CIRCLE
  8
0
 10
299.300293
 20
89.279228
 40
4.283000
  0
CIRCLE
  8
0
 10
315.300293
 20
79.279228
 40
4.283000
  0
CIRCLE
  8
0
 10
315.300293
 20
79.279228
 40
4.573500
  0
CIRCLE
  8
0
 10
299.300293
 20
89.279228
 40
4.573500
  0
CIRCLE
  8
0
 62
     3
 10
289.800293
 20
95.279228
 40
3.500000
  0
CIRCLE
  8
0
 62
     3
 10
289.800293
 20
95.279228
 40
2.807179
  0
CIRCLE
  8
0
 62
     3
 10
289.800293
 20
73.279228
 40
3.500000
  0
CIRCLE
  8
0
 62
     3
 10
289.800293
 20
73.279228
 40
2.807179
  0
TEXT
  8
0
 10
298.797760
 20
244.589584
 40
4.242641
  1
DATE : MAR ,1992
 50
0.000000
 41
1.052631
 51
0.000000
  7
STANDARD
  0
TEXT
  8
0
 10
2.113382
 20
243.907959
 40
5.000000
  1
ROTARY ACUTUATOR
 50
0.000000
 41
0.937799
 51
0.000000
  7
STANDARD
  0
TEXT
  8
0
 10
22.035715
 20
201.757431
 40
5.000000
  1
        RAPS5-100
 50
0.000000
 41
1.052632
 51
0.000000
  7
STANDARD
  0
TEXT
  8
0
 10
2.113382
 20
243.907959
 40
5.000000
  1
ROTARY ACUTUATOR
 50
0.000000
 41
0.937799
 51
0.000000
  7
STANDARD
  0
TEXT
  8
0
 10
232.535156
 20
183.561676
 40
3.500000
  1
〃
 50
90.000000
 41
0.833333
 51
0.000000
  7
STANDARD
  0
TEXT
  8
0
 10
232.535156
 20
194.290878
 40
3.500000
  1
〃
 50
90.000000
 41
0.833333
 51
0.000000
  7
STANDARD
  0
TEXT
  8
0
 10
238.986771
 20
189.331848
 40
3.500000
  1
D
 50
90.000000
 41
0.862813
 51
0.000000
  7
STANDARD
  0
TEXT
  8
0
 10
22.035715
 20
211.757431
 40
5.000000
  1
MODEL : RAPS5-90
 50
0.000000
 41
1.052632
 51
0.000000
  7
STANDARD
  0
TEXT
  8
0
 10
302.273193
 20
3.650512
 40
5.000000
  1
KOGANEI,CORP
 50
0.000000
 41
1.052632
 51
0.000000
  7
STANDARD
  0
TEXT
  8
0
 10
228.474869
 20
165.143143
 40
3.200398
  1
            
 50
82.500000
 41
1.052632
 51
0.000000
  7
STANDARD
  0
ARC
  8
0
 10
181.336746
 20
190.926056
 40
49.499981
 50
345.000000
 51
0.000000
  0
LINE
  8
0
 10
229.150055
 20
178.114517
 11
229.059189
 21
181.112671
  0
LINE
  8
0
 10
229.150055
 20
178.114517
 11
230.570435
 21
180.756424
  0
LINE
  8
0
 10
230.836731
 20
190.926056
 11
231.524933
 21
188.006531
  0
LINE
  8
0
 10
230.836731
 20
190.926056
 11
229.972961
 21
188.053574
  0
LINE
  8
0
 10
240.680176
 20
175.025208
 11
240.680283
 21
175.025177
  0
LINE
  8
0
 10
223.836777
 20
190.926117
 11
232.335312
 21
190.926117
  0
TEXT
  8
0
 10
233.541794
 20
178.221878
 40
3.200398
  1
            
 50
97.500000
 41
1.052632
 51
0.000000
  7
STANDARD
  0
ARC
  8
0
 10
181.336761
 20
190.926056
 40
49.499985
 50
0.000000
 51
14.999980
  0
LINE
  8
0
 10
230.836746
 20
190.926056
 11
229.972977
 21
193.798538
  0
LINE
  8
0
 10
230.836746
 20
190.926056
 11
231.524948
 21
193.845581
  0
LINE
  8
0
 10
229.150085
 20
203.737579
 11
230.570465
 21
201.095657
  0
LINE
  8
0
 10
229.150085
 20
203.737579
 11
229.059204
 21
200.739410
  0
LINE
  8
0
 10
223.836777
 20
190.926117
 11
232.335312
 21
190.926117
  0
LINE
  8
0
 10
240.015884
 20
206.649246
 11
240.016006
 21
206.649292
  0
LINE
  8
0
 10
317.587006
 20
75.318466
 11
336.084839
 21
43.279228
  0
LINE
  8
0
 10
336.084839
 20
43.279228
 11
362.338135
 21
43.279236
  0
LINE
  8
0
 10
317.587006
 20
75.318466
 11
318.363464
 21
72.420685
  0
LINE
  8
0
 10
317.587006
 20
75.318466
 11
319.708313
 21
73.197144
  0
TEXT
  8
0
 10
337.088135
 20
44.279236
 40
3.500000
  1
2-Rc1/8
 50
0.000000
 41
1.052632
 51
0.000000
  7
STANDARD
  0
TEXT
  8
0
 10
239.836777
 20
181.926117
 40
3.500000
  1
　　　　　
 50
90.000000
 41
0.833333
 51
0.000000
  7
STANDARD
  0
ARC
  8
0
 10
181.336792
 20
190.926117
 40
59.499989
 50
345.000000
 51
14.999992
  0
LINE
  8
0
 10
238.809372
 20
175.526398
 11
238.733765
 21
178.525131
  0
LINE
  8
0
 10
238.809372
 20
175.526398
 11
240.243256
 21
178.161179
  0
LINE
  8
0
 10
238.809357
 20
206.325836
 11
240.243240
 21
203.691055
  0
LINE
  8
0
 10
238.809357
 20
206.325836
 11
238.733749
 21
203.327103
  0
LINE
  8
0
 10
240.680145
 20
175.025177
 11
237.360519
 21
175.914688
  0
LINE
  8
0
 10
240.015945
 20
206.649033
 11
237.360458
 21
205.937515
  0
ENDSEC
  0
EOF
