  0
SECTION
  2
HEADER
  9
$ACADVER
  1
AC1012
  9
$DWGCODEPAGE
  3
dos932
  9
$INSBASE
 10
0.0
 20
0.0
 30
0.0
  9
$EXTMIN
 10
-281.2681908225806
 20
-195.0129162660985
 30
-0.0015258207003583
  9
$EXTMAX
 10
283.1495755000714
 20
195.5129180845152
 30
0.0000000349246037
  9
$LIMMIN
 10
-281.2509999999999
 20
-195.0009999999999
  9
$LIMMAX
 10
282.100854
 20
195.501
  9
$ORTHOMODE
 70
     0
  9
$REGENMODE
 70
     1
  9
$FILLMODE
 70
     1
  9
$QTEXTMODE
 70
     0
  9
$MIRRTEXT
 70
     1
  9
$DRAGMODE
 70
     2
  9
$LTSCALE
 40
9.38916423
  9
$OSMODE
 70
    37
  9
$ATTMODE
 70
     1
  9
$TEXTSIZE
 40
0.2
  9
$TRACEWID
 40
0.05
  9
$TEXTSTYLE
  7
STANDARD
  9
$CLAYER
  8
0
  9
$CELTYPE
  6
CONTINUOUS
  9
$CECOLOR
 62
   256
  9
$CELTSCALE
 40
1.0
  9
$DELOBJ
 70
     1
  9
$DISPSILH
 70
     0
  9
$DIMSCALE
 40
1.0
  9
$DIMASZ
 40
0.18
  9
$DIMEXO
 40
0.0625
  9
$DIMDLI
 40
0.38
  9
$DIMRND
 40
0.0
  9
$DIMDLE
 40
0.0
  9
$DIMEXE
 40
0.18
  9
$DIMTP
 40
0.0
  9
$DIMTM
 40
0.0
  9
$DIMTXT
 40
0.18
  9
$DIMCEN
 40
0.09
  9
$DIMTSZ
 40
0.0
  9
$DIMTOL
 70
     0
  9
$DIMLIM
 70
     0
  9
$DIMTIH
 70
     1
  9
$DIMTOH
 70
     1
  9
$DIMSE1
 70
     0
  9
$DIMSE2
 70
     0
  9
$DIMTAD
 70
     0
  9
$DIMZIN
 70
     0
  9
$DIMBLK
  1

  9
$DIMASO
 70
     1
  9
$DIMSHO
 70
     1
  9
$DIMPOST
  1

  9
$DIMAPOST
  1

  9
$DIMALT
 70
     0
  9
$DIMALTD
 70
     2
  9
$DIMALTF
 40
25.4
  9
$DIMLFAC
 40
1.0
  9
$DIMTOFL
 70
     0
  9
$DIMTVP
 40
0.0
  9
$DIMTIX
 70
     0
  9
$DIMSOXD
 70
     0
  9
$DIMSAH
 70
     0
  9
$DIMBLK1
  1

  9
$DIMBLK2
  1

  9
$DIMSTYLE
  2
STANDARD
  9
$DIMCLRD
 70
     0
  9
$DIMCLRE
 70
     0
  9
$DIMCLRT
 70
     0
  9
$DIMTFAC
 40
1.0
  9
$DIMGAP
 40
0.09
  9
$DIMJUST
 70
     0
  9
$DIMSD1
 70
     0
  9
$DIMSD2
 70
     0
  9
$DIMTOLJ
 70
     1
  9
$DIMTZIN
 70
     0
  9
$DIMALTZ
 70
     0
  9
$DIMALTTZ
 70
     0
  9
$DIMFIT
 70
     3
  9
$DIMUPT
 70
     0
  9
$DIMUNIT
 70
     2
  9
$DIMDEC
 70
     4
  9
$DIMTDEC
 70
     4
  9
$DIMALTU
 70
     2
  9
$DIMALTTD
 70
     2
  9
$DIMTXSTY
  7
STANDARD
  9
$DIMAUNIT
 70
     0
  9
$LUNITS
 70
     2
  9
$LUPREC
 70
     4
  9
$SKETCHINC
 40
0.1
  9
$FILLETRAD
 40
0.0
  9
$AUNITS
 70
     0
  9
$AUPREC
 70
     0
  9
$MENU
  1
.
  9
$ELEVATION
 40
0.0
  9
$PELEVATION
 40
0.0
  9
$THICKNESS
 40
0.0
  9
$LIMCHECK
 70
     0
  9
$BLIPMODE
 70
     0
  9
$CHAMFERA
 40
0.0
  9
$CHAMFERB
 40
0.0
  9
$CHAMFERC
 40
0.0
  9
$CHAMFERD
 40
0.0
  9
$SKPOLY
 70
     0
  9
$TDCREATE
 40
2451905.685651968
  9
$TDUPDATE
 40
2451905.685669247
  9
$TDINDWG
 40
0.0000178588
  9
$TDUSRTIMER
 40
0.0000178588
  9
$USRTIMER
 70
     1
  9
$ANGBASE
 50
0.0
  9
$ANGDIR
 70
     0
  9
$PDMODE
 70
     0
  9
$PDSIZE
 40
0.0
  9
$PLINEWID
 40
0.0
  9
$COORDS
 70
     0
  9
$SPLFRAME
 70
     0
  9
$SPLINETYPE
 70
     6
  9
$SPLINESEGS
 70
     8
  9
$ATTDIA
 70
     0
  9
$ATTREQ
 70
     1
  9
$HANDLING
 70
 10241
  9
$HANDSEED
  5
7F8
  9
$SURFTAB1
 70
     6
  9
$SURFTAB2
 70
     6
  9
$SURFTYPE
 70
     6
  9
$SURFU
 70
     6
  9
$SURFV
 70
     6
  9
$UCSNAME
  2

  9
$UCSORG
 10
0.0
 20
0.0
 30
0.0
  9
$UCSXDIR
 10
1.0
 20
0.0
 30
0.0
  9
$UCSYDIR
 10
0.0
 20
1.0
 30
0.0
  9
$PUCSNAME
  2

  9
$PUCSORG
 10
0.0
 20
0.0
 30
0.0
  9
$PUCSXDIR
 10
1.0
 20
0.0
 30
0.0
  9
$PUCSYDIR
 10
0.0
 20
1.0
 30
0.0
  9
$USERI1
 70
     0
  9
$USERI2
 70
     0
  9
$USERI3
 70
     0
  9
$USERI4
 70
     0
  9
$USERI5
 70
     0
  9
$USERR1
 40
0.0
  9
$USERR2
 40
0.0
  9
$USERR3
 40
0.0
  9
$USERR4
 40
0.0
  9
$USERR5
 40
0.0
  9
$WORLDVIEW
 70
     1
  9
$SHADEDGE
 70
     3
  9
$SHADEDIF
 70
    70
  9
$TILEMODE
 70
     1
  9
$MAXACTVP
 70
    64
  9
$PINSBASE
 10
0.0
 20
0.0
 30
0.0
  9
$PLIMCHECK
 70
     0
  9
$PEXTMIN
 10
1.000000000000000E+20
 20
1.000000000000000E+20
 30
1.000000000000000E+20
  9
$PEXTMAX
 10
-1.000000000000000E+20
 20
-1.000000000000000E+20
 30
-1.000000000000000E+20
  9
$PLIMMIN
 10
0.0
 20
0.0
  9
$PLIMMAX
 10
12.0
 20
9.0
  9
$UNITMODE
 70
     0
  9
$VISRETAIN
 70
     1
  9
$PLINEGEN
 70
     0
  9
$PSLTSCALE
 70
     1
  9
$TREEDEPTH
 70
  3020
  9
$PICKSTYLE
 70
     1
  9
$CMLSTYLE
  2
STANDARD
  9
$CMLJUST
 70
     0
  9
$CMLSCALE
 40
1.0
  9
$SAVEIMAGES
 70
     1
  0
ENDSEC
  0
SECTION
  2
CLASSES
  0
CLASS
  1
ACDBDICTIONARYWDFLT
  2
AcDbDictionaryWithDefault
  3
AutoCAD 2000
 90
    32768
280
     0
281
     0
  0
CLASS
  1
ACDBPLACEHOLDER
  2
AcDbPlaceHolder
  3
AutoCAD 2000
 90
    32768
280
     0
281
     0
  0
CLASS
  1
LAYOUT
  2
AcDbLayout
  3
AutoCAD 2000
 90
    32768
280
     0
281
     0
  0
CLASS
  1
LONG_TRANSACTION
  2
AcDbLongTransaction
  3
AutoCAD 2000
 90
    32768
280
     0
281
     0
  0
CLASS
  1
LWPOLYLINE
  2
AcDbPolyline
  3
AutoCAD 2000
 90
    32768
280
     0
281
     1
  0
CLASS
  1
HATCH
  2
AcDbHatch
  3
AutoCAD 2000
 90
    32768
280
     0
281
     1
  0
CLASS
  1
XRECORD
  2
AcDbXrecord
  3
AutoCAD 2000
 90
    32768
280
     0
281
     0
  0
ENDSEC
  0
SECTION
  2
TABLES
  0
TABLE
  2
VPORT
  5
8
330
0
100
AcDbSymbolTable
 70
     3
  0
VPORT
  5
693
330
8
100
AcDbSymbolTableRecord
100
AcDbViewportTableRecord
  2
*ACTIVE
 70
     0
 10
0.0
 20
0.0
 11
1.0
 21
1.0
 12
0.9406923387454497
 22
0.2500009092083815
 13
0.0
 23
0.0
 14
1.0
 24
1.0
 15
0.0
 25
0.0
 16
0.0
 26
0.0
 36
1.0
 17
0.0
 27
0.0
 37
0.0
 40
394.8410369401233
 41
1.750922509225092
 42
50.0
 43
0.0
 44
0.0
 50
0.0
 51
0.0
 71
     0
 72
   100
 73
     1
 74
     1
 75
     0
 76
     0
 77
     0
 78
     0
  0
ENDTAB
  0
TABLE
  2
LTYPE
  5
5
330
0
100
AcDbSymbolTable
 70
     5
  0
LTYPE
  5
13
330
5
100
AcDbSymbolTableRecord
100
AcDbLinetypeTableRecord
  2
BYBLOCK
 70
     0
  3

 72
    65
 73
     0
 40
0.0
  0
LTYPE
  5
14
330
5
100
AcDbSymbolTableRecord
100
AcDbLinetypeTableRecord
  2
BYLAYER
 70
     0
  3

 72
    65
 73
     0
 40
0.0
  0
LTYPE
  5
15
330
5
100
AcDbSymbolTableRecord
100
AcDbLinetypeTableRecord
  2
CONTINUOUS
 70
     0
  3
Solid-Line
 72
    65
 73
     0
 40
0.0
  0
LTYPE
  5
22
330
5
100
AcDbSymbolTableRecord
100
AcDbLinetypeTableRecord
  2
DASHED
 70
     0
  3
DASHED
 72
    65
 73
     2
 40
0.75
 49
0.5
 74
     0
 49
-0.25
 74
     0
  0
LTYPE
  5
23
330
5
100
AcDbSymbolTableRecord
100
AcDbLinetypeTableRecord
  2
HIDDEN
 70
     0
  3
HIDDEN
 72
    65
 73
     2
 40
0.375
 49
0.25
 74
     0
 49
-0.125
 74
     0
  0
LTYPE
  5
24
330
5
100
AcDbSymbolTableRecord
100
AcDbLinetypeTableRecord
  2
CENTER
 70
     0
  3
CENTER
 72
    65
 73
     4
 40
2.0
 49
1.25
 74
     0
 49
-0.25
 74
     0
 49
0.25
 74
     0
 49
-0.25
 74
     0
  0
LTYPE
  5
25
330
5
100
AcDbSymbolTableRecord
100
AcDbLinetypeTableRecord
  2
PHANTOM
 70
     0
  3
PHANTOM
 72
    65
 73
     6
 40
2.5
 49
1.25
 74
     0
 49
-0.25
 74
     0
 49
0.25
 74
     0
 49
-0.25
 74
     0
 49
0.25
 74
     0
 49
-0.25
 74
     0
  0
ENDTAB
  0
TABLE
  2
LAYER
  5
2
330
0
100
AcDbSymbolTable
 70
     1
  0
LAYER
  5
10
330
2
100
AcDbSymbolTableRecord
100
AcDbLayerTableRecord
  2
0
 70
     0
 62
     7
  6
CONTINUOUS
  0
ENDTAB
  0
TABLE
  2
STYLE
  5
3
330
0
100
AcDbSymbolTable
 70
     3
  0
STYLE
  5
11
330
3
100
AcDbSymbolTableRecord
100
AcDbTextStyleTableRecord
  2
STANDARD
 70
     0
 40
0.0
 41
1.0
 50
0.0
 71
     0
 42
0.2
  3
txt
  4

  0
STYLE
  5
26
330
3
100
AcDbSymbolTableRecord
100
AcDbTextStyleTableRecord
  2
MONOTXT
 70
     0
 40
0.0
 41
1.0
 50
0.0
 71
     0
 42
0.2
  3
monotxt
  4

  0
STYLE
  5
27
330
3
100
AcDbSymbolTableRecord
100
AcDbTextStyleTableRecord
  2
BIGFONT
 70
     0
 40
0.0
 41
1.0
 50
0.0
 71
     0
 42
0.2
  3
txt
  4
bigfont
  0
ENDTAB
  0
TABLE
  2
VIEW
  5
6
330
0
100
AcDbSymbolTable
 70
     0
  0
ENDTAB
  0
TABLE
  2
UCS
  5
7
330
0
100
AcDbSymbolTable
 70
     0
  0
ENDTAB
  0
TABLE
  2
APPID
  5
9
330
0
100
AcDbSymbolTable
 70
     1
  0
APPID
  5
12
330
9
100
AcDbSymbolTableRecord
100
AcDbRegAppTableRecord
  2
ACAD
 70
     0
  0
ENDTAB
  0
TABLE
  2
DIMSTYLE
  5
A
330
0
100
AcDbSymbolTable
 70
     1
  0
DIMSTYLE
105
4FC
330
A
100
AcDbSymbolTableRecord
100
AcDbDimStyleTableRecord
  2
STANDARD
 70
     0
  3

  4

  5

  6

  7

 40
1.0
 41
0.18
 42
0.0625
 43
0.38
 44
0.18
 45
0.0
 46
0.0
 47
0.0
 48
0.0
140
0.18
141
0.09
142
0.0
143
25.4
144
1.0
145
0.0
146
1.0
147
0.09
 71
     0
 72
     0
 73
     1
 74
     1
 75
     0
 76
     0
 77
     0
 78
     0
170
     0
171
     2
172
     0
173
     0
174
     0
175
     0
176
     0
177
     0
178
     0
270
     2
271
     4
272
     4
273
     2
274
     2
340
11
275
     0
280
     0
281
     0
282
     0
283
     1
284
     0
285
     0
286
     0
287
     3
288
     0
  0
ENDTAB
  0
TABLE
  2
BLOCK_RECORD
  5
1
330
0
100
AcDbSymbolTable
 70
     0
  0
BLOCK_RECORD
  5
1E
102
{ACAD_XDICTIONARY
360
696
102
}
330
1
100
AcDbSymbolTableRecord
100
AcDbBlockTableRecord
  2
*MODEL_SPACE
  0
BLOCK_RECORD
  5
1A
102
{ACAD_XDICTIONARY
360
694
102
}
330
1
100
AcDbSymbolTableRecord
100
AcDbBlockTableRecord
  2
*PAPER_SPACE
  0
ENDTAB
  0
ENDSEC
  0
SECTION
  2
BLOCKS
  0
BLOCK
  5
1F
330
1E
100
AcDbEntity
  8
0
100
AcDbBlockBegin
  2
*MODEL_SPACE
 70
     0
 10
0.0
 20
0.0
 30
0.0
  3
*MODEL_SPACE
  1

  0
ENDBLK
  5
20
330
1E
100
AcDbEntity
  8
0
100
AcDbBlockEnd
  0
BLOCK
  5
1B
330
1A
100
AcDbEntity
 67
     1
  8
0
100
AcDbBlockBegin
  2
*PAPER_SPACE
 70
     0
 10
0.0
 20
0.0
 30
0.0
  3
*PAPER_SPACE
  1

  0
ENDBLK
  5
1C
330
1A
100
AcDbEntity
 67
     1
  8
0
100
AcDbBlockEnd
  0
ENDSEC
  0
SECTION
  2
ENTITIES
  0
LINE
  5
2C
330
1E
100
AcDbEntity
  8
0
  6
CENTER
 62
     2
100
AcDbLine
 10
-74.0
 20
-18.5
 30
0.0
 11
-66.0
 21
-18.5
 31
0.0
  0
LINE
  5
2D
330
1E
100
AcDbEntity
  8
0
 62
     7
100
AcDbLine
 10
-68.0
 20
-16.5
 30
0.0
 11
-68.0
 21
-18.5
 31
0.0
  0
LINE
  5
2E
330
1E
100
AcDbEntity
  8
0
 62
     7
100
AcDbLine
 10
-72.0
 20
-16.5
 30
0.0
 11
-72.0
 21
-18.5
 31
0.0
  0
ARC
  5
2F
330
1E
100
AcDbEntity
  8
0
 62
     7
100
AcDbCircle
 10
-70.0
 20
-18.5
 30
0.0
 40
2.0
100
AcDbArc
 50
180.0
 51
0.0
  0
ARC
  5
30
330
1E
100
AcDbEntity
  8
0
 62
     7
100
AcDbCircle
 10
-70.0
 20
-16.5
 30
0.0
 40
2.0
100
AcDbArc
 50
0.0
 51
180.0
  0
LINE
  5
31
330
1E
100
AcDbEntity
  8
0
  6
CENTER
 62
     2
100
AcDbLine
 10
-74.0
 20
-16.5
 30
0.0
 11
-66.0
 21
-16.5
 31
0.0
  0
LINE
  5
32
330
1E
100
AcDbEntity
  8
0
 62
     7
100
AcDbLine
 10
-70.0
 20
-25.0
 30
0.0
 11
-43.50000029999999
 21
-25.0
 31
0.0
  0
LINE
  5
33
330
1E
100
AcDbEntity
  8
0
 62
     7
100
AcDbLine
 10
-70.0
 20
25.0
 30
0.0
 11
-43.50000029999999
 21
25.0
 31
0.0
  0
CIRCLE
  5
34
330
1E
100
AcDbEntity
  8
0
 62
     7
100
AcDbCircle
 10
-70.0
 20
0.0
 30
0.0
 40
24.5
  0
ARC
  5
35
330
1E
100
AcDbEntity
  8
0
 62
     7
100
AcDbCircle
 10
-70.0
 20
0.0
 30
0.0
 40
25.0
100
AcDbArc
 50
90.00000020000001
 51
270.0
  0
LINE
  5
36
330
1E
100
AcDbEntity
  8
0
  6
CENTER
 62
     2
100
AcDbLine
 10
-50.5
 20
-48.0
 30
0.0
 11
-50.5
 21
-51.4
 31
0.0
  0
LINE
  5
37
330
1E
100
AcDbEntity
  8
0
 62
     7
100
AcDbLine
 10
-54.5
 20
-48.3
 30
0.0
 11
-46.5
 21
-48.3
 31
0.0
  0
LINE
  5
38
330
1E
100
AcDbEntity
  8
0
 62
     7
100
AcDbLine
 10
-51.0
 20
-48.6
 30
0.0
 11
-50.0
 21
-48.6
 31
0.0
  0
LINE
  5
39
330
1E
100
AcDbEntity
  8
0
 62
     7
100
AcDbLine
 10
-46.5
 20
-49.2
 30
0.0
 11
-50.0
 21
-49.2
 31
0.0
  0
LINE
  5
3A
330
1E
100
AcDbEntity
  8
0
 62
     7
100
AcDbLine
 10
-50.0
 20
-49.4
 30
0.0
 11
-46.7
 21
-49.4
 31
0.0
  0
LINE
  5
3B
330
1E
100
AcDbEntity
  8
0
 62
     7
100
AcDbLine
 10
-50.0
 20
-48.6
 30
0.0
 11
-50.0
 21
-49.4
 31
0.0
  0
LINE
  5
3C
330
1E
100
AcDbEntity
  8
0
 62
     7
100
AcDbLine
 10
-46.7
 20
-49.4
 30
0.0
 11
-46.5
 21
-49.2
 31
0.0
  0
LINE
  5
3D
330
1E
100
AcDbEntity
  8
0
 62
     7
100
AcDbLine
 10
-46.5
 20
-48.3
 30
0.0
 11
-46.5
 21
-49.2
 31
0.0
  0
LINE
  5
3E
330
1E
100
AcDbEntity
  8
0
 62
     7
100
AcDbLine
 10
-54.5
 20
-49.2
 30
0.0
 11
-51.0
 21
-49.2
 31
0.0
  0
LINE
  5
3F
330
1E
100
AcDbEntity
  8
0
 62
     7
100
AcDbLine
 10
-51.0
 20
-48.6
 30
0.0
 11
-51.0
 21
-49.4
 31
0.0
  0
LINE
  5
40
330
1E
100
AcDbEntity
  8
0
 62
     7
100
AcDbLine
 10
-54.29999999999999
 20
-49.4
 30
0.0
 11
-54.5
 21
-49.2
 31
0.0
  0
LINE
  5
41
330
1E
100
AcDbEntity
  8
0
 62
     7
100
AcDbLine
 10
-54.29999999999999
 20
-49.4
 30
0.0
 11
-51.0
 21
-49.4
 31
0.0
  0
LINE
  5
42
330
1E
100
AcDbEntity
  8
0
 62
     7
100
AcDbLine
 10
-54.5
 20
-48.3
 30
0.0
 11
-54.5
 21
-49.2
 31
0.0
  0
LINE
  5
43
330
1E
100
AcDbEntity
  8
0
 62
     7
100
AcDbLine
 10
-54.4
 20
-48.0
 30
0.0
 11
-54.4
 21
-48.3
 31
0.0
  0
LINE
  5
44
330
1E
100
AcDbEntity
  8
0
 62
     7
100
AcDbLine
 10
-46.6
 20
-48.0
 30
0.0
 11
-46.6
 21
-48.3
 31
0.0
  0
LINE
  5
45
330
1E
100
AcDbEntity
  8
0
  6
CENTER
 62
     2
100
AcDbLine
 10
-89.50000000000001
 20
-48.0
 30
0.0
 11
-89.50000000000001
 21
-51.4
 31
0.0
  0
LINE
  5
46
330
1E
100
AcDbEntity
  8
0
 62
     7
100
AcDbLine
 10
-85.6
 20
-48.0
 30
0.0
 11
-85.6
 21
-48.3
 31
0.0
  0
LINE
  5
47
330
1E
100
AcDbEntity
  8
0
 62
     7
100
AcDbLine
 10
-93.40000000000001
 20
-48.0
 30
0.0
 11
-93.40000000000001
 21
-48.3
 31
0.0
  0
LINE
  5
48
330
1E
100
AcDbEntity
  8
0
 62
     7
100
AcDbLine
 10
-85.5
 20
-48.3
 30
0.0
 11
-85.5
 21
-49.2
 31
0.0
  0
LINE
  5
49
330
1E
100
AcDbEntity
  8
0
 62
     7
100
AcDbLine
 10
-85.7
 20
-49.4
 30
0.0
 11
-89.0
 21
-49.4
 31
0.0
  0
LINE
  5
4A
330
1E
100
AcDbEntity
  8
0
 62
     7
100
AcDbLine
 10
-85.7
 20
-49.4
 30
0.0
 11
-85.5
 21
-49.2
 31
0.0
  0
LINE
  5
4B
330
1E
100
AcDbEntity
  8
0
 62
     7
100
AcDbLine
 10
-89.0
 20
-48.6
 30
0.0
 11
-89.0
 21
-49.4
 31
0.0
  0
LINE
  5
4C
330
1E
100
AcDbEntity
  8
0
 62
     7
100
AcDbLine
 10
-85.5
 20
-49.2
 30
0.0
 11
-89.0
 21
-49.2
 31
0.0
  0
LINE
  5
4D
330
1E
100
AcDbEntity
  8
0
 62
     7
100
AcDbLine
 10
-93.49999999999999
 20
-48.3
 30
0.0
 11
-93.49999999999999
 21
-49.2
 31
0.0
  0
LINE
  5
4E
330
1E
100
AcDbEntity
  8
0
 62
     7
100
AcDbLine
 10
-93.3
 20
-49.4
 30
0.0
 11
-93.49999999999999
 21
-49.2
 31
0.0
  0
LINE
  5
4F
330
1E
100
AcDbEntity
  8
0
 62
     7
100
AcDbLine
 10
-90.0
 20
-48.6
 30
0.0
 11
-90.0
 21
-49.4
 31
0.0
  0
LINE
  5
50
330
1E
100
AcDbEntity
  8
0
 62
     7
100
AcDbLine
 10
-90.0
 20
-49.4
 30
0.0
 11
-93.3
 21
-49.4
 31
0.0
  0
LINE
  5
51
330
1E
100
AcDbEntity
  8
0
 62
     7
100
AcDbLine
 10
-93.49999999999999
 20
-49.2
 30
0.0
 11
-90.0
 21
-49.2
 31
0.0
  0
LINE
  5
52
330
1E
100
AcDbEntity
  8
0
 62
     7
100
AcDbLine
 10
-89.0
 20
-48.6
 30
0.0
 11
-90.0
 21
-48.6
 31
0.0
  0
LINE
  5
53
330
1E
100
AcDbEntity
  8
0
 62
     7
100
AcDbLine
 10
-85.5
 20
-48.3
 30
0.0
 11
-93.49999999999999
 21
-48.3
 31
0.0
  0
LINE
  5
54
330
1E
100
AcDbEntity
  8
0
 62
     7
100
AcDbLine
 10
-54.5
 20
48.3
 30
0.0
 11
-54.5
 21
49.2
 31
0.0
  0
LINE
  5
55
330
1E
100
AcDbEntity
  8
0
 62
     7
100
AcDbLine
 10
-54.29999999999999
 20
49.4
 30
0.0
 11
-51.0
 21
49.4
 31
0.0
  0
LINE
  5
56
330
1E
100
AcDbEntity
  8
0
 62
     7
100
AcDbLine
 10
-54.29999999999999
 20
49.4
 30
0.0
 11
-54.5
 21
49.2
 31
0.0
  0
LINE
  5
57
330
1E
100
AcDbEntity
  8
0
 62
     7
100
AcDbLine
 10
-51.0
 20
48.6
 30
0.0
 11
-51.0
 21
49.4
 31
0.0
  0
LINE
  5
58
330
1E
100
AcDbEntity
  8
0
 62
     7
100
AcDbLine
 10
-54.5
 20
49.2
 30
0.0
 11
-51.0
 21
49.2
 31
0.0
  0
LINE
  5
59
330
1E
100
AcDbEntity
  8
0
 62
     7
100
AcDbLine
 10
-46.5
 20
48.3
 30
0.0
 11
-46.5
 21
49.2
 31
0.0
  0
LINE
  5
5A
330
1E
100
AcDbEntity
  8
0
 62
     7
100
AcDbLine
 10
-46.7
 20
49.4
 30
0.0
 11
-46.5
 21
49.2
 31
0.0
  0
LINE
  5
5B
330
1E
100
AcDbEntity
  8
0
 62
     7
100
AcDbLine
 10
-50.0
 20
48.6
 30
0.0
 11
-50.0
 21
49.4
 31
0.0
  0
LINE
  5
5C
330
1E
100
AcDbEntity
  8
0
 62
     7
100
AcDbLine
 10
-50.0
 20
49.4
 30
0.0
 11
-46.7
 21
49.4
 31
0.0
  0
LINE
  5
5D
330
1E
100
AcDbEntity
  8
0
 62
     7
100
AcDbLine
 10
-46.5
 20
49.2
 30
0.0
 11
-50.0
 21
49.2
 31
0.0
  0
LINE
  5
5E
330
1E
100
AcDbEntity
  8
0
 62
     7
100
AcDbLine
 10
-51.0
 20
48.6
 30
0.0
 11
-50.0
 21
48.6
 31
0.0
  0
LINE
  5
5F
330
1E
100
AcDbEntity
  8
0
 62
     7
100
AcDbLine
 10
-54.5
 20
48.3
 30
0.0
 11
-46.5
 21
48.3
 31
0.0
  0
LINE
  5
60
330
1E
100
AcDbEntity
  8
0
 62
     7
100
AcDbLine
 10
-46.6
 20
48.0
 30
0.0
 11
-46.6
 21
48.3
 31
0.0
  0
LINE
  5
61
330
1E
100
AcDbEntity
  8
0
 62
     7
100
AcDbLine
 10
-54.4
 20
48.0
 30
0.0
 11
-54.4
 21
48.3
 31
0.0
  0
LINE
  5
62
330
1E
100
AcDbEntity
  8
0
  6
CENTER
 62
     2
100
AcDbLine
 10
-50.5
 20
51.4
 30
0.0
 11
-50.5
 21
48.0
 31
0.0
  0
LINE
  5
63
330
1E
100
AcDbEntity
  8
0
 62
     7
100
AcDbLine
 10
-93.40000000000001
 20
48.0
 30
0.0
 11
-93.40000000000001
 21
48.3
 31
0.0
  0
LINE
  5
64
330
1E
100
AcDbEntity
  8
0
 62
     7
100
AcDbLine
 10
-85.6
 20
48.0
 30
0.0
 11
-85.6
 21
48.3
 31
0.0
  0
LINE
  5
65
330
1E
100
AcDbEntity
  8
0
 62
     7
100
AcDbLine
 10
-85.5
 20
48.3
 30
0.0
 11
-93.49999999999999
 21
48.3
 31
0.0
  0
LINE
  5
66
330
1E
100
AcDbEntity
  8
0
 62
     7
100
AcDbLine
 10
-89.0
 20
48.6
 30
0.0
 11
-90.0
 21
48.6
 31
0.0
  0
LINE
  5
67
330
1E
100
AcDbEntity
  8
0
 62
     7
100
AcDbLine
 10
-93.49999999999999
 20
49.2
 30
0.0
 11
-90.0
 21
49.2
 31
0.0
  0
LINE
  5
68
330
1E
100
AcDbEntity
  8
0
 62
     7
100
AcDbLine
 10
-90.0
 20
49.4
 30
0.0
 11
-93.3
 21
49.4
 31
0.0
  0
LINE
  5
69
330
1E
100
AcDbEntity
  8
0
 62
     7
100
AcDbLine
 10
-90.0
 20
48.6
 30
0.0
 11
-90.0
 21
49.4
 31
0.0
  0
LINE
  5
6A
330
1E
100
AcDbEntity
  8
0
 62
     7
100
AcDbLine
 10
-93.3
 20
49.4
 30
0.0
 11
-93.49999999999999
 21
49.2
 31
0.0
  0
LINE
  5
6B
330
1E
100
AcDbEntity
  8
0
 62
     7
100
AcDbLine
 10
-93.49999999999999
 20
48.3
 30
0.0
 11
-93.49999999999999
 21
49.2
 31
0.0
  0
LINE
  5
6C
330
1E
100
AcDbEntity
  8
0
 62
     7
100
AcDbLine
 10
-85.5
 20
49.2
 30
0.0
 11
-89.0
 21
49.2
 31
0.0
  0
LINE
  5
6D
330
1E
100
AcDbEntity
  8
0
 62
     7
100
AcDbLine
 10
-89.0
 20
48.6
 30
0.0
 11
-89.0
 21
49.4
 31
0.0
  0
LINE
  5
6E
330
1E
100
AcDbEntity
  8
0
 62
     7
100
AcDbLine
 10
-85.7
 20
49.4
 30
0.0
 11
-85.5
 21
49.2
 31
0.0
  0
LINE
  5
6F
330
1E
100
AcDbEntity
  8
0
 62
     7
100
AcDbLine
 10
-85.7
 20
49.4
 30
0.0
 11
-89.0
 21
49.4
 31
0.0
  0
LINE
  5
70
330
1E
100
AcDbEntity
  8
0
 62
     7
100
AcDbLine
 10
-85.5
 20
48.3
 30
0.0
 11
-85.5
 21
49.2
 31
0.0
  0
LINE
  5
71
330
1E
100
AcDbEntity
  8
0
  6
CENTER
 62
     2
100
AcDbLine
 10
-89.50000000000001
 20
51.4
 30
0.0
 11
-89.50000000000001
 21
48.0
 31
0.0
  0
LINE
  5
72
330
1E
100
AcDbEntity
  8
0
 62
     7
100
AcDbLine
 10
-97.1
 20
-33.5
 30
0.0
 11
-97.1
 21
-41.5
 31
0.0
  0
LINE
  5
73
330
1E
100
AcDbEntity
  8
0
 62
     7
100
AcDbLine
 10
-97.40000000000001
 20
-37.0
 30
0.0
 11
-97.40000000000001
 21
-38.0
 31
0.0
  0
LINE
  5
74
330
1E
100
AcDbEntity
  8
0
 62
     7
100
AcDbLine
 10
-97.1
 20
-33.5
 30
0.0
 11
-98.0
 21
-33.5
 31
0.0
  0
LINE
  5
75
330
1E
100
AcDbEntity
  8
0
 62
     7
100
AcDbLine
 10
-98.2
 20
-33.7
 30
0.0
 11
-98.2
 21
-37.0
 31
0.0
  0
LINE
  5
76
330
1E
100
AcDbEntity
  8
0
 62
     7
100
AcDbLine
 10
-98.2
 20
-33.7
 30
0.0
 11
-98.0
 21
-33.5
 31
0.0
  0
LINE
  5
77
330
1E
100
AcDbEntity
  8
0
 62
     7
100
AcDbLine
 10
-97.40000000000001
 20
-37.0
 30
0.0
 11
-98.2
 21
-37.0
 31
0.0
  0
LINE
  5
78
330
1E
100
AcDbEntity
  8
0
 62
     7
100
AcDbLine
 10
-98.0
 20
-33.5
 30
0.0
 11
-98.0
 21
-37.0
 31
0.0
  0
LINE
  5
79
330
1E
100
AcDbEntity
  8
0
 62
     7
100
AcDbLine
 10
-97.1
 20
-41.5
 30
0.0
 11
-98.0
 21
-41.5
 31
0.0
  0
LINE
  5
7A
330
1E
100
AcDbEntity
  8
0
 62
     7
100
AcDbLine
 10
-98.2
 20
-41.29999999999999
 30
0.0
 11
-98.0
 21
-41.5
 31
0.0
  0
LINE
  5
7B
330
1E
100
AcDbEntity
  8
0
 62
     7
100
AcDbLine
 10
-97.40000000000001
 20
-38.0
 30
0.0
 11
-98.2
 21
-38.0
 31
0.0
  0
LINE
  5
7C
330
1E
100
AcDbEntity
  8
0
 62
     7
100
AcDbLine
 10
-98.2
 20
-38.0
 30
0.0
 11
-98.2
 21
-41.29999999999999
 31
0.0
  0
LINE
  5
7D
330
1E
100
AcDbEntity
  8
0
 62
     7
100
AcDbLine
 10
-98.0
 20
-41.5
 30
0.0
 11
-98.0
 21
-38.0
 31
0.0
  0
LINE
  5
7E
330
1E
100
AcDbEntity
  8
0
 62
     7
100
AcDbLine
 10
-97.1
 20
-41.39999999999999
 30
0.0
 11
-96.5
 21
-41.39999999999999
 31
0.0
  0
LINE
  5
7F
330
1E
100
AcDbEntity
  8
0
 62
     7
100
AcDbLine
 10
-97.1
 20
-33.6
 30
0.0
 11
-96.5
 21
-33.6
 31
0.0
  0
LINE
  5
80
330
1E
100
AcDbEntity
  8
0
  6
CENTER
 62
     2
100
AcDbLine
 10
-96.5
 20
-37.5
 30
0.0
 11
-100.2
 21
-37.5
 31
0.0
  0
LINE
  5
81
330
1E
100
AcDbEntity
  8
0
 62
     7
100
AcDbLine
 10
-98.0
 20
41.5
 30
0.0
 11
-98.0
 21
38.0
 31
0.0
  0
LINE
  5
82
330
1E
100
AcDbEntity
  8
0
 62
     7
100
AcDbLine
 10
-98.2
 20
38.0
 30
0.0
 11
-98.2
 21
41.29999999999999
 31
0.0
  0
LINE
  5
83
330
1E
100
AcDbEntity
  8
0
 62
     7
100
AcDbLine
 10
-97.40000000000001
 20
38.0
 30
0.0
 11
-98.2
 21
38.0
 31
0.0
  0
LINE
  5
84
330
1E
100
AcDbEntity
  8
0
 62
     7
100
AcDbLine
 10
-98.2
 20
41.29999999999999
 30
0.0
 11
-98.0
 21
41.5
 31
0.0
  0
LINE
  5
85
330
1E
100
AcDbEntity
  8
0
 62
     7
100
AcDbLine
 10
-97.1
 20
41.5
 30
0.0
 11
-98.0
 21
41.5
 31
0.0
  0
LINE
  5
86
330
1E
100
AcDbEntity
  8
0
 62
     7
100
AcDbLine
 10
-98.0
 20
33.5
 30
0.0
 11
-98.0
 21
37.0
 31
0.0
  0
LINE
  5
87
330
1E
100
AcDbEntity
  8
0
 62
     7
100
AcDbLine
 10
-97.40000000000001
 20
37.0
 30
0.0
 11
-98.2
 21
37.0
 31
0.0
  0
LINE
  5
88
330
1E
100
AcDbEntity
  8
0
 62
     7
100
AcDbLine
 10
-98.2
 20
33.7
 30
0.0
 11
-98.0
 21
33.5
 31
0.0
  0
LINE
  5
89
330
1E
100
AcDbEntity
  8
0
 62
     7
100
AcDbLine
 10
-98.2
 20
33.7
 30
0.0
 11
-98.2
 21
37.0
 31
0.0
  0
LINE
  5
8A
330
1E
100
AcDbEntity
  8
0
 62
     7
100
AcDbLine
 10
-97.1
 20
33.5
 30
0.0
 11
-98.0
 21
33.5
 31
0.0
  0
LINE
  5
8B
330
1E
100
AcDbEntity
  8
0
 62
     7
100
AcDbLine
 10
-97.40000000000001
 20
37.0
 30
0.0
 11
-97.40000000000001
 21
38.0
 31
0.0
  0
LINE
  5
8C
330
1E
100
AcDbEntity
  8
0
 62
     7
100
AcDbLine
 10
-97.1
 20
33.5
 30
0.0
 11
-97.1
 21
41.5
 31
0.0
  0
LINE
  5
8D
330
1E
100
AcDbEntity
  8
0
 62
     7
100
AcDbLine
 10
-97.1
 20
41.39999999999999
 30
0.0
 11
-96.5
 21
41.39999999999999
 31
0.0
  0
LINE
  5
8E
330
1E
100
AcDbEntity
  8
0
 62
     7
100
AcDbLine
 10
-97.1
 20
33.6
 30
0.0
 11
-96.5
 21
33.6
 31
0.0
  0
LINE
  5
8F
330
1E
100
AcDbEntity
  8
0
  6
CENTER
 62
     2
100
AcDbLine
 10
-96.5
 20
37.5
 30
0.0
 11
-100.2
 21
37.5
 31
0.0
  0
CIRCLE
  5
90
330
1E
100
AcDbEntity
  8
0
 62
     7
100
AcDbCircle
 10
-70.0
 20
-32.0
 30
0.0
 40
2.6
  0
LINE
  5
91
330
1E
100
AcDbEntity
  8
0
  6
CENTER
 62
     2
100
AcDbLine
 10
-74.59999999999999
 20
-32.0
 30
0.0
 11
-65.4
 21
-32.0
 31
0.0
  0
CIRCLE
  5
92
330
1E
100
AcDbEntity
  8
0
 62
     7
100
AcDbCircle
 10
-70.0
 20
32.0
 30
0.0
 40
2.6
  0
CIRCLE
  5
93
330
1E
100
AcDbEntity
  8
0
 62
     7
100
AcDbCircle
 10
-70.0
 20
0.0
 30
0.0
 40
1.5
  0
LINE
  5
94
330
1E
100
AcDbEntity
  8
0
  6
CENTER
 62
     2
100
AcDbLine
 10
-88.49999999999999
 20
-35.25
 30
0.0
 11
-88.49999999999999
 21
-41.74999999999999
 31
0.0
  0
CIRCLE
  5
95
330
1E
100
AcDbEntity
  8
0
 62
     7
100
AcDbCircle
 10
-70.0
 20
0.0
 30
0.0
 40
7.0
  0
CIRCLE
  5
96
330
1E
100
AcDbEntity
  8
0
 62
     7
100
AcDbCircle
 10
-70.0
 20
0.0
 30
0.0
 40
5.0
  0
CIRCLE
  5
97
330
1E
100
AcDbEntity
  8
0
 62
     7
100
AcDbCircle
 10
-88.49999999999999
 20
-38.5
 30
0.0
 40
1.25
  0
CIRCLE
  5
98
330
1E
100
AcDbEntity
  8
0
 62
     7
100
AcDbCircle
 10
-51.5
 20
38.5
 30
0.0
 40
1.25
  0
ARC
  5
99
330
1E
100
AcDbEntity
  8
0
 62
     7
100
AcDbCircle
 10
-40.9441684
 20
-13.16989519999999
 30
0.0
 40
2.555816169999999
100
AcDbArc
 50
145.6156339999999
 51
214.384356
  0
ARC
  5
9A
330
1E
100
AcDbEntity
  8
0
 62
     7
100
AcDbCircle
 10
-40.9441684
 20
-21.83009719999999
 30
0.0
 40
2.555816169999999
100
AcDbArc
 50
145.615662
 51
214.384383
  0
ARC
  5
9B
330
1E
100
AcDbEntity
  8
0
 62
     7
100
AcDbCircle
 10
-33.9465945
 20
-17.4999733
 30
0.0
 40
9.55339146
100
AcDbArc
 50
162.4120259999999
 51
197.5880459999999
  0
ARC
  5
9C
330
1E
100
AcDbEntity
  8
0
 62
     7
100
AcDbCircle
 10
-44.0558017
 20
-13.16989519999999
 30
0.0
 40
2.555816169999999
100
AcDbArc
 50
325.6156799999999
 51
34.3844017
  0
ARC
  5
9D
330
1E
100
AcDbEntity
  8
0
 62
     7
100
AcDbCircle
 10
-51.0533908
 20
-17.4999733
 30
0.0
 40
9.55339146
100
AcDbArc
 50
342.4119899999999
 51
17.5880103
  0
ARC
  5
9E
330
1E
100
AcDbEntity
  8
0
 62
     7
100
AcDbCircle
 10
-44.05581699999999
 20
-21.83009719999999
 30
0.0
 40
2.555816169999999
100
AcDbArc
 50
325.6156529999999
 51
34.38437439999999
  0
LINE
  5
9F
330
1E
100
AcDbEntity
  8
0
 62
     7
100
AcDbLine
 10
-43.053378
 20
-11.7265348
 30
0.0
 11
-43.4999494
 21
-12.50001909999999
 31
0.0
  0
LINE
  5
A0
330
1E
100
AcDbEntity
  8
0
 62
     7
100
AcDbLine
 10
-43.05338339999999
 20
-23.27346879999999
 30
0.0
 11
-43.4999701
 21
-22.4999581
 31
0.0
  0
LINE
  5
A1
330
1E
100
AcDbEntity
  8
0
 62
     7
100
AcDbLine
 10
-41.9465421
 20
-11.7265095
 30
0.0
 11
-41.49995549999999
 21
-12.5000201
 31
0.0
  0
LINE
  5
A2
330
1E
100
AcDbEntity
  8
0
 62
     7
100
AcDbLine
 10
-41.9465536
 20
-23.2734778
 30
0.0
 11
-41.49996699999999
 21
-22.4999671
 31
0.0
  0
LINE
  5
A3
330
1E
100
AcDbEntity
  8
0
 62
     7
100
AcDbLine
 10
-43.05334499999999
 20
-11.7264557
 30
0.0
 11
-41.946564
 21
-11.7264557
 31
0.0
  0
LINE
  5
A4
330
1E
100
AcDbEntity
  8
0
 62
     7
100
AcDbLine
 10
-43.0533908
 20
-14.613205
 30
0.0
 11
-41.946564
 21
-14.613205
 31
0.0
  0
LINE
  5
A5
330
1E
100
AcDbEntity
  8
0
 62
     7
100
AcDbLine
 10
-43.0534061
 20
-20.38670349999999
 30
0.0
 11
-41.946564
 21
-20.38670349999999
 31
0.0
  0
LINE
  5
A6
330
1E
100
AcDbEntity
  8
0
 62
     7
100
AcDbLine
 10
-43.0533908
 20
-23.27346799999999
 30
0.0
 11
-41.946564
 21
-23.27346799999999
 31
0.0
  0
LINE
  5
A7
330
1E
100
AcDbEntity
  8
0
 62
     7
100
AcDbLine
 10
-41.5000003
 20
-22.4999886
 30
0.0
 11
-41.5000003
 21
-12.5000496
 31
0.0
  0
LINE
  5
A8
330
1E
100
AcDbEntity
  8
0
 62
     7
100
AcDbLine
 10
-41.5000003
 20
22.4999886
 30
0.0
 11
-41.5000003
 21
12.5000496
 31
0.0
  0
LINE
  5
A9
330
1E
100
AcDbEntity
  8
0
 62
     7
100
AcDbLine
 10
-43.0533908
 20
23.27346799999999
 30
0.0
 11
-41.946564
 21
23.27346799999999
 31
0.0
  0
LINE
  5
AA
330
1E
100
AcDbEntity
  8
0
 62
     7
100
AcDbLine
 10
-43.0534061
 20
20.38670349999999
 30
0.0
 11
-41.946564
 21
20.38670349999999
 31
0.0
  0
LINE
  5
AB
330
1E
100
AcDbEntity
  8
0
 62
     7
100
AcDbLine
 10
-43.0533908
 20
14.613205
 30
0.0
 11
-41.946564
 21
14.613205
 31
0.0
  0
LINE
  5
AC
330
1E
100
AcDbEntity
  8
0
 62
     7
100
AcDbLine
 10
-43.05334499999999
 20
11.7264557
 30
0.0
 11
-41.946564
 21
11.7264557
 31
0.0
  0
LINE
  5
AD
330
1E
100
AcDbEntity
  8
0
 62
     7
100
AcDbLine
 10
-41.9465536
 20
23.2734778
 30
0.0
 11
-41.49996699999999
 21
22.4999671
 31
0.0
  0
LINE
  5
AE
330
1E
100
AcDbEntity
  8
0
 62
     7
100
AcDbLine
 10
-41.9465421
 20
11.7265095
 30
0.0
 11
-41.49995549999999
 21
12.5000201
 31
0.0
  0
LINE
  5
AF
330
1E
100
AcDbEntity
  8
0
 62
     7
100
AcDbLine
 10
-43.05338339999999
 20
23.27346879999999
 30
0.0
 11
-43.4999701
 21
22.4999581
 31
0.0
  0
LINE
  5
B0
330
1E
100
AcDbEntity
  8
0
 62
     7
100
AcDbLine
 10
-43.053378
 20
11.7265348
 30
0.0
 11
-43.4999494
 21
12.50001909999999
 31
0.0
  0
ARC
  5
B1
330
1E
100
AcDbEntity
  8
0
 62
     7
100
AcDbCircle
 10
-44.05581699999999
 20
21.83009719999999
 30
0.0
 40
2.555816169999999
100
AcDbArc
 50
325.615625
 51
34.3843471
  0
ARC
  5
B2
330
1E
100
AcDbEntity
  8
0
 62
     7
100
AcDbCircle
 10
-51.0533908
 20
17.4999733
 30
0.0
 40
9.55339146
100
AcDbArc
 50
342.4119899999999
 51
17.5880103
  0
ARC
  5
B3
330
1E
100
AcDbEntity
  8
0
 62
     7
100
AcDbCircle
 10
-44.0558017
 20
13.16989519999999
 30
0.0
 40
2.555816169999999
100
AcDbArc
 50
325.615599
 51
34.3843198
  0
ARC
  5
B4
330
1E
100
AcDbEntity
  8
0
 62
     7
100
AcDbCircle
 10
-33.9465945
 20
17.4999733
 30
0.0
 40
9.55339146
100
AcDbArc
 50
162.411954
 51
197.587974
  0
ARC
  5
B5
330
1E
100
AcDbEntity
  8
0
 62
     7
100
AcDbCircle
 10
-40.9441684
 20
21.83009719999999
 30
0.0
 40
2.555816169999999
100
AcDbArc
 50
145.6156169999999
 51
214.3843379999999
  0
ARC
  5
B6
330
1E
100
AcDbEntity
  8
0
 62
     7
100
AcDbCircle
 10
-40.9441684
 20
13.16989519999999
 30
0.0
 40
2.555816169999999
100
AcDbArc
 50
145.6156439999999
 51
214.384366
  0
LINE
  5
B7
330
1E
100
AcDbEntity
  8
0
 62
     7
100
AcDbLine
 10
-43.50000029999999
 20
48.00002670000001
 30
0.0
 11
-43.50000029999999
 21
-47.9999962
 31
0.0
  0
LINE
  5
B8
330
1E
100
AcDbEntity
  8
0
  6
CENTER
 62
     2
100
AcDbLine
 10
-85.25
 20
-38.5
 30
0.0
 11
-91.75
 21
-38.5
 31
0.0
  0
LINE
  5
B9
330
1E
100
AcDbEntity
  8
0
  6
CENTER
 62
     2
100
AcDbLine
 10
-54.75
 20
38.5
 30
0.0
 11
-48.25
 21
38.5
 31
0.0
  0
LINE
  5
BA
330
1E
100
AcDbEntity
  8
0
  6
CENTER
 62
     2
100
AcDbLine
 10
-51.5
 20
35.25
 30
0.0
 11
-51.5
 21
41.74999999999999
 31
0.0
  0
CIRCLE
  5
BB
330
1E
100
AcDbEntity
  8
0
  6
CENTER
 62
     2
100
AcDbCircle
 10
-70.0
 20
0.0
 30
0.0
 40
17.5
  0
CIRCLE
  5
BC
330
1E
100
AcDbEntity
  8
0
 62
     7
100
AcDbCircle
 10
-57.625647
 20
-12.3743843
 30
0.0
 40
1.649999999999999
  0
LINE
  5
BD
330
1E
100
AcDbEntity
  8
0
  6
CENTER
 62
     2
100
AcDbLine
 10
-54.7972209
 20
-15.2028106
 30
0.0
 11
-60.45407489999999
 21
-9.545956119999999
 31
0.0
  0
CIRCLE
  5
BE
330
1E
100
AcDbEntity
  8
0
 62
     2
100
AcDbCircle
 10
-57.6256466
 20
-12.374382
 30
0.0
 40
2.0
  0
CIRCLE
  5
BF
330
1E
100
AcDbEntity
  8
0
 62
     7
100
AcDbCircle
 10
-82.3743843
 20
-12.374353
 30
0.0
 40
1.649999999999999
  0
LINE
  5
C0
330
1E
100
AcDbEntity
  8
0
  6
CENTER
 62
     2
100
AcDbLine
 10
-85.2028106
 20
-15.20277909999999
 30
0.0
 11
-79.5459561
 21
-9.54592506
 31
0.0
  0
CIRCLE
  5
C1
330
1E
100
AcDbEntity
  8
0
 62
     2
100
AcDbCircle
 10
-82.37438199999999
 20
-12.3743534
 30
0.0
 40
2.0
  0
CIRCLE
  5
C2
330
1E
100
AcDbEntity
  8
0
 62
     7
100
AcDbCircle
 10
-82.37435299999999
 20
12.3743843
 30
0.0
 40
1.649999999999999
  0
LINE
  5
C3
330
1E
100
AcDbEntity
  8
0
  6
CENTER
 62
     2
100
AcDbLine
 10
-85.2027791
 20
15.2028106
 30
0.0
 11
-79.54592509999999
 21
9.545956119999999
 31
0.0
  0
CIRCLE
  5
C4
330
1E
100
AcDbEntity
  8
0
 62
     2
100
AcDbCircle
 10
-82.37435340000001
 20
12.374382
 30
0.0
 40
2.0
  0
CIRCLE
  5
C5
330
1E
100
AcDbEntity
  8
0
 62
     7
100
AcDbCircle
 10
-57.62561569999999
 20
12.374353
 30
0.0
 40
1.649999999999999
  0
CIRCLE
  5
C6
330
1E
100
AcDbEntity
  8
0
 62
     7
100
AcDbCircle
 10
-87.5
 20
0.0
 30
0.0
 40
2.1
  0
CIRCLE
  5
C7
330
1E
100
AcDbEntity
  8
0
 62
     2
100
AcDbCircle
 10
-87.5
 20
0.0
 30
0.0
 40
2.5
  0
CIRCLE
  5
C8
330
1E
100
AcDbEntity
  8
0
 62
     7
100
AcDbCircle
 10
-70.0
 20
17.5
 30
0.0
 40
2.1
  0
LINE
  5
C9
330
1E
100
AcDbEntity
  8
0
  6
CENTER
 62
     2
100
AcDbLine
 10
-100.5
 20
0.0
 30
0.0
 11
-39.50000029999999
 21
0.0
 31
0.0
  0
LINE
  5
CA
330
1E
100
AcDbEntity
  8
0
 62
     7
100
AcDbLine
 10
-96.5
 20
48.0
 30
0.0
 11
-43.50000029999999
 21
48.0
 31
0.0
  0
LINE
  5
CB
330
1E
100
AcDbEntity
  8
0
  6
CENTER
 62
     2
100
AcDbLine
 10
-70.0
 20
52.0
 30
0.0
 11
-70.0
 21
-52.0
 31
0.0
  0
LINE
  5
CC
330
1E
100
AcDbEntity
  8
0
 62
     7
100
AcDbLine
 10
-96.5
 20
48.0000076
 30
0.0
 11
-96.5
 21
-48.0
 31
0.0
  0
LINE
  5
CD
330
1E
100
AcDbEntity
  8
0
 62
     7
100
AcDbLine
 10
-96.5
 20
-48.0
 30
0.0
 11
-43.50000029999999
 21
-48.0
 31
0.0
  0
LINE
  5
CE
330
1E
100
AcDbEntity
  8
0
  6
CENTER
 62
     2
100
AcDbLine
 10
-74.59999999999999
 20
32.0
 30
0.0
 11
-65.4
 21
32.0
 31
0.0
  0
LINE
  5
CF
330
1E
100
AcDbEntity
  8
0
 62
     7
100
AcDbLine
 10
-45.0
 20
48.0
 30
0.0
 11
-45.0
 21
25.0
 31
0.0
  0
LINE
  5
D0
330
1E
100
AcDbEntity
  8
0
 62
     7
100
AcDbLine
 10
-95.0
 20
48.0000076
 30
0.0
 11
-95.0
 21
-48.0
 31
0.0
  0
LINE
  5
D1
330
1E
100
AcDbEntity
  8
0
 62
     7
100
AcDbLine
 10
-45.0
 20
-25.0
 30
0.0
 11
-45.0
 21
-48.0
 31
0.0
  0
LINE
  5
D2
330
1E
100
AcDbEntity
  8
0
  6
CENTER
 62
     2
100
AcDbLine
 10
-54.7971894
 20
15.20277909999999
 30
0.0
 11
-60.4540439
 21
9.54592506
 31
0.0
  0
CIRCLE
  5
D3
330
1E
100
AcDbEntity
  8
0
 62
     2
100
AcDbCircle
 10
-57.625618
 20
12.3743534
 30
0.0
 40
2.0
  0
CIRCLE
  5
D4
330
1E
100
AcDbEntity
  8
0
 62
     2
100
AcDbCircle
 10
-70.0
 20
17.5
 30
0.0
 40
2.5
  0
LINE
  5
D5
330
1E
100
AcDbEntity
  8
0
  6
CENTER
 62
     2
100
AcDbLine
 10
-43.5
 20
17.5
 30
0.0
 11
-23.5
 21
17.5
 31
0.0
  0
LINE
  5
D6
330
1E
100
AcDbEntity
  8
0
 62
     7
100
AcDbLine
 10
-41.5
 20
21.49999999999999
 30
0.0
 11
-31.0
 21
21.49999999999999
 31
0.0
  0
LINE
  5
D7
330
1E
100
AcDbEntity
  8
0
 62
     7
100
AcDbLine
 10
-41.5
 20
13.5
 30
0.0
 11
-31.0
 21
13.5
 31
0.0
  0
LINE
  5
D8
330
1E
100
AcDbEntity
  8
0
 62
     2
100
AcDbLine
 10
-30.625
 20
21.125
 30
0.0
 11
-41.5
 21
21.125
 31
0.0
  0
LINE
  5
D9
330
1E
100
AcDbEntity
  8
0
 62
     2
100
AcDbLine
 10
-41.5
 20
13.875
 30
0.0
 11
-30.625
 21
13.875
 31
0.0
  0
LINE
  5
DA
330
1E
100
AcDbEntity
  8
0
 62
     2
100
AcDbLine
 10
-33.5
 20
19.43649169999999
 30
0.0
 11
-31.0
 21
15.5635083
 31
0.0
  0
LINE
  5
DB
330
1E
100
AcDbEntity
  8
0
 62
     2
100
AcDbLine
 10
-31.0
 20
19.43649169999999
 30
0.0
 11
-33.5
 21
15.5635083
 31
0.0
  0
LINE
  5
DC
330
1E
100
AcDbEntity
  8
0
 62
     7
100
AcDbLine
 10
-31.0
 20
15.5635083
 30
0.0
 11
-31.0
 21
13.5
 31
0.0
  0
LINE
  5
DD
330
1E
100
AcDbEntity
  8
0
 62
     7
100
AcDbLine
 10
-33.5
 20
15.5635083
 30
0.0
 11
-31.0
 21
15.5635083
 31
0.0
  0
LINE
  5
DE
330
1E
100
AcDbEntity
  8
0
 62
     7
100
AcDbLine
 10
-31.0
 20
19.43649169999999
 30
0.0
 11
-33.5
 21
19.43649169999999
 31
0.0
  0
LINE
  5
DF
330
1E
100
AcDbEntity
  8
0
 62
     7
100
AcDbLine
 10
-33.5
 20
19.43649169999999
 30
0.0
 11
-33.5
 21
15.5635083
 31
0.0
  0
LINE
  5
E0
330
1E
100
AcDbEntity
  8
0
 62
     7
100
AcDbLine
 10
-26.0
 20
20.89999999999999
 30
0.0
 11
-26.0
 21
14.1
 31
0.0
  0
LINE
  5
E1
330
1E
100
AcDbEntity
  8
0
 62
     7
100
AcDbLine
 10
-25.5
 20
14.59999999999999
 30
0.0
 11
-26.0
 21
14.1
 31
0.0
  0
LINE
  5
E2
330
1E
100
AcDbEntity
  8
0
 62
     7
100
AcDbLine
 10
-26.0
 20
20.89999999999999
 30
0.0
 11
-25.5
 21
20.4
 31
0.0
  0
LINE
  5
E3
330
1E
100
AcDbEntity
  8
0
 62
     7
100
AcDbLine
 10
-30.5
 20
14.1
 30
0.0
 11
-26.0
 21
14.1
 31
0.0
  0
LINE
  5
E4
330
1E
100
AcDbEntity
  8
0
 62
     7
100
AcDbLine
 10
-30.5
 20
20.89999999999999
 30
0.0
 11
-26.0
 21
20.89999999999999
 31
0.0
  0
LINE
  5
E5
330
1E
100
AcDbEntity
  8
0
 62
     7
100
AcDbLine
 10
-25.5
 20
20.4
 30
0.0
 11
-25.5
 21
14.59999999999999
 31
0.0
  0
LINE
  5
E6
330
1E
100
AcDbEntity
  8
0
 62
     7
100
AcDbLine
 10
-30.5
 20
21.0
 30
0.0
 11
-30.5
 21
14.0
 31
0.0
  0
LINE
  5
E7
330
1E
100
AcDbEntity
  8
0
 62
     7
100
AcDbLine
 10
-30.5
 20
21.0
 30
0.0
 11
-31.0
 21
21.49999999999999
 31
0.0
  0
LINE
  5
E8
330
1E
100
AcDbEntity
  8
0
 62
     7
100
AcDbLine
 10
-30.5
 20
14.0
 30
0.0
 11
-31.0
 21
13.5
 31
0.0
  0
LINE
  5
E9
330
1E
100
AcDbEntity
  8
0
 62
     7
100
AcDbLine
 10
-31.0
 20
21.49999999999999
 30
0.0
 11
-31.0
 21
19.43649169999999
 31
0.0
  0
LINE
  5
EA
330
1E
100
AcDbEntity
  8
0
  6
CENTER
 62
     2
100
AcDbLine
 10
-43.5
 20
-17.5
 30
0.0
 11
-23.5
 21
-17.5
 31
0.0
  0
LINE
  5
EB
330
1E
100
AcDbEntity
  8
0
 62
     7
100
AcDbLine
 10
-41.5
 20
-21.49999999999999
 30
0.0
 11
-31.0
 21
-21.49999999999999
 31
0.0
  0
LINE
  5
EC
330
1E
100
AcDbEntity
  8
0
 62
     7
100
AcDbLine
 10
-41.5
 20
-13.5
 30
0.0
 11
-31.0
 21
-13.5
 31
0.0
  0
LINE
  5
ED
330
1E
100
AcDbEntity
  8
0
 62
     2
100
AcDbLine
 10
-30.625
 20
-21.125
 30
0.0
 11
-41.5
 21
-21.125
 31
0.0
  0
LINE
  5
EE
330
1E
100
AcDbEntity
  8
0
 62
     2
100
AcDbLine
 10
-41.5
 20
-13.875
 30
0.0
 11
-30.625
 21
-13.875
 31
0.0
  0
LINE
  5
EF
330
1E
100
AcDbEntity
  8
0
 62
     7
100
AcDbLine
 10
-31.0
 20
-21.49999999999999
 30
0.0
 11
-31.0
 21
-19.43649169999999
 31
0.0
  0
LINE
  5
F0
330
1E
100
AcDbEntity
  8
0
 62
     7
100
AcDbLine
 10
-30.5
 20
-14.0
 30
0.0
 11
-31.0
 21
-13.5
 31
0.0
  0
LINE
  5
F1
330
1E
100
AcDbEntity
  8
0
 62
     7
100
AcDbLine
 10
-30.5
 20
-21.0
 30
0.0
 11
-31.0
 21
-21.49999999999999
 31
0.0
  0
LINE
  5
F2
330
1E
100
AcDbEntity
  8
0
 62
     7
100
AcDbLine
 10
-30.5
 20
-21.0
 30
0.0
 11
-30.5
 21
-14.0
 31
0.0
  0
LINE
  5
F3
330
1E
100
AcDbEntity
  8
0
 62
     7
100
AcDbLine
 10
-25.5
 20
-20.4
 30
0.0
 11
-25.5
 21
-14.59999999999999
 31
0.0
  0
LINE
  5
F4
330
1E
100
AcDbEntity
  8
0
 62
     7
100
AcDbLine
 10
-30.5
 20
-20.89999999999999
 30
0.0
 11
-26.0
 21
-20.89999999999999
 31
0.0
  0
LINE
  5
F5
330
1E
100
AcDbEntity
  8
0
 62
     7
100
AcDbLine
 10
-30.5
 20
-14.1
 30
0.0
 11
-26.0
 21
-14.1
 31
0.0
  0
LINE
  5
F6
330
1E
100
AcDbEntity
  8
0
 62
     7
100
AcDbLine
 10
-26.0
 20
-20.89999999999999
 30
0.0
 11
-25.5
 21
-20.4
 31
0.0
  0
LINE
  5
F7
330
1E
100
AcDbEntity
  8
0
 62
     7
100
AcDbLine
 10
-25.5
 20
-14.59999999999999
 30
0.0
 11
-26.0
 21
-14.1
 31
0.0
  0
LINE
  5
F8
330
1E
100
AcDbEntity
  8
0
 62
     7
100
AcDbLine
 10
-26.0
 20
-20.89999999999999
 30
0.0
 11
-26.0
 21
-14.1
 31
0.0
  0
LINE
  5
F9
330
1E
100
AcDbEntity
  8
0
 62
     7
100
AcDbLine
 10
-33.5
 20
-19.43649169999999
 30
0.0
 11
-33.5
 21
-15.5635083
 31
0.0
  0
LINE
  5
FA
330
1E
100
AcDbEntity
  8
0
 62
     7
100
AcDbLine
 10
-31.0
 20
-19.43649169999999
 30
0.0
 11
-33.5
 21
-19.43649169999999
 31
0.0
  0
LINE
  5
FB
330
1E
100
AcDbEntity
  8
0
 62
     7
100
AcDbLine
 10
-33.5
 20
-15.5635083
 30
0.0
 11
-31.0
 21
-15.5635083
 31
0.0
  0
LINE
  5
FC
330
1E
100
AcDbEntity
  8
0
 62
     7
100
AcDbLine
 10
-31.0
 20
-15.5635083
 30
0.0
 11
-31.0
 21
-13.5
 31
0.0
  0
LINE
  5
FD
330
1E
100
AcDbEntity
  8
0
 62
     2
100
AcDbLine
 10
-31.0
 20
-19.43649169999999
 30
0.0
 11
-33.5
 21
-15.5635083
 31
0.0
  0
LINE
  5
FE
330
1E
100
AcDbEntity
  8
0
 62
     2
100
AcDbLine
 10
-33.5
 20
-19.43649169999999
 30
0.0
 11
-31.0
 21
-15.5635083
 31
0.0
  0
POLYLINE
  5
FF
330
1E
100
AcDbEntity
  8
0
 62
     7
100
AcDb2dPolyline
 66
     1
 10
0.0
 20
0.0
 30
0.0
  0
VERTEX
  5
698
330
FF
100
AcDbEntity
  8
0
 62
     7
100
AcDbVertex
100
AcDb2dVertex
 10
-33.5
 20
19.43649169999999
 30
0.0
  0
VERTEX
  5
699
330
FF
100
AcDbEntity
  8
0
 62
     7
100
AcDbVertex
100
AcDb2dVertex
 10
-33.5883307
 20
19.2564751
 30
0.0
  0
VERTEX
  5
69A
330
FF
100
AcDbEntity
  8
0
 62
     7
100
AcDbVertex
100
AcDb2dVertex
 10
-33.66946089999999
 20
19.07215339999999
 30
0.0
  0
VERTEX
  5
69B
330
FF
100
AcDbEntity
  8
0
 62
     7
100
AcDbVertex
100
AcDb2dVertex
 10
-33.7428965
 20
18.8840051
 30
0.0
  0
VERTEX
  5
69C
330
FF
100
AcDbEntity
  8
0
 62
     7
100
AcDbVertex
100
AcDb2dVertex
 10
-33.8081435
 20
18.6925085
 30
0.0
  0
VERTEX
  5
69D
330
FF
100
AcDbEntity
  8
0
 62
     7
100
AcDbVertex
100
AcDb2dVertex
 10
-33.8647079
 20
18.4981418
 30
0.0
  0
VERTEX
  5
69E
330
FF
100
AcDbEntity
  8
0
 62
     7
100
AcDbVertex
100
AcDb2dVertex
 10
-33.9120956
 20
18.30138339999999
 30
0.0
  0
VERTEX
  5
69F
330
FF
100
AcDbEntity
  8
0
 62
     7
100
AcDbVertex
100
AcDb2dVertex
 10
-33.94981279999999
 20
18.1027117
 30
0.0
  0
VERTEX
  5
6A0
330
FF
100
AcDbEntity
  8
0
 62
     7
100
AcDbVertex
100
AcDb2dVertex
 10
-33.9773652
 20
17.9026051
 30
0.0
  0
VERTEX
  5
6A1
330
FF
100
AcDbEntity
  8
0
 62
     7
100
AcDbVertex
100
AcDb2dVertex
 10
-33.994259
 20
17.7015417
 30
0.0
  0
VERTEX
  5
6A2
330
FF
100
AcDbEntity
  8
0
 62
     7
100
AcDbVertex
100
AcDb2dVertex
 10
-34.0
 20
17.5
 30
0.0
  0
VERTEX
  5
6A3
330
FF
100
AcDbEntity
  8
0
 62
     7
100
AcDbVertex
100
AcDb2dVertex
 10
-33.994259
 20
17.2984583
 30
0.0
  0
VERTEX
  5
6A4
330
FF
100
AcDbEntity
  8
0
 62
     7
100
AcDbVertex
100
AcDb2dVertex
 10
-33.9773652
 20
17.09739489999999
 30
0.0
  0
VERTEX
  5
6A5
330
FF
100
AcDbEntity
  8
0
 62
     7
100
AcDbVertex
100
AcDb2dVertex
 10
-33.94981279999999
 20
16.89728829999999
 30
0.0
  0
VERTEX
  5
6A6
330
FF
100
AcDbEntity
  8
0
 62
     7
100
AcDbVertex
100
AcDb2dVertex
 10
-33.9120956
 20
16.6986166
 30
0.0
  0
VERTEX
  5
6A7
330
FF
100
AcDbEntity
  8
0
 62
     7
100
AcDbVertex
100
AcDb2dVertex
 10
-33.8647079
 20
16.5018582
 30
0.0
  0
VERTEX
  5
6A8
330
FF
100
AcDbEntity
  8
0
 62
     7
100
AcDbVertex
100
AcDb2dVertex
 10
-33.8081435
 20
16.3074915
 30
0.0
  0
VERTEX
  5
6A9
330
FF
100
AcDbEntity
  8
0
 62
     7
100
AcDbVertex
100
AcDb2dVertex
 10
-33.7428965
 20
16.1159949
 30
0.0
  0
VERTEX
  5
6AA
330
FF
100
AcDbEntity
  8
0
 62
     7
100
AcDbVertex
100
AcDb2dVertex
 10
-33.66946089999999
 20
15.92784659999999
 30
0.0
  0
VERTEX
  5
6AB
330
FF
100
AcDbEntity
  8
0
 62
     7
100
AcDbVertex
100
AcDb2dVertex
 10
-33.5883307
 20
15.7435249
 30
0.0
  0
VERTEX
  5
6AC
330
FF
100
AcDbEntity
  8
0
 62
     7
100
AcDbVertex
100
AcDb2dVertex
 10
-33.5
 20
15.5635083
 30
0.0
  0
SEQEND
  5
6AD
330
FF
100
AcDbEntity
  8
0
 62
     7
  0
POLYLINE
  5
116
330
1E
100
AcDbEntity
  8
0
 62
     7
100
AcDb2dPolyline
 66
     1
 10
0.0
 20
0.0
 30
0.0
  0
VERTEX
  5
6AE
330
116
100
AcDbEntity
  8
0
 62
     7
100
AcDbVertex
100
AcDb2dVertex
 10
-31.0
 20
19.43649169999999
 30
0.0
  0
VERTEX
  5
6AF
330
116
100
AcDbEntity
  8
0
 62
     7
100
AcDbVertex
100
AcDb2dVertex
 10
-30.9116693
 20
19.2564751
 30
0.0
  0
VERTEX
  5
6B0
330
116
100
AcDbEntity
  8
0
 62
     7
100
AcDbVertex
100
AcDb2dVertex
 10
-30.8305391
 20
19.07215339999999
 30
0.0
  0
VERTEX
  5
6B1
330
116
100
AcDbEntity
  8
0
 62
     7
100
AcDbVertex
100
AcDb2dVertex
 10
-30.75710349999999
 20
18.8840051
 30
0.0
  0
VERTEX
  5
6B2
330
116
100
AcDbEntity
  8
0
 62
     7
100
AcDbVertex
100
AcDb2dVertex
 10
-30.6918565
 20
18.6925085
 30
0.0
  0
VERTEX
  5
6B3
330
116
100
AcDbEntity
  8
0
 62
     7
100
AcDbVertex
100
AcDb2dVertex
 10
-30.6352921
 20
18.4981418
 30
0.0
  0
VERTEX
  5
6B4
330
116
100
AcDbEntity
  8
0
 62
     7
100
AcDbVertex
100
AcDb2dVertex
 10
-30.5879044
 20
18.30138339999999
 30
0.0
  0
VERTEX
  5
6B5
330
116
100
AcDbEntity
  8
0
 62
     7
100
AcDbVertex
100
AcDb2dVertex
 10
-30.55018719999999
 20
18.1027117
 30
0.0
  0
VERTEX
  5
6B6
330
116
100
AcDbEntity
  8
0
 62
     7
100
AcDbVertex
100
AcDb2dVertex
 10
-30.5226348
 20
17.9026051
 30
0.0
  0
VERTEX
  5
6B7
330
116
100
AcDbEntity
  8
0
 62
     7
100
AcDbVertex
100
AcDb2dVertex
 10
-30.50574099999999
 20
17.7015417
 30
0.0
  0
VERTEX
  5
6B8
330
116
100
AcDbEntity
  8
0
 62
     7
100
AcDbVertex
100
AcDb2dVertex
 10
-30.5
 20
17.5
 30
0.0
  0
VERTEX
  5
6B9
330
116
100
AcDbEntity
  8
0
 62
     7
100
AcDbVertex
100
AcDb2dVertex
 10
-30.50574099999999
 20
17.2984583
 30
0.0
  0
VERTEX
  5
6BA
330
116
100
AcDbEntity
  8
0
 62
     7
100
AcDbVertex
100
AcDb2dVertex
 10
-30.5226348
 20
17.09739489999999
 30
0.0
  0
VERTEX
  5
6BB
330
116
100
AcDbEntity
  8
0
 62
     7
100
AcDbVertex
100
AcDb2dVertex
 10
-30.55018719999999
 20
16.89728829999999
 30
0.0
  0
VERTEX
  5
6BC
330
116
100
AcDbEntity
  8
0
 62
     7
100
AcDbVertex
100
AcDb2dVertex
 10
-30.5879044
 20
16.6986166
 30
0.0
  0
VERTEX
  5
6BD
330
116
100
AcDbEntity
  8
0
 62
     7
100
AcDbVertex
100
AcDb2dVertex
 10
-30.6352921
 20
16.5018582
 30
0.0
  0
VERTEX
  5
6BE
330
116
100
AcDbEntity
  8
0
 62
     7
100
AcDbVertex
100
AcDb2dVertex
 10
-30.6918565
 20
16.3074915
 30
0.0
  0
VERTEX
  5
6BF
330
116
100
AcDbEntity
  8
0
 62
     7
100
AcDbVertex
100
AcDb2dVertex
 10
-30.75710349999999
 20
16.1159949
 30
0.0
  0
VERTEX
  5
6C0
330
116
100
AcDbEntity
  8
0
 62
     7
100
AcDbVertex
100
AcDb2dVertex
 10
-30.8305391
 20
15.92784659999999
 30
0.0
  0
VERTEX
  5
6C1
330
116
100
AcDbEntity
  8
0
 62
     7
100
AcDbVertex
100
AcDb2dVertex
 10
-30.9116693
 20
15.7435249
 30
0.0
  0
VERTEX
  5
6C2
330
116
100
AcDbEntity
  8
0
 62
     7
100
AcDbVertex
100
AcDb2dVertex
 10
-31.0
 20
15.5635083
 30
0.0
  0
SEQEND
  5
6C3
330
116
100
AcDbEntity
  8
0
 62
     7
  0
POLYLINE
  5
12D
330
1E
100
AcDbEntity
  8
0
 62
     7
100
AcDb2dPolyline
 66
     1
 10
0.0
 20
0.0
 30
0.0
  0
VERTEX
  5
6C4
330
12D
100
AcDbEntity
  8
0
 62
     7
100
AcDbVertex
100
AcDb2dVertex
 10
-31.0
 20
-19.43649169999999
 30
0.0
  0
VERTEX
  5
6C5
330
12D
100
AcDbEntity
  8
0
 62
     7
100
AcDbVertex
100
AcDb2dVertex
 10
-30.9116693
 20
-19.2564751
 30
0.0
  0
VERTEX
  5
6C6
330
12D
100
AcDbEntity
  8
0
 62
     7
100
AcDbVertex
100
AcDb2dVertex
 10
-30.8305391
 20
-19.07215339999999
 30
0.0
  0
VERTEX
  5
6C7
330
12D
100
AcDbEntity
  8
0
 62
     7
100
AcDbVertex
100
AcDb2dVertex
 10
-30.75710349999999
 20
-18.8840051
 30
0.0
  0
VERTEX
  5
6C8
330
12D
100
AcDbEntity
  8
0
 62
     7
100
AcDbVertex
100
AcDb2dVertex
 10
-30.6918565
 20
-18.6925085
 30
0.0
  0
VERTEX
  5
6C9
330
12D
100
AcDbEntity
  8
0
 62
     7
100
AcDbVertex
100
AcDb2dVertex
 10
-30.6352921
 20
-18.4981418
 30
0.0
  0
VERTEX
  5
6CA
330
12D
100
AcDbEntity
  8
0
 62
     7
100
AcDbVertex
100
AcDb2dVertex
 10
-30.5879044
 20
-18.30138339999999
 30
0.0
  0
VERTEX
  5
6CB
330
12D
100
AcDbEntity
  8
0
 62
     7
100
AcDbVertex
100
AcDb2dVertex
 10
-30.55018719999999
 20
-18.1027117
 30
0.0
  0
VERTEX
  5
6CC
330
12D
100
AcDbEntity
  8
0
 62
     7
100
AcDbVertex
100
AcDb2dVertex
 10
-30.5226348
 20
-17.9026051
 30
0.0
  0
VERTEX
  5
6CD
330
12D
100
AcDbEntity
  8
0
 62
     7
100
AcDbVertex
100
AcDb2dVertex
 10
-30.50574099999999
 20
-17.7015417
 30
0.0
  0
VERTEX
  5
6CE
330
12D
100
AcDbEntity
  8
0
 62
     7
100
AcDbVertex
100
AcDb2dVertex
 10
-30.5
 20
-17.5
 30
0.0
  0
VERTEX
  5
6CF
330
12D
100
AcDbEntity
  8
0
 62
     7
100
AcDbVertex
100
AcDb2dVertex
 10
-30.50574099999999
 20
-17.2984583
 30
0.0
  0
VERTEX
  5
6D0
330
12D
100
AcDbEntity
  8
0
 62
     7
100
AcDbVertex
100
AcDb2dVertex
 10
-30.5226348
 20
-17.09739489999999
 30
0.0
  0
VERTEX
  5
6D1
330
12D
100
AcDbEntity
  8
0
 62
     7
100
AcDbVertex
100
AcDb2dVertex
 10
-30.55018719999999
 20
-16.89728829999999
 30
0.0
  0
VERTEX
  5
6D2
330
12D
100
AcDbEntity
  8
0
 62
     7
100
AcDbVertex
100
AcDb2dVertex
 10
-30.5879044
 20
-16.6986166
 30
0.0
  0
VERTEX
  5
6D3
330
12D
100
AcDbEntity
  8
0
 62
     7
100
AcDbVertex
100
AcDb2dVertex
 10
-30.6352921
 20
-16.5018582
 30
0.0
  0
VERTEX
  5
6D4
330
12D
100
AcDbEntity
  8
0
 62
     7
100
AcDbVertex
100
AcDb2dVertex
 10
-30.6918565
 20
-16.3074915
 30
0.0
  0
VERTEX
  5
6D5
330
12D
100
AcDbEntity
  8
0
 62
     7
100
AcDbVertex
100
AcDb2dVertex
 10
-30.75710349999999
 20
-16.1159949
 30
0.0
  0
VERTEX
  5
6D6
330
12D
100
AcDbEntity
  8
0
 62
     7
100
AcDbVertex
100
AcDb2dVertex
 10
-30.8305391
 20
-15.92784659999999
 30
0.0
  0
VERTEX
  5
6D7
330
12D
100
AcDbEntity
  8
0
 62
     7
100
AcDbVertex
100
AcDb2dVertex
 10
-30.9116693
 20
-15.7435249
 30
0.0
  0
VERTEX
  5
6D8
330
12D
100
AcDbEntity
  8
0
 62
     7
100
AcDbVertex
100
AcDb2dVertex
 10
-31.0
 20
-15.5635083
 30
0.0
  0
SEQEND
  5
6D9
330
12D
100
AcDbEntity
  8
0
 62
     7
  0
POLYLINE
  5
144
330
1E
100
AcDbEntity
  8
0
 62
     7
100
AcDb2dPolyline
 66
     1
 10
0.0
 20
0.0
 30
0.0
  0
VERTEX
  5
6DA
330
144
100
AcDbEntity
  8
0
 62
     7
100
AcDbVertex
100
AcDb2dVertex
 10
-33.5
 20
-19.43649169999999
 30
0.0
  0
VERTEX
  5
6DB
330
144
100
AcDbEntity
  8
0
 62
     7
100
AcDbVertex
100
AcDb2dVertex
 10
-33.5883307
 20
-19.2564751
 30
0.0
  0
VERTEX
  5
6DC
330
144
100
AcDbEntity
  8
0
 62
     7
100
AcDbVertex
100
AcDb2dVertex
 10
-33.66946089999999
 20
-19.07215339999999
 30
0.0
  0
VERTEX
  5
6DD
330
144
100
AcDbEntity
  8
0
 62
     7
100
AcDbVertex
100
AcDb2dVertex
 10
-33.7428965
 20
-18.8840051
 30
0.0
  0
VERTEX
  5
6DE
330
144
100
AcDbEntity
  8
0
 62
     7
100
AcDbVertex
100
AcDb2dVertex
 10
-33.8081435
 20
-18.6925085
 30
0.0
  0
VERTEX
  5
6DF
330
144
100
AcDbEntity
  8
0
 62
     7
100
AcDbVertex
100
AcDb2dVertex
 10
-33.8647079
 20
-18.4981418
 30
0.0
  0
VERTEX
  5
6E0
330
144
100
AcDbEntity
  8
0
 62
     7
100
AcDbVertex
100
AcDb2dVertex
 10
-33.9120956
 20
-18.30138339999999
 30
0.0
  0
VERTEX
  5
6E1
330
144
100
AcDbEntity
  8
0
 62
     7
100
AcDbVertex
100
AcDb2dVertex
 10
-33.94981279999999
 20
-18.1027117
 30
0.0
  0
VERTEX
  5
6E2
330
144
100
AcDbEntity
  8
0
 62
     7
100
AcDbVertex
100
AcDb2dVertex
 10
-33.9773652
 20
-17.9026051
 30
0.0
  0
VERTEX
  5
6E3
330
144
100
AcDbEntity
  8
0
 62
     7
100
AcDbVertex
100
AcDb2dVertex
 10
-33.994259
 20
-17.7015417
 30
0.0
  0
VERTEX
  5
6E4
330
144
100
AcDbEntity
  8
0
 62
     7
100
AcDbVertex
100
AcDb2dVertex
 10
-34.0
 20
-17.5
 30
0.0
  0
VERTEX
  5
6E5
330
144
100
AcDbEntity
  8
0
 62
     7
100
AcDbVertex
100
AcDb2dVertex
 10
-33.994259
 20
-17.2984583
 30
0.0
  0
VERTEX
  5
6E6
330
144
100
AcDbEntity
  8
0
 62
     7
100
AcDbVertex
100
AcDb2dVertex
 10
-33.9773652
 20
-17.09739489999999
 30
0.0
  0
VERTEX
  5
6E7
330
144
100
AcDbEntity
  8
0
 62
     7
100
AcDbVertex
100
AcDb2dVertex
 10
-33.94981279999999
 20
-16.89728829999999
 30
0.0
  0
VERTEX
  5
6E8
330
144
100
AcDbEntity
  8
0
 62
     7
100
AcDbVertex
100
AcDb2dVertex
 10
-33.9120956
 20
-16.6986166
 30
0.0
  0
VERTEX
  5
6E9
330
144
100
AcDbEntity
  8
0
 62
     7
100
AcDbVertex
100
AcDb2dVertex
 10
-33.8647079
 20
-16.5018582
 30
0.0
  0
VERTEX
  5
6EA
330
144
100
AcDbEntity
  8
0
 62
     7
100
AcDbVertex
100
AcDb2dVertex
 10
-33.8081435
 20
-16.3074915
 30
0.0
  0
VERTEX
  5
6EB
330
144
100
AcDbEntity
  8
0
 62
     7
100
AcDbVertex
100
AcDb2dVertex
 10
-33.7428965
 20
-16.1159949
 30
0.0
  0
VERTEX
  5
6EC
330
144
100
AcDbEntity
  8
0
 62
     7
100
AcDbVertex
100
AcDb2dVertex
 10
-33.66946089999999
 20
-15.92784659999999
 30
0.0
  0
VERTEX
  5
6ED
330
144
100
AcDbEntity
  8
0
 62
     7
100
AcDbVertex
100
AcDb2dVertex
 10
-33.5883307
 20
-15.7435249
 30
0.0
  0
VERTEX
  5
6EE
330
144
100
AcDbEntity
  8
0
 62
     7
100
AcDbVertex
100
AcDb2dVertex
 10
-33.5
 20
-15.5635083
 30
0.0
  0
SEQEND
  5
6EF
330
144
100
AcDbEntity
  8
0
 62
     7
  0
LINE
  5
15B
330
1E
100
AcDbEntity
  8
0
 62
     7
100
AcDbLine
 10
-174.0
 20
25.0
 30
0.0
 11
-183.0
 21
25.0
 31
0.0
  0
LINE
  5
15C
330
1E
100
AcDbEntity
  8
0
 62
     7
100
AcDbLine
 10
-174.0
 20
-25.0
 30
0.0
 11
-183.0
 21
-25.0
 31
0.0
  0
LINE
  5
15D
330
1E
100
AcDbEntity
  8
0
 62
     7
100
AcDbLine
 10
-173.0
 20
22.5
 30
0.0
 11
-174.0
 21
22.5
 31
0.0
  0
LINE
  5
15E
330
1E
100
AcDbEntity
  8
0
 62
     7
100
AcDbLine
 10
-173.0
 20
-22.5
 30
0.0
 11
-174.0
 21
-22.5
 31
0.0
  0
LINE
  5
15F
330
1E
100
AcDbEntity
  8
0
 62
     7
100
AcDbLine
 10
-169.0
 20
24.5
 30
0.0
 11
-173.0
 21
24.5
 31
0.0
  0
LINE
  5
160
330
1E
100
AcDbEntity
  8
0
 62
     7
100
AcDbLine
 10
-169.0
 20
-24.5
 30
0.0
 11
-173.0
 21
-24.5
 31
0.0
  0
LINE
  5
161
330
1E
100
AcDbEntity
  8
0
  6
CENTER
 62
     2
100
AcDbLine
 10
-189.0
 20
-51.4
 30
0.0
 11
-189.0
 21
-48.0
 31
0.0
  0
LINE
  5
162
330
1E
100
AcDbEntity
  8
0
 62
     7
100
AcDbLine
 10
-185.0999999999999
 20
-48.0
 30
0.0
 11
-185.0999999999999
 21
-48.3
 31
0.0
  0
LINE
  5
163
330
1E
100
AcDbEntity
  8
0
 62
     7
100
AcDbLine
 10
-192.9
 20
-48.0
 30
0.0
 11
-192.9
 21
-48.3
 31
0.0
  0
LINE
  5
164
330
1E
100
AcDbEntity
  8
0
 62
     7
100
AcDbLine
 10
-185.0
 20
-48.3
 30
0.0
 11
-193.0
 21
-48.3
 31
0.0
  0
LINE
  5
165
330
1E
100
AcDbEntity
  8
0
 62
     7
100
AcDbLine
 10
-192.8
 20
-49.4
 30
0.0
 11
-185.1999999999999
 21
-49.4
 31
0.0
  0
LINE
  5
166
330
1E
100
AcDbEntity
  8
0
 62
     7
100
AcDbLine
 10
-192.8
 20
-49.4
 30
0.0
 11
-193.0
 21
-49.2
 31
0.0
  0
LINE
  5
167
330
1E
100
AcDbEntity
  8
0
 62
     7
100
AcDbLine
 10
-193.0
 20
-48.3
 30
0.0
 11
-193.0
 21
-49.2
 31
0.0
  0
LINE
  5
168
330
1E
100
AcDbEntity
  8
0
 62
     7
100
AcDbLine
 10
-193.0
 20
-49.2
 30
0.0
 11
-185.0
 21
-49.2
 31
0.0
  0
LINE
  5
169
330
1E
100
AcDbEntity
  8
0
 62
     7
100
AcDbLine
 10
-185.1999999999999
 20
-49.4
 30
0.0
 11
-185.0
 21
-49.2
 31
0.0
  0
LINE
  5
16A
330
1E
100
AcDbEntity
  8
0
 62
     7
100
AcDbLine
 10
-185.0
 20
-48.3
 30
0.0
 11
-185.0
 21
-49.2
 31
0.0
  0
LINE
  5
16B
330
1E
100
AcDbEntity
  8
0
 62
     7
100
AcDbLine
 10
-207.1
 20
-48.0
 30
0.0
 11
-207.1
 21
-48.3
 31
0.0
  0
LINE
  5
16C
330
1E
100
AcDbEntity
  8
0
 62
     7
100
AcDbLine
 10
-214.9
 20
-48.0
 30
0.0
 11
-214.9
 21
-48.3
 31
0.0
  0
LINE
  5
16D
330
1E
100
AcDbEntity
  8
0
 62
     7
100
AcDbLine
 10
-207.0
 20
-48.3
 30
0.0
 11
-215.0
 21
-48.3
 31
0.0
  0
LINE
  5
16E
330
1E
100
AcDbEntity
  8
0
 62
     7
100
AcDbLine
 10
-215.0
 20
-49.2
 30
0.0
 11
-207.0
 21
-49.2
 31
0.0
  0
LINE
  5
16F
330
1E
100
AcDbEntity
  8
0
 62
     7
100
AcDbLine
 10
-214.8
 20
-49.4
 30
0.0
 11
-215.0
 21
-49.2
 31
0.0
  0
LINE
  5
170
330
1E
100
AcDbEntity
  8
0
 62
     7
100
AcDbLine
 10
-215.0
 20
-48.3
 30
0.0
 11
-215.0
 21
-49.2
 31
0.0
  0
LINE
  5
171
330
1E
100
AcDbEntity
  8
0
 62
     7
100
AcDbLine
 10
-207.2
 20
-49.4
 30
0.0
 11
-207.0
 21
-49.2
 31
0.0
  0
LINE
  5
172
330
1E
100
AcDbEntity
  8
0
 62
     7
100
AcDbLine
 10
-214.8
 20
-49.4
 30
0.0
 11
-207.2
 21
-49.4
 31
0.0
  0
LINE
  5
173
330
1E
100
AcDbEntity
  8
0
 62
     7
100
AcDbLine
 10
-207.0
 20
-48.3
 30
0.0
 11
-207.0
 21
-49.2
 31
0.0
  0
LINE
  5
174
330
1E
100
AcDbEntity
  8
0
  6
CENTER
 62
     2
100
AcDbLine
 10
-211.0
 20
-51.4
 30
0.0
 11
-211.0
 21
-48.0
 31
0.0
  0
LINE
  5
175
330
1E
100
AcDbEntity
  8
0
 62
     7
100
AcDbLine
 10
-185.0
 20
48.3
 30
0.0
 11
-185.0
 21
49.2
 31
0.0
  0
LINE
  5
176
330
1E
100
AcDbEntity
  8
0
 62
     7
100
AcDbLine
 10
-185.1999999999999
 20
49.4
 30
0.0
 11
-185.0
 21
49.2
 31
0.0
  0
LINE
  5
177
330
1E
100
AcDbEntity
  8
0
 62
     7
100
AcDbLine
 10
-193.0
 20
49.2
 30
0.0
 11
-185.0
 21
49.2
 31
0.0
  0
LINE
  5
178
330
1E
100
AcDbEntity
  8
0
 62
     7
100
AcDbLine
 10
-193.0
 20
48.3
 30
0.0
 11
-193.0
 21
49.2
 31
0.0
  0
LINE
  5
179
330
1E
100
AcDbEntity
  8
0
 62
     7
100
AcDbLine
 10
-192.8
 20
49.4
 30
0.0
 11
-193.0
 21
49.2
 31
0.0
  0
LINE
  5
17A
330
1E
100
AcDbEntity
  8
0
 62
     7
100
AcDbLine
 10
-192.8
 20
49.4
 30
0.0
 11
-185.1999999999999
 21
49.4
 31
0.0
  0
LINE
  5
17B
330
1E
100
AcDbEntity
  8
0
 62
     7
100
AcDbLine
 10
-185.0
 20
48.3
 30
0.0
 11
-193.0
 21
48.3
 31
0.0
  0
LINE
  5
17C
330
1E
100
AcDbEntity
  8
0
 62
     7
100
AcDbLine
 10
-192.9
 20
48.0
 30
0.0
 11
-192.9
 21
48.3
 31
0.0
  0
LINE
  5
17D
330
1E
100
AcDbEntity
  8
0
 62
     7
100
AcDbLine
 10
-185.0999999999999
 20
48.0
 30
0.0
 11
-185.0999999999999
 21
48.3
 31
0.0
  0
LINE
  5
17E
330
1E
100
AcDbEntity
  8
0
  6
CENTER
 62
     2
100
AcDbLine
 10
-189.0
 20
51.4
 30
0.0
 11
-189.0
 21
48.0
 31
0.0
  0
LINE
  5
17F
330
1E
100
AcDbEntity
  8
0
 62
     7
100
AcDbLine
 10
-207.0
 20
48.3
 30
0.0
 11
-207.0
 21
49.2
 31
0.0
  0
LINE
  5
180
330
1E
100
AcDbEntity
  8
0
 62
     7
100
AcDbLine
 10
-214.8
 20
49.4
 30
0.0
 11
-207.2
 21
49.4
 31
0.0
  0
LINE
  5
181
330
1E
100
AcDbEntity
  8
0
 62
     7
100
AcDbLine
 10
-207.2
 20
49.4
 30
0.0
 11
-207.0
 21
49.2
 31
0.0
  0
LINE
  5
182
330
1E
100
AcDbEntity
  8
0
 62
     7
100
AcDbLine
 10
-215.0
 20
48.3
 30
0.0
 11
-215.0
 21
49.2
 31
0.0
  0
LINE
  5
183
330
1E
100
AcDbEntity
  8
0
 62
     7
100
AcDbLine
 10
-214.8
 20
49.4
 30
0.0
 11
-215.0
 21
49.2
 31
0.0
  0
LINE
  5
184
330
1E
100
AcDbEntity
  8
0
 62
     7
100
AcDbLine
 10
-215.0
 20
49.2
 30
0.0
 11
-207.0
 21
49.2
 31
0.0
  0
LINE
  5
185
330
1E
100
AcDbEntity
  8
0
 62
     7
100
AcDbLine
 10
-207.0
 20
48.3
 30
0.0
 11
-215.0
 21
48.3
 31
0.0
  0
LINE
  5
186
330
1E
100
AcDbEntity
  8
0
 62
     7
100
AcDbLine
 10
-214.9
 20
48.0
 30
0.0
 11
-214.9
 21
48.3
 31
0.0
  0
LINE
  5
187
330
1E
100
AcDbEntity
  8
0
 62
     7
100
AcDbLine
 10
-207.1
 20
48.0
 30
0.0
 11
-207.1
 21
48.3
 31
0.0
  0
LINE
  5
188
330
1E
100
AcDbEntity
  8
0
  6
CENTER
 62
     2
100
AcDbLine
 10
-211.0
 20
51.4
 30
0.0
 11
-211.0
 21
48.0
 31
0.0
  0
LINE
  5
189
330
1E
100
AcDbEntity
  8
0
  6
CENTER
 62
     2
100
AcDbLine
 10
-204.7499999999999
 20
37.5
 30
0.0
 11
-217.2499999999999
 21
37.5
 31
0.0
  0
LINE
  5
18A
330
1E
100
AcDbEntity
  8
0
 62
     7
100
AcDbLine
 10
-207.031373
 20
38.0
 30
0.0
 11
-214.968627
 21
38.0
 31
0.0
  0
LINE
  5
18B
330
1E
100
AcDbEntity
  8
0
 62
     7
100
AcDbLine
 10
-207.031373
 20
37.0
 30
0.0
 11
-214.968627
 21
37.0
 31
0.0
  0
CIRCLE
  5
18C
330
1E
100
AcDbEntity
  8
0
 62
     7
100
AcDbCircle
 10
-211.0
 20
37.5
 30
0.0
 40
4.0
  0
LINE
  5
18D
330
1E
100
AcDbEntity
  8
0
  6
CENTER
 62
     2
100
AcDbLine
 10
-211.0
 20
43.75
 30
0.0
 11
-211.0
 21
31.25
 31
0.0
  0
LINE
  5
18E
330
1E
100
AcDbEntity
  8
0
 62
     7
100
AcDbLine
 10
-173.0
 20
24.5
 30
0.0
 11
-173.0
 21
-24.5
 31
0.0
  0
LINE
  5
18F
330
1E
100
AcDbEntity
  8
0
 62
     7
100
AcDbLine
 10
-192.9686269999999
 20
-37.0
 30
0.0
 11
-185.031373
 21
-37.0
 31
0.0
  0
LINE
  5
190
330
1E
100
AcDbEntity
  8
0
 62
     7
100
AcDbLine
 10
-192.9686269999999
 20
-38.0
 30
0.0
 11
-185.031373
 21
-38.0
 31
0.0
  0
CIRCLE
  5
191
330
1E
100
AcDbEntity
  8
0
 62
     7
100
AcDbCircle
 10
-189.0
 20
-37.5
 30
0.0
 40
4.0
  0
LINE
  5
192
330
1E
100
AcDbEntity
  8
0
  6
CENTER
 62
     2
100
AcDbLine
 10
-189.0
 20
-43.75
 30
0.0
 11
-189.0
 21
-31.25
 31
0.0
  0
LINE
  5
193
330
1E
100
AcDbEntity
  8
0
  6
CENTER
 62
     2
100
AcDbLine
 10
-195.25
 20
-37.5
 30
0.0
 11
-182.75
 21
-37.5
 31
0.0
  0
LINE
  5
194
330
1E
100
AcDbEntity
  8
0
 62
     7
100
AcDbLine
 10
-215.5
 20
48.0
 30
0.0
 11
-215.5
 21
-48.0
 31
0.0
  0
LINE
  5
195
330
1E
100
AcDbEntity
  8
0
 62
     7
100
AcDbLine
 10
-217.0
 20
48.0
 30
0.0
 11
-217.0
 21
-48.0
 31
0.0
  0
LINE
  5
196
330
1E
100
AcDbEntity
  8
0
 62
     7
100
AcDbLine
 10
-197.5999999999999
 20
-48.0
 30
0.0
 11
-197.5999999999999
 21
48.0
 31
0.0
  0
LINE
  5
197
330
1E
100
AcDbEntity
  8
0
 62
     7
100
AcDbLine
 10
-194.4
 20
-48.0
 30
0.0
 11
-194.4
 21
48.0
 31
0.0
  0
LINE
  5
198
330
1E
100
AcDbEntity
  8
0
 62
     7
100
AcDbLine
 10
-202.4
 20
-48.0
 30
0.0
 11
-202.4
 21
48.0
 31
0.0
  0
LINE
  5
199
330
1E
100
AcDbEntity
  8
0
 62
     7
100
AcDbLine
 10
-205.6
 20
-48.0
 30
0.0
 11
-205.6
 21
48.0
 31
0.0
  0
LINE
  5
19A
330
1E
100
AcDbEntity
  8
0
 62
     7
100
AcDbLine
 10
-184.4999999999999
 20
48.0
 30
0.0
 11
-184.4999999999999
 21
-48.0
 31
0.0
  0
LINE
  5
19B
330
1E
100
AcDbEntity
  8
0
 62
     7
100
AcDbLine
 10
-183.0
 20
48.0
 30
0.0
 11
-183.0
 21
-48.0
 31
0.0
  0
LINE
  5
19C
330
1E
100
AcDbEntity
  8
0
 62
     7
100
AcDbLine
 10
-183.0
 20
-48.0
 30
0.0
 11
-217.0
 21
-48.0
 31
0.0
  0
LINE
  5
19D
330
1E
100
AcDbEntity
  8
0
 62
     7
100
AcDbLine
 10
-183.0
 20
48.0
 30
0.0
 11
-217.0
 21
48.0
 31
0.0
  0
LINE
  5
19E
330
1E
100
AcDbEntity
  8
0
  6
CENTER
 62
     2
100
AcDbLine
 10
-200.0
 20
-52.0
 30
0.0
 11
-200.0
 21
52.0
 31
0.0
  0
LINE
  5
19F
330
1E
100
AcDbEntity
  8
0
 62
     7
100
AcDbLine
 10
-174.0
 20
25.0
 30
0.0
 11
-174.0
 21
-25.0
 31
0.0
  0
LINE
  5
1A0
330
1E
100
AcDbEntity
  8
0
 62
     7
100
AcDbLine
 10
-169.0
 20
-24.5
 30
0.0
 11
-169.0
 21
24.5
 31
0.0
  0
LINE
  5
1A1
330
1E
100
AcDbEntity
  8
0
  6
CENTER
 62
     2
100
AcDbLine
 10
-165.0
 20
0.0
 30
0.0
 11
-221.0
 21
0.0
 31
0.0
  0
LINE
  5
1A2
330
1E
100
AcDbEntity
  8
0
 62
     7
100
AcDbLine
 10
39.0
 20
-24.5
 30
0.0
 11
43.0
 21
-24.5
 31
0.0
  0
LINE
  5
1A3
330
1E
100
AcDbEntity
  8
0
 62
     7
100
AcDbLine
 10
39.0
 20
24.5
 30
0.0
 11
43.0
 21
24.5
 31
0.0
  0
LINE
  5
1A4
330
1E
100
AcDbEntity
  8
0
 62
     7
100
AcDbLine
 10
43.0
 20
-22.5
 30
0.0
 11
44.0
 21
-22.5
 31
0.0
  0
LINE
  5
1A5
330
1E
100
AcDbEntity
  8
0
 62
     7
100
AcDbLine
 10
43.0
 20
22.5
 30
0.0
 11
44.0
 21
22.5
 31
0.0
  0
LINE
  5
1A6
330
1E
100
AcDbEntity
  8
0
 62
     7
100
AcDbLine
 10
44.0
 20
-25.0
 30
0.0
 11
54.5
 21
-25.0
 31
0.0
  0
LINE
  5
1A7
330
1E
100
AcDbEntity
  8
0
 62
     7
100
AcDbLine
 10
44.0
 20
25.0
 30
0.0
 11
54.5
 21
25.0
 31
0.0
  0
LINE
  5
1A8
330
1E
100
AcDbEntity
  8
0
 62
     7
100
AcDbLine
 10
62.9
 20
48.0
 30
0.0
 11
62.9
 21
48.3
 31
0.0
  0
LINE
  5
1A9
330
1E
100
AcDbEntity
  8
0
 62
     7
100
AcDbLine
 10
55.1
 20
48.0
 30
0.0
 11
55.1
 21
48.3
 31
0.0
  0
LINE
  5
1AA
330
1E
100
AcDbEntity
  8
0
 62
     7
100
AcDbLine
 10
63.0
 20
48.3
 30
0.0
 11
55.0
 21
48.3
 31
0.0
  0
LINE
  5
1AB
330
1E
100
AcDbEntity
  8
0
 62
     7
100
AcDbLine
 10
55.0
 20
49.2
 30
0.0
 11
63.0
 21
49.2
 31
0.0
  0
LINE
  5
1AC
330
1E
100
AcDbEntity
  8
0
 62
     7
100
AcDbLine
 10
55.2
 20
49.4
 30
0.0
 11
55.0
 21
49.2
 31
0.0
  0
LINE
  5
1AD
330
1E
100
AcDbEntity
  8
0
 62
     7
100
AcDbLine
 10
55.0
 20
48.3
 30
0.0
 11
55.0
 21
49.2
 31
0.0
  0
LINE
  5
1AE
330
1E
100
AcDbEntity
  8
0
 62
     7
100
AcDbLine
 10
62.8
 20
49.4
 30
0.0
 11
63.0
 21
49.2
 31
0.0
  0
LINE
  5
1AF
330
1E
100
AcDbEntity
  8
0
 62
     7
100
AcDbLine
 10
55.2
 20
49.4
 30
0.0
 11
62.8
 21
49.4
 31
0.0
  0
LINE
  5
1B0
330
1E
100
AcDbEntity
  8
0
 62
     7
100
AcDbLine
 10
63.0
 20
48.3
 30
0.0
 11
63.0
 21
49.2
 31
0.0
  0
LINE
  5
1B1
330
1E
100
AcDbEntity
  8
0
  6
CENTER
 62
     2
100
AcDbLine
 10
59.0
 20
51.4
 30
0.0
 11
59.0
 21
48.0
 31
0.0
  0
LINE
  5
1B2
330
1E
100
AcDbEntity
  8
0
 62
     7
100
AcDbLine
 10
63.0
 20
-48.3
 30
0.0
 11
63.0
 21
-49.2
 31
0.0
  0
LINE
  5
1B3
330
1E
100
AcDbEntity
  8
0
 62
     7
100
AcDbLine
 10
55.2
 20
-49.4
 30
0.0
 11
62.8
 21
-49.4
 31
0.0
  0
LINE
  5
1B4
330
1E
100
AcDbEntity
  8
0
 62
     7
100
AcDbLine
 10
62.8
 20
-49.4
 30
0.0
 11
63.0
 21
-49.2
 31
0.0
  0
LINE
  5
1B5
330
1E
100
AcDbEntity
  8
0
 62
     7
100
AcDbLine
 10
55.0
 20
-48.3
 30
0.0
 11
55.0
 21
-49.2
 31
0.0
  0
LINE
  5
1B6
330
1E
100
AcDbEntity
  8
0
 62
     7
100
AcDbLine
 10
55.2
 20
-49.4
 30
0.0
 11
55.0
 21
-49.2
 31
0.0
  0
LINE
  5
1B7
330
1E
100
AcDbEntity
  8
0
 62
     7
100
AcDbLine
 10
55.0
 20
-49.2
 30
0.0
 11
63.0
 21
-49.2
 31
0.0
  0
LINE
  5
1B8
330
1E
100
AcDbEntity
  8
0
 62
     7
100
AcDbLine
 10
63.0
 20
-48.3
 30
0.0
 11
55.0
 21
-48.3
 31
0.0
  0
LINE
  5
1B9
330
1E
100
AcDbEntity
  8
0
 62
     7
100
AcDbLine
 10
55.1
 20
-48.0
 30
0.0
 11
55.1
 21
-48.3
 31
0.0
  0
LINE
  5
1BA
330
1E
100
AcDbEntity
  8
0
 62
     7
100
AcDbLine
 10
62.9
 20
-48.0
 30
0.0
 11
62.9
 21
-48.3
 31
0.0
  0
LINE
  5
1BB
330
1E
100
AcDbEntity
  8
0
  6
CENTER
 62
     2
100
AcDbLine
 10
59.0
 20
-51.4
 30
0.0
 11
59.0
 21
-48.0
 31
0.0
  0
LINE
  5
1BC
330
1E
100
AcDbEntity
  8
0
 62
     7
100
AcDbLine
 10
85.0
 20
-48.3
 30
0.0
 11
85.0
 21
-49.2
 31
0.0
  0
LINE
  5
1BD
330
1E
100
AcDbEntity
  8
0
 62
     7
100
AcDbLine
 10
84.8
 20
-49.4
 30
0.0
 11
85.0
 21
-49.2
 31
0.0
  0
LINE
  5
1BE
330
1E
100
AcDbEntity
  8
0
 62
     7
100
AcDbLine
 10
77.0
 20
-49.2
 30
0.0
 11
85.0
 21
-49.2
 31
0.0
  0
LINE
  5
1BF
330
1E
100
AcDbEntity
  8
0
 62
     7
100
AcDbLine
 10
77.0
 20
-48.3
 30
0.0
 11
77.0
 21
-49.2
 31
0.0
  0
LINE
  5
1C0
330
1E
100
AcDbEntity
  8
0
 62
     7
100
AcDbLine
 10
77.2
 20
-49.4
 30
0.0
 11
77.0
 21
-49.2
 31
0.0
  0
LINE
  5
1C1
330
1E
100
AcDbEntity
  8
0
 62
     7
100
AcDbLine
 10
77.2
 20
-49.4
 30
0.0
 11
84.8
 21
-49.4
 31
0.0
  0
LINE
  5
1C2
330
1E
100
AcDbEntity
  8
0
 62
     7
100
AcDbLine
 10
85.0
 20
-48.3
 30
0.0
 11
77.0
 21
-48.3
 31
0.0
  0
LINE
  5
1C3
330
1E
100
AcDbEntity
  8
0
 62
     7
100
AcDbLine
 10
77.09999999999999
 20
-48.0
 30
0.0
 11
77.09999999999999
 21
-48.3
 31
0.0
  0
LINE
  5
1C4
330
1E
100
AcDbEntity
  8
0
 62
     7
100
AcDbLine
 10
84.9
 20
-48.0
 30
0.0
 11
84.9
 21
-48.3
 31
0.0
  0
LINE
  5
1C5
330
1E
100
AcDbEntity
  8
0
  6
CENTER
 62
     2
100
AcDbLine
 10
81.0
 20
-51.4
 30
0.0
 11
81.0
 21
-48.0
 31
0.0
  0
LINE
  5
1C6
330
1E
100
AcDbEntity
  8
0
 62
     7
100
AcDbLine
 10
84.9
 20
48.0
 30
0.0
 11
84.9
 21
48.3
 31
0.0
  0
LINE
  5
1C7
330
1E
100
AcDbEntity
  8
0
 62
     7
100
AcDbLine
 10
77.09999999999999
 20
48.0
 30
0.0
 11
77.09999999999999
 21
48.3
 31
0.0
  0
LINE
  5
1C8
330
1E
100
AcDbEntity
  8
0
 62
     7
100
AcDbLine
 10
85.0
 20
48.3
 30
0.0
 11
77.0
 21
48.3
 31
0.0
  0
LINE
  5
1C9
330
1E
100
AcDbEntity
  8
0
 62
     7
100
AcDbLine
 10
77.2
 20
49.4
 30
0.0
 11
84.8
 21
49.4
 31
0.0
  0
LINE
  5
1CA
330
1E
100
AcDbEntity
  8
0
 62
     7
100
AcDbLine
 10
77.2
 20
49.4
 30
0.0
 11
77.0
 21
49.2
 31
0.0
  0
LINE
  5
1CB
330
1E
100
AcDbEntity
  8
0
 62
     7
100
AcDbLine
 10
77.0
 20
48.3
 30
0.0
 11
77.0
 21
49.2
 31
0.0
  0
LINE
  5
1CC
330
1E
100
AcDbEntity
  8
0
 62
     7
100
AcDbLine
 10
77.0
 20
49.2
 30
0.0
 11
85.0
 21
49.2
 31
0.0
  0
LINE
  5
1CD
330
1E
100
AcDbEntity
  8
0
 62
     7
100
AcDbLine
 10
84.8
 20
49.4
 30
0.0
 11
85.0
 21
49.2
 31
0.0
  0
LINE
  5
1CE
330
1E
100
AcDbEntity
  8
0
 62
     7
100
AcDbLine
 10
85.0
 20
48.3
 30
0.0
 11
85.0
 21
49.2
 31
0.0
  0
LINE
  5
1CF
330
1E
100
AcDbEntity
  8
0
  6
CENTER
 62
     2
100
AcDbLine
 10
81.0
 20
51.4
 30
0.0
 11
81.0
 21
48.0
 31
0.0
  0
LINE
  5
1D0
330
1E
100
AcDbEntity
  8
0
 62
     7
100
AcDbLine
 10
43.0
 20
24.5
 30
0.0
 11
43.0
 21
-24.5
 31
0.0
  0
LINE
  5
1D1
330
1E
100
AcDbEntity
  8
0
 62
     7
100
AcDbLine
 10
87.0
 20
48.0
 30
0.0
 11
87.0
 21
-48.0
 31
0.0
  0
LINE
  5
1D2
330
1E
100
AcDbEntity
  8
0
 62
     7
100
AcDbLine
 10
85.5
 20
48.0
 30
0.0
 11
85.5
 21
-48.0
 31
0.0
  0
LINE
  5
1D3
330
1E
100
AcDbEntity
  8
0
 62
     7
100
AcDbLine
 10
72.40000000000001
 20
-48.0
 30
0.0
 11
72.40000000000001
 21
48.0
 31
0.0
  0
LINE
  5
1D4
330
1E
100
AcDbEntity
  8
0
 62
     7
100
AcDbLine
 10
75.59999999999999
 20
-48.0
 30
0.0
 11
75.59999999999999
 21
48.0
 31
0.0
  0
LINE
  5
1D5
330
1E
100
AcDbEntity
  8
0
 62
     7
100
AcDbLine
 10
67.59999999999999
 20
-48.0
 30
0.0
 11
67.59999999999999
 21
48.0
 31
0.0
  0
LINE
  5
1D6
330
1E
100
AcDbEntity
  8
0
 62
     7
100
AcDbLine
 10
64.40000000000001
 20
-48.0
 30
0.0
 11
64.40000000000001
 21
48.0
 31
0.0
  0
CIRCLE
  5
1D7
330
1E
100
AcDbEntity
  8
0
 62
     7
100
AcDbCircle
 10
81.0
 20
-37.5
 30
0.0
 40
2.1
  0
CIRCLE
  5
1D8
330
1E
100
AcDbEntity
  8
0
 62
     2
100
AcDbCircle
 10
81.0
 20
-37.5
 30
0.0
 40
2.5
  0
LINE
  5
1D9
330
1E
100
AcDbEntity
  8
0
  6
CENTER
 62
     2
100
AcDbLine
 10
81.0
 20
-33.0
 30
0.0
 11
81.0
 21
-42.0
 31
0.0
  0
LINE
  5
1DA
330
1E
100
AcDbEntity
  8
0
  6
CENTER
 62
     2
100
AcDbLine
 10
85.5
 20
-37.5
 30
0.0
 11
76.5
 21
-37.5
 31
0.0
  0
CIRCLE
  5
1DB
330
1E
100
AcDbEntity
  8
0
 62
     7
100
AcDbCircle
 10
59.0
 20
37.5
 30
0.0
 40
2.1
  0
CIRCLE
  5
1DC
330
1E
100
AcDbEntity
  8
0
 62
     2
100
AcDbCircle
 10
59.0
 20
37.5
 30
0.0
 40
2.5
  0
LINE
  5
1DD
330
1E
100
AcDbEntity
  8
0
  6
CENTER
 62
     2
100
AcDbLine
 10
59.0
 20
33.0
 30
0.0
 11
59.0
 21
42.0
 31
0.0
  0
LINE
  5
1DE
330
1E
100
AcDbEntity
  8
0
  6
CENTER
 62
     2
100
AcDbLine
 10
54.5
 20
37.5
 30
0.0
 11
63.5
 21
37.5
 31
0.0
  0
LINE
  5
1DF
330
1E
100
AcDbEntity
  8
0
 62
     7
100
AcDbLine
 10
54.5
 20
-25.0
 30
0.0
 11
54.5
 21
-48.0
 31
0.0
  0
LINE
  5
1E0
330
1E
100
AcDbEntity
  8
0
 62
     7
100
AcDbLine
 10
53.0
 20
-25.0
 30
0.0
 11
53.0
 21
-48.0
 31
0.0
  0
LINE
  5
1E1
330
1E
100
AcDbEntity
  8
0
 62
     7
100
AcDbLine
 10
54.5
 20
25.0
 30
0.0
 11
54.5
 21
48.0
 31
0.0
  0
LINE
  5
1E2
330
1E
100
AcDbEntity
  8
0
 62
     7
100
AcDbLine
 10
53.0
 20
25.0
 30
0.0
 11
53.0
 21
48.0
 31
0.0
  0
LINE
  5
1E3
330
1E
100
AcDbEntity
  8
0
  6
CENTER
 62
     2
100
AcDbLine
 10
35.0
 20
0.0
 30
0.0
 11
91.0
 21
0.0
 31
0.0
  0
LINE
  5
1E4
330
1E
100
AcDbEntity
  8
0
 62
     7
100
AcDbLine
 10
52.99998470000001
 20
-48.0
 30
0.0
 11
87.0
 21
-48.0
 31
0.0
  0
LINE
  5
1E5
330
1E
100
AcDbEntity
  8
0
 62
     7
100
AcDbLine
 10
53.0
 20
48.0
 30
0.0
 11
87.0
 21
48.0
 31
0.0
  0
LINE
  5
1E6
330
1E
100
AcDbEntity
  8
0
  6
CENTER
 62
     2
100
AcDbLine
 10
70.0
 20
-52.0
 30
0.0
 11
70.0
 21
52.0
 31
0.0
  0
LINE
  5
1E7
330
1E
100
AcDbEntity
  8
0
 62
     7
100
AcDbLine
 10
44.0
 20
25.0
 30
0.0
 11
44.0
 21
-25.0
 31
0.0
  0
LINE
  5
1E8
330
1E
100
AcDbEntity
  8
0
 62
     7
100
AcDbLine
 10
39.0
 20
-24.5
 30
0.0
 11
39.0
 21
24.5
 31
0.0
  0
LINE
  5
1E9
330
1E
100
AcDbEntity
  8
0
  6
CENTER
 62
     2
100
AcDbLine
 10
43.5
 20
17.5
 30
0.0
 11
57.5
 21
17.5
 31
0.0
  0
LINE
  5
1EA
330
1E
100
AcDbEntity
  8
0
  6
CENTER
 62
     2
100
AcDbLine
 10
50.5
 20
10.5
 30
0.0
 11
50.5
 21
24.5
 31
0.0
  0
LINE
  5
1EB
330
1E
100
AcDbEntity
  8
0
 62
     7
100
AcDbLine
 10
55.5
 20
20.3867513
 30
0.0
 11
50.5
 21
23.2735027
 31
0.0
  0
LINE
  5
1EC
330
1E
100
AcDbEntity
  8
0
 62
     7
100
AcDbLine
 10
50.5
 20
23.2735027
 30
0.0
 11
45.49999999999999
 21
20.3867513
 31
0.0
  0
CIRCLE
  5
1ED
330
1E
100
AcDbEntity
  8
0
 62
     7
100
AcDbCircle
 10
50.5
 20
17.5
 30
0.0
 40
5.0
  0
CIRCLE
  5
1EE
330
1E
100
AcDbEntity
  8
0
 62
     7
100
AcDbCircle
 10
50.5
 20
17.5
 30
0.0
 40
2.5
  0
ARC
  5
1EF
330
1E
100
AcDbEntity
  8
0
 62
     2
100
AcDbCircle
 10
50.5
 20
17.5
 30
0.0
 40
3.6
100
AcDbArc
 50
13.53620269999999
 51
166.463797
  0
LINE
  5
1F0
330
1E
100
AcDbEntity
  8
0
 62
     7
100
AcDbLine
 10
55.5
 20
14.6132487
 30
0.0
 11
55.5
 21
20.3867513
 31
0.0
  0
LINE
  5
1F1
330
1E
100
AcDbEntity
  8
0
 62
     7
100
AcDbLine
 10
50.5
 20
11.7264973
 30
0.0
 11
55.5
 21
14.6132487
 31
0.0
  0
LINE
  5
1F2
330
1E
100
AcDbEntity
  8
0
 62
     7
100
AcDbLine
 10
45.49999999999999
 20
14.6132487
 30
0.0
 11
50.5
 21
11.7264973
 31
0.0
  0
LINE
  5
1F3
330
1E
100
AcDbEntity
  8
0
 62
     7
100
AcDbLine
 10
45.49999999999999
 20
20.3867513
 30
0.0
 11
45.49999999999999
 21
14.6132487
 31
0.0
  0
CIRCLE
  5
1F4
330
1E
100
AcDbEntity
  8
0
 62
     7
100
AcDbCircle
 10
50.5
 20
17.5
 30
0.0
 40
4.0
  0
CIRCLE
  5
1F5
330
1E
100
AcDbEntity
  8
0
 62
     7
100
AcDbCircle
 10
50.5
 20
17.5
 30
0.0
 40
3.399999999999999
  0
LINE
  5
1F6
330
1E
100
AcDbEntity
  8
0
 62
     7
100
AcDbLine
 10
47.0
 20
15.5635083
 30
0.0
 11
47.0
 21
19.43649169999999
 31
0.0
  0
LINE
  5
1F7
330
1E
100
AcDbEntity
  8
0
 62
     7
100
AcDbLine
 10
54.0
 20
15.5635083
 30
0.0
 11
54.0
 21
19.43649169999999
 31
0.0
  0
ARC
  5
1F8
330
1E
100
AcDbEntity
  8
0
 62
     2
100
AcDbCircle
 10
50.5
 20
17.5
 30
0.0
 40
3.6
100
AcDbArc
 50
193.536203
 51
346.463797
  0
LINE
  5
1F9
330
1E
100
AcDbEntity
  8
0
  6
CENTER
 62
     2
100
AcDbLine
 10
43.5
 20
-17.5
 30
0.0
 11
57.5
 21
-17.5
 31
0.0
  0
LINE
  5
1FA
330
1E
100
AcDbEntity
  8
0
  6
CENTER
 62
     2
100
AcDbLine
 10
50.5
 20
-10.5
 30
0.0
 11
50.5
 21
-24.5
 31
0.0
  0
LINE
  5
1FB
330
1E
100
AcDbEntity
  8
0
 62
     7
100
AcDbLine
 10
55.5
 20
-20.3867513
 30
0.0
 11
50.5
 21
-23.2735027
 31
0.0
  0
CIRCLE
  5
1FC
330
1E
100
AcDbEntity
  8
0
 62
     7
100
AcDbCircle
 10
50.5
 20
-17.5
 30
0.0
 40
5.0
  0
LINE
  5
1FD
330
1E
100
AcDbEntity
  8
0
 62
     7
100
AcDbLine
 10
50.5
 20
-11.7264973
 30
0.0
 11
55.5
 21
-14.6132487
 31
0.0
  0
ARC
  5
1FE
330
1E
100
AcDbEntity
  8
0
 62
     2
100
AcDbCircle
 10
50.5
 20
-17.5
 30
0.0
 40
3.6
100
AcDbArc
 50
13.53620269999999
 51
166.463797
  0
LINE
  5
1FF
330
1E
100
AcDbEntity
  8
0
 62
     7
100
AcDbLine
 10
54.0
 20
-15.5635083
 30
0.0
 11
54.0
 21
-19.43649169999999
 31
0.0
  0
LINE
  5
200
330
1E
100
AcDbEntity
  8
0
 62
     7
100
AcDbLine
 10
47.0
 20
-15.5635083
 30
0.0
 11
47.0
 21
-19.43649169999999
 31
0.0
  0
CIRCLE
  5
201
330
1E
100
AcDbEntity
  8
0
 62
     7
100
AcDbCircle
 10
50.5
 20
-17.5
 30
0.0
 40
3.399999999999999
  0
CIRCLE
  5
202
330
1E
100
AcDbEntity
  8
0
 62
     7
100
AcDbCircle
 10
50.5
 20
-17.5
 30
0.0
 40
4.0
  0
LINE
  5
203
330
1E
100
AcDbEntity
  8
0
 62
     7
100
AcDbLine
 10
45.49999999999999
 20
-20.3867513
 30
0.0
 11
45.49999999999999
 21
-14.6132487
 31
0.0
  0
LINE
  5
204
330
1E
100
AcDbEntity
  8
0
 62
     7
100
AcDbLine
 10
45.49999999999999
 20
-14.6132487
 30
0.0
 11
50.5
 21
-11.7264973
 31
0.0
  0
ARC
  5
205
330
1E
100
AcDbEntity
  8
0
 62
     2
100
AcDbCircle
 10
50.5
 20
-17.5
 30
0.0
 40
3.6
100
AcDbArc
 50
193.536203
 51
346.463797
  0
CIRCLE
  5
206
330
1E
100
AcDbEntity
  8
0
 62
     7
100
AcDbCircle
 10
50.5
 20
-17.5
 30
0.0
 40
2.5
  0
LINE
  5
207
330
1E
100
AcDbEntity
  8
0
 62
     7
100
AcDbLine
 10
50.5
 20
-23.2735027
 30
0.0
 11
45.49999999999999
 21
-20.3867513
 31
0.0
  0
LINE
  5
208
330
1E
100
AcDbEntity
  8
0
 62
     7
100
AcDbLine
 10
55.5
 20
-14.6132487
 30
0.0
 11
55.5
 21
-20.3867513
 31
0.0
  0
LINE
  5
209
330
1E
100
AcDbEntity
  8
0
 62
     7
100
AcDbLine
 10
-97.1
 20
133.0
 30
0.0
 11
-97.1
 21
125.0
 31
0.0
  0
LINE
  5
20A
330
1E
100
AcDbEntity
  8
0
 62
     7
100
AcDbLine
 10
-98.2
 20
125.2
 30
0.0
 11
-98.2
 21
132.8
 31
0.0
  0
LINE
  5
20B
330
1E
100
AcDbEntity
  8
0
 62
     7
100
AcDbLine
 10
-98.2
 20
125.2
 30
0.0
 11
-98.0
 21
125.0
 31
0.0
  0
LINE
  5
20C
330
1E
100
AcDbEntity
  8
0
 62
     7
100
AcDbLine
 10
-97.1
 20
125.0
 30
0.0
 11
-98.0
 21
125.0
 31
0.0
  0
LINE
  5
20D
330
1E
100
AcDbEntity
  8
0
 62
     7
100
AcDbLine
 10
-98.0
 20
125.0
 30
0.0
 11
-98.0
 21
133.0
 31
0.0
  0
LINE
  5
20E
330
1E
100
AcDbEntity
  8
0
 62
     7
100
AcDbLine
 10
-98.2
 20
132.8
 30
0.0
 11
-98.0
 21
133.0
 31
0.0
  0
LINE
  5
20F
330
1E
100
AcDbEntity
  8
0
 62
     7
100
AcDbLine
 10
-97.1
 20
133.0
 30
0.0
 11
-98.0
 21
133.0
 31
0.0
  0
LINE
  5
210
330
1E
100
AcDbEntity
  8
0
 62
     7
100
AcDbLine
 10
-97.1
 20
125.0999999999999
 30
0.0
 11
-96.5
 21
125.0999999999999
 31
0.0
  0
LINE
  5
211
330
1E
100
AcDbEntity
  8
0
 62
     7
100
AcDbLine
 10
-97.1
 20
132.9
 30
0.0
 11
-96.5
 21
132.9
 31
0.0
  0
LINE
  5
212
330
1E
100
AcDbEntity
  8
0
  6
CENTER
 62
     2
100
AcDbLine
 10
-100.2
 20
129.0
 30
0.0
 11
-96.5
 21
129.0
 31
0.0
  0
LINE
  5
213
330
1E
100
AcDbEntity
  8
0
 62
     7
100
AcDbLine
 10
-97.1
 20
147.0
 30
0.0
 11
-98.0
 21
147.0
 31
0.0
  0
LINE
  5
214
330
1E
100
AcDbEntity
  8
0
 62
     7
100
AcDbLine
 10
-98.2
 20
147.1999999999999
 30
0.0
 11
-98.0
 21
147.0
 31
0.0
  0
LINE
  5
215
330
1E
100
AcDbEntity
  8
0
 62
     7
100
AcDbLine
 10
-97.1
 20
155.0
 30
0.0
 11
-98.0
 21
155.0
 31
0.0
  0
LINE
  5
216
330
1E
100
AcDbEntity
  8
0
 62
     7
100
AcDbLine
 10
-98.2
 20
154.8
 30
0.0
 11
-98.0
 21
155.0
 31
0.0
  0
LINE
  5
217
330
1E
100
AcDbEntity
  8
0
 62
     7
100
AcDbLine
 10
-98.2
 20
147.1999999999999
 30
0.0
 11
-98.2
 21
154.8
 31
0.0
  0
LINE
  5
218
330
1E
100
AcDbEntity
  8
0
 62
     7
100
AcDbLine
 10
-98.0
 20
147.0
 30
0.0
 11
-98.0
 21
155.0
 31
0.0
  0
LINE
  5
219
330
1E
100
AcDbEntity
  8
0
 62
     7
100
AcDbLine
 10
-97.1
 20
147.0
 30
0.0
 11
-97.1
 21
155.0
 31
0.0
  0
LINE
  5
21A
330
1E
100
AcDbEntity
  8
0
  6
CENTER
 62
     2
100
AcDbLine
 10
-96.5
 20
151.0
 30
0.0
 11
-100.2
 21
151.0
 31
0.0
  0
LINE
  5
21B
330
1E
100
AcDbEntity
  8
0
 62
     7
100
AcDbLine
 10
-96.5
 20
154.9
 30
0.0
 11
-97.1
 21
154.9
 31
0.0
  0
LINE
  5
21C
330
1E
100
AcDbEntity
  8
0
 62
     7
100
AcDbLine
 10
-96.5
 20
147.0999999999999
 30
0.0
 11
-97.1
 21
147.0999999999999
 31
0.0
  0
LINE
  5
21D
330
1E
100
AcDbEntity
  8
0
 62
     7
100
AcDbLine
 10
-45.49999999999999
 20
113.0
 30
0.0
 11
-94.50000000000001
 21
113.0
 31
0.0
  0
LINE
  5
21E
330
1E
100
AcDbEntity
  8
0
 62
     7
100
AcDbLine
 10
-45.49999999999999
 20
109.0
 30
0.0
 11
-45.49999999999999
 21
113.0
 31
0.0
  0
LINE
  5
21F
330
1E
100
AcDbEntity
  8
0
 62
     7
100
AcDbLine
 10
-94.50000000000001
 20
113.0
 30
0.0
 11
-94.50000000000001
 21
109.0
 31
0.0
  0
LINE
  5
220
330
1E
100
AcDbEntity
  8
0
  6
CENTER
 62
     2
100
AcDbLine
 10
-70.0
 20
105.0
 30
0.0
 11
-70.0
 21
161.0
 31
0.0
  0
LINE
  5
221
330
1E
100
AcDbEntity
  8
0
 62
     7
100
AcDbLine
 10
-43.05340029999999
 20
120.5
 30
0.0
 11
-41.94659620000001
 21
120.5
 31
0.0
  0
LINE
  5
222
330
1E
100
AcDbEntity
  8
0
 62
     7
100
AcDbLine
 10
-41.5
 20
125.5
 30
0.0
 11
-41.5
 21
115.5
 31
0.0
  0
LINE
  5
223
330
1E
100
AcDbEntity
  8
0
 62
     7
100
AcDbLine
 10
-43.5
 20
115.5
 30
0.0
 11
-41.5
 21
115.5
 31
0.0
  0
LINE
  5
224
330
1E
100
AcDbEntity
  8
0
 62
     7
100
AcDbLine
 10
-43.49997759999999
 20
125.5
 30
0.0
 11
-41.5
 21
125.5
 31
0.0
  0
LINE
  5
225
330
1E
100
AcDbEntity
  8
0
 62
     7
100
AcDbLine
 10
-83.0
 20
157.0
 30
0.0
 11
-95.0
 21
157.0
 31
0.0
  0
LINE
  5
226
330
1E
100
AcDbEntity
  8
0
 62
     7
100
AcDbLine
 10
-83.0
 20
157.0
 30
0.0
 11
-82.5
 21
156.4999999999999
 31
0.0
  0
LINE
  5
227
330
1E
100
AcDbEntity
  8
0
 62
     7
100
AcDbLine
 10
-57.0
 20
157.0
 30
0.0
 11
-57.5
 21
156.4999999999999
 31
0.0
  0
LINE
  5
228
330
1E
100
AcDbEntity
  8
0
 62
     7
100
AcDbLine
 10
-57.5
 20
156.4999999999999
 30
0.0
 11
-82.5
 21
156.4999999999999
 31
0.0
  0
LINE
  5
229
330
1E
100
AcDbEntity
  8
0
 62
     7
100
AcDbLine
 10
-95.0
 20
157.0
 30
0.0
 11
-96.5
 21
155.4999999999999
 31
0.0
  0
LINE
  5
22A
330
1E
100
AcDbEntity
  8
0
 62
     7
100
AcDbLine
 10
-43.5
 20
155.4999999999999
 30
0.0
 11
-45.0
 21
157.0
 31
0.0
  0
LINE
  5
22B
330
1E
100
AcDbEntity
  8
0
 62
     7
100
AcDbLine
 10
-45.0
 20
157.0
 30
0.0
 11
-57.0
 21
157.0
 31
0.0
  0
LINE
  5
22C
330
1E
100
AcDbEntity
  8
0
 62
     7
100
AcDbLine
 10
-44.20000029999999
 20
142.4
 30
0.0
 11
-44.42500029999999
 21
142.4
 31
0.0
  0
LINE
  5
22D
330
1E
100
AcDbEntity
  8
0
 62
     7
100
AcDbLine
 10
-43.90000029999999
 20
145.5999999999999
 30
0.0
 11
-44.42500029999999
 21
145.5999999999999
 31
0.0
  0
LINE
  5
22E
330
1E
100
AcDbEntity
  8
0
 62
     7
100
AcDbLine
 10
-46.52500029999999
 20
141.925
 30
0.0
 11
-44.9000003
 21
141.925
 31
0.0
  0
LINE
  5
22F
330
1E
100
AcDbEntity
  8
0
 62
     7
100
AcDbLine
 10
-44.9000003
 20
141.925
 30
0.0
 11
-44.42500029999999
 21
142.4
 31
0.0
  0
ARC
  5
230
330
1E
100
AcDbEntity
  8
0
 62
     7
100
AcDbCircle
 10
-44.20000029999999
 20
142.1
 30
0.0
 40
0.3
100
AcDbArc
 50
0.0
 51
90.00000020000001
  0
LINE
  5
231
330
1E
100
AcDbEntity
  8
0
 62
     7
100
AcDbLine
 10
-44.9000003
 20
146.0749999999999
 30
0.0
 11
-44.42500029999999
 21
145.5999999999999
 31
0.0
  0
LINE
  5
232
330
1E
100
AcDbEntity
  8
0
 62
     7
100
AcDbLine
 10
-43.90000029999999
 20
145.5999999999999
 30
0.0
 11
-43.50000029999999
 21
146.0
 31
0.0
  0
ARC
  5
233
330
1E
100
AcDbEntity
  8
0
 62
     7
100
AcDbCircle
 10
-44.20000029999999
 20
137.9
 30
0.0
 40
0.3
100
AcDbArc
 50
270.0
 51
0.0
  0
LINE
  5
234
330
1E
100
AcDbEntity
  8
0
 62
     7
100
AcDbLine
 10
-43.90000029999999
 20
142.1
 30
0.0
 11
-43.90000029999999
 21
137.9
 31
0.0
  0
LINE
  5
235
330
1E
100
AcDbEntity
  8
0
 62
     7
100
AcDbLine
 10
-44.9000003
 20
138.0749999999999
 30
0.0
 11
-44.42500029999999
 21
137.5999999999999
 31
0.0
  0
LINE
  5
236
330
1E
100
AcDbEntity
  8
0
 62
     7
100
AcDbLine
 10
-44.9000003
 20
133.925
 30
0.0
 11
-44.42500029999999
 21
134.4
 31
0.0
  0
LINE
  5
237
330
1E
100
AcDbEntity
  8
0
 62
     7
100
AcDbLine
 10
-46.52500029999999
 20
133.925
 30
0.0
 11
-44.9000003
 21
133.925
 31
0.0
  0
LINE
  5
238
330
1E
100
AcDbEntity
  8
0
 62
     7
100
AcDbLine
 10
-46.52500029999999
 20
138.0749999999999
 30
0.0
 11
-44.9000003
 21
138.0749999999999
 31
0.0
  0
LINE
  5
239
330
1E
100
AcDbEntity
  8
0
 62
     7
100
AcDbLine
 10
-43.90000029999999
 20
134.4
 30
0.0
 11
-43.50000029999999
 21
134.0
 31
0.0
  0
LINE
  5
23A
330
1E
100
AcDbEntity
  8
0
 62
     7
100
AcDbLine
 10
-43.90000029999999
 20
134.4
 30
0.0
 11
-44.42500029999999
 21
134.4
 31
0.0
  0
LINE
  5
23B
330
1E
100
AcDbEntity
  8
0
 62
     7
100
AcDbLine
 10
-44.20000029999999
 20
137.5999999999999
 30
0.0
 11
-44.42500029999999
 21
137.5999999999999
 31
0.0
  0
LINE
  5
23C
330
1E
100
AcDbEntity
  8
0
 62
     7
100
AcDbLine
 10
-46.52500029999999
 20
146.0749999999999
 30
0.0
 11
-44.87499999999999
 21
146.074993
 31
0.0
  0
LINE
  5
23D
330
1E
100
AcDbEntity
  8
0
 62
     7
100
AcDbLine
 10
-43.5
 20
134.0
 30
0.0
 11
-43.5
 21
114.0
 31
0.0
  0
LINE
  5
23E
330
1E
100
AcDbEntity
  8
0
 62
     7
100
AcDbLine
 10
-43.5
 20
155.4999999999999
 30
0.0
 11
-43.5
 21
146.0
 31
0.0
  0
ARC
  5
23F
330
1E
100
AcDbEntity
  8
0
 62
     7
100
AcDbCircle
 10
-46.52500029999999
 20
144.0
 30
0.0
 40
2.075
100
AcDbArc
 50
90.00000020000001
 51
270.0
  0
LINE
  5
240
330
1E
100
AcDbEntity
  8
0
  6
CENTER
 62
     2
100
AcDbLine
 10
-50.0470131
 20
144.0
 30
0.0
 11
-41.5000003
 21
144.0
 31
0.0
  0
ARC
  5
241
330
1E
100
AcDbEntity
  8
0
 62
     7
100
AcDbCircle
 10
-46.52500029999999
 20
136.0
 30
0.0
 40
2.075
100
AcDbArc
 50
90.00000020000001
 51
270.0
  0
LINE
  5
242
330
1E
100
AcDbEntity
  8
0
  6
CENTER
 62
     2
100
AcDbLine
 10
-50.0470131
 20
136.0
 30
0.0
 11
-41.5000003
 21
136.0
 31
0.0
  0
LINE
  5
243
330
1E
100
AcDbEntity
  8
0
 62
     7
100
AcDbLine
 10
-93.47499969999999
 20
146.0749999999999
 30
0.0
 11
-95.12500000000001
 21
146.074993
 31
0.0
  0
LINE
  5
244
330
1E
100
AcDbEntity
  8
0
 62
     7
100
AcDbLine
 10
-95.79999970000001
 20
137.5999999999999
 30
0.0
 11
-95.5749997
 21
137.5999999999999
 31
0.0
  0
LINE
  5
245
330
1E
100
AcDbEntity
  8
0
 62
     7
100
AcDbLine
 10
-96.0999997
 20
134.4
 30
0.0
 11
-95.5749997
 21
134.4
 31
0.0
  0
LINE
  5
246
330
1E
100
AcDbEntity
  8
0
 62
     7
100
AcDbLine
 10
-96.0999997
 20
134.4
 30
0.0
 11
-96.49999970000001
 21
134.0
 31
0.0
  0
LINE
  5
247
330
1E
100
AcDbEntity
  8
0
 62
     7
100
AcDbLine
 10
-93.47499969999999
 20
138.0749999999999
 30
0.0
 11
-95.0999997
 21
138.0749999999999
 31
0.0
  0
LINE
  5
248
330
1E
100
AcDbEntity
  8
0
 62
     7
100
AcDbLine
 10
-93.47499969999999
 20
133.925
 30
0.0
 11
-95.0999997
 21
133.925
 31
0.0
  0
LINE
  5
249
330
1E
100
AcDbEntity
  8
0
 62
     7
100
AcDbLine
 10
-95.0999997
 20
133.925
 30
0.0
 11
-95.5749997
 21
134.4
 31
0.0
  0
LINE
  5
24A
330
1E
100
AcDbEntity
  8
0
 62
     7
100
AcDbLine
 10
-95.0999997
 20
138.0749999999999
 30
0.0
 11
-95.5749997
 21
137.5999999999999
 31
0.0
  0
LINE
  5
24B
330
1E
100
AcDbEntity
  8
0
 62
     7
100
AcDbLine
 10
-96.0999997
 20
137.9
 30
0.0
 11
-96.0999997
 21
142.1
 31
0.0
  0
ARC
  5
24C
330
1E
100
AcDbEntity
  8
0
 62
     7
100
AcDbCircle
 10
-95.79999970000001
 20
137.9
 30
0.0
 40
0.3
100
AcDbArc
 50
180.0
 51
270.0
  0
LINE
  5
24D
330
1E
100
AcDbEntity
  8
0
 62
     7
100
AcDbLine
 10
-96.0999997
 20
145.5999999999999
 30
0.0
 11
-96.49999970000001
 21
146.0
 31
0.0
  0
LINE
  5
24E
330
1E
100
AcDbEntity
  8
0
 62
     7
100
AcDbLine
 10
-95.0999997
 20
146.0749999999999
 30
0.0
 11
-95.5749997
 21
145.5999999999999
 31
0.0
  0
ARC
  5
24F
330
1E
100
AcDbEntity
  8
0
 62
     7
100
AcDbCircle
 10
-95.79999970000001
 20
142.1
 30
0.0
 40
0.3
100
AcDbArc
 50
90.00000020000001
 51
180.0
  0
LINE
  5
250
330
1E
100
AcDbEntity
  8
0
 62
     7
100
AcDbLine
 10
-95.0999997
 20
141.925
 30
0.0
 11
-95.5749997
 21
142.4
 31
0.0
  0
LINE
  5
251
330
1E
100
AcDbEntity
  8
0
 62
     7
100
AcDbLine
 10
-93.47499969999999
 20
141.925
 30
0.0
 11
-95.0999997
 21
141.925
 31
0.0
  0
LINE
  5
252
330
1E
100
AcDbEntity
  8
0
 62
     7
100
AcDbLine
 10
-96.0999997
 20
145.5999999999999
 30
0.0
 11
-95.5749997
 21
145.5999999999999
 31
0.0
  0
LINE
  5
253
330
1E
100
AcDbEntity
  8
0
 62
     7
100
AcDbLine
 10
-95.79999970000001
 20
142.4
 30
0.0
 11
-95.5749997
 21
142.4
 31
0.0
  0
LINE
  5
254
330
1E
100
AcDbEntity
  8
0
 62
     7
100
AcDbLine
 10
-96.5
 20
134.0
 30
0.0
 11
-96.5
 21
124.5
 31
0.0
  0
LINE
  5
255
330
1E
100
AcDbEntity
  8
0
 62
     7
100
AcDbLine
 10
-96.5
 20
155.4999999999999
 30
0.0
 11
-96.5
 21
146.0
 31
0.0
  0
ARC
  5
256
330
1E
100
AcDbEntity
  8
0
 62
     7
100
AcDbCircle
 10
-93.47499969999999
 20
144.0
 30
0.0
 40
2.075
100
AcDbArc
 50
270.0
 51
90.00000020000001
  0
LINE
  5
257
330
1E
100
AcDbEntity
  8
0
  6
CENTER
 62
     2
100
AcDbLine
 10
-89.95298690000002
 20
144.0
 30
0.0
 11
-98.4999997
 21
144.0
 31
0.0
  0
ARC
  5
258
330
1E
100
AcDbEntity
  8
0
 62
     7
100
AcDbCircle
 10
-93.47499969999999
 20
136.0
 30
0.0
 40
2.075
100
AcDbArc
 50
270.0
 51
90.00000020000001
  0
LINE
  5
259
330
1E
100
AcDbEntity
  8
0
  6
CENTER
 62
     2
100
AcDbLine
 10
-89.95298690000002
 20
136.0
 30
0.0
 11
-98.4999997
 21
136.0
 31
0.0
  0
CIRCLE
  5
25A
330
1E
100
AcDbEntity
  8
0
 62
     7
100
AcDbCircle
 10
-55.9266968
 20
147.7377399999999
 30
0.0
 40
0.472222209
  0
CIRCLE
  5
25B
330
1E
100
AcDbEntity
  8
0
 62
     7
100
AcDbCircle
 10
-60.07333370000001
 20
147.7377399999999
 30
0.0
 40
0.472222209
  0
ARC
  5
25C
330
1E
100
AcDbEntity
  8
0
 62
     7
100
AcDbCircle
 10
-60.07333370000001
 20
147.7377399999999
 30
0.0
 40
1.0
100
AcDbArc
 50
199.721051
 51
41.2207021
  0
ARC
  5
25D
330
1E
100
AcDbEntity
  8
0
 62
     7
100
AcDbCircle
 10
-55.9266968
 20
147.7377399999999
 30
0.0
 40
1.0
100
AcDbArc
 50
138.779385
 51
340.2789809999999
  0
LINE
  5
25E
330
1E
100
AcDbEntity
  8
0
  6
CENTER
 62
     2
100
AcDbLine
 10
-58.0
 20
150.5
 30
0.0
 11
-58.0
 21
129.4999999999999
 31
0.0
  0
CIRCLE
  5
25F
330
1E
100
AcDbEntity
  8
0
 62
     7
100
AcDbCircle
 10
-58.0
 20
140.0
 30
0.0
 40
8.5
  0
ARC
  5
260
330
1E
100
AcDbEntity
  8
0
 62
     7
100
AcDbCircle
 10
-58.0
 20
140.4722209999999
 30
0.0
 40
7.555555339999999
100
AcDbArc
 50
113.0935709999999
 51
66.9065025
  0
LINE
  5
261
330
1E
100
AcDbEntity
  8
0
 62
     7
100
AcDbLine
 10
-95.0
 20
123.0
 30
0.0
 11
-96.5
 21
124.5
 31
0.0
  0
LINE
  5
262
330
1E
100
AcDbEntity
  8
0
 62
     7
100
AcDbLine
 10
-43.5
 20
123.0
 30
0.0
 11
-95.0
 21
123.0
 31
0.0
  0
LINE
  5
263
330
1E
100
AcDbEntity
  8
0
 62
     7
100
AcDbLine
 10
-95.0
 20
114.0
 30
0.0
 11
-95.0
 21
123.0
 31
0.0
  0
LINE
  5
264
330
1E
100
AcDbEntity
  8
0
 62
     7
100
AcDbLine
 10
-43.4999619
 20
114.0
 30
0.0
 11
-95.0
 21
114.0
 31
0.0
  0
LINE
  5
265
330
1E
100
AcDbEntity
  8
0
 62
     7
100
AcDbLine
 10
-47.5
 20
113.0
 30
0.0
 11
-47.5
 21
113.9999959999999
 31
0.0
  0
LINE
  5
266
330
1E
100
AcDbEntity
  8
0
  6
CENTER
 62
     2
100
AcDbLine
 10
-82.0
 20
150.5
 30
0.0
 11
-82.0
 21
129.4999999999999
 31
0.0
  0
LINE
  5
267
330
1E
100
AcDbEntity
  8
0
  6
CENTER
 62
     2
100
AcDbLine
 10
-92.5
 20
140.0
 30
0.0
 11
-47.5
 21
140.0
 31
0.0
  0
LINE
  5
268
330
1E
100
AcDbEntity
  8
0
 62
     7
100
AcDbLine
 10
-94.50000000000001
 20
109.0
 30
0.0
 11
-45.49999999999999
 21
109.0
 31
0.0
  0
LINE
  5
269
330
1E
100
AcDbEntity
  8
0
 62
     7
100
AcDbLine
 10
-92.5
 20
113.9999959999999
 30
0.0
 11
-92.5
 21
113.0
 31
0.0
  0
ARC
  5
26A
330
1E
100
AcDbEntity
  8
0
 62
     7
100
AcDbCircle
 10
-84.07330319999999
 20
147.7377399999999
 30
0.0
 40
1.0
100
AcDbArc
 50
199.721019
 51
41.2206151
  0
ARC
  5
26B
330
1E
100
AcDbEntity
  8
0
 62
     7
100
AcDbCircle
 10
-79.92666629999999
 20
147.7377399999999
 30
0.0
 40
1.0
100
AcDbArc
 50
138.779298
 51
340.2789489999999
  0
CIRCLE
  5
26C
330
1E
100
AcDbEntity
  8
0
 62
     7
100
AcDbCircle
 10
-82.0
 20
140.0
 30
0.0
 40
8.5
  0
ARC
  5
26D
330
1E
100
AcDbEntity
  8
0
 62
     7
100
AcDbCircle
 10
-82.0
 20
140.4722209999999
 30
0.0
 40
7.555555339999999
100
AcDbArc
 50
113.0934969999999
 51
66.90642920000001
  0
CIRCLE
  5
26E
330
1E
100
AcDbEntity
  8
0
 62
     7
100
AcDbCircle
 10
-79.92666629999999
 20
147.7377399999999
 30
0.0
 40
0.472222209
  0
CIRCLE
  5
26F
330
1E
100
AcDbEntity
  8
0
 62
     7
100
AcDbCircle
 10
-84.07330319999999
 20
147.7377399999999
 30
0.0
 40
0.472222209
  0
LINE
  5
270
330
1E
100
AcDbEntity
  8
0
  6
CENTER
 62
     2
100
AcDbLine
 10
-89.50000000000001
 20
157.2499999999999
 30
0.0
 11
-89.50000000000001
 21
144.7499999999999
 31
0.0
  0
LINE
  5
271
330
1E
100
AcDbEntity
  8
0
  6
CENTER
 62
     2
100
AcDbLine
 10
-83.25000000000001
 20
151.0
 30
0.0
 11
-95.75000000000001
 21
151.0
 31
0.0
  0
CIRCLE
  5
272
330
1E
100
AcDbEntity
  8
0
 62
     7
100
AcDbCircle
 10
-89.50000000000001
 20
151.0
 30
0.0
 40
4.25
  0
CIRCLE
  5
273
330
1E
100
AcDbEntity
  8
0
 62
     7
100
AcDbCircle
 10
-89.50000000000001
 20
151.0
 30
0.0
 40
4.0
  0
LINE
  5
274
330
1E
100
AcDbEntity
  8
0
 62
     7
100
AcDbLine
 10
-89.0
 20
154.968627
 30
0.0
 11
-89.0
 21
147.0313729999999
 31
0.0
  0
LINE
  5
275
330
1E
100
AcDbEntity
  8
0
 62
     7
100
AcDbLine
 10
-90.0
 20
154.968627
 30
0.0
 11
-90.0
 21
147.0313729999999
 31
0.0
  0
LINE
  5
276
330
1E
100
AcDbEntity
  8
0
  6
CENTER
 62
     2
100
AcDbLine
 10
-50.5
 20
135.25
 30
0.0
 11
-50.5
 21
122.75
 31
0.0
  0
LINE
  5
277
330
1E
100
AcDbEntity
  8
0
  6
CENTER
 62
     2
100
AcDbLine
 10
-44.24999999999999
 20
129.0
 30
0.0
 11
-56.75
 21
129.0
 31
0.0
  0
CIRCLE
  5
278
330
1E
100
AcDbEntity
  8
0
 62
     7
100
AcDbCircle
 10
-50.5
 20
129.0
 30
0.0
 40
4.25
  0
CIRCLE
  5
279
330
1E
100
AcDbEntity
  8
0
 62
     7
100
AcDbCircle
 10
-50.5
 20
129.0
 30
0.0
 40
4.0
  0
LINE
  5
27A
330
1E
100
AcDbEntity
  8
0
 62
     7
100
AcDbLine
 10
-50.0
 20
132.968627
 30
0.0
 11
-50.0
 21
125.031373
 31
0.0
  0
LINE
  5
27B
330
1E
100
AcDbEntity
  8
0
 62
     7
100
AcDbLine
 10
-51.0
 20
132.968627
 30
0.0
 11
-51.0
 21
125.031373
 31
0.0
  0
LINE
  5
27C
330
1E
100
AcDbEntity
  8
0
  6
CENTER
 62
     2
100
AcDbLine
 10
-43.5000005
 20
120.5
 30
0.0
 11
-23.50000049999999
 21
120.5
 31
0.0
  0
LINE
  5
27D
330
1E
100
AcDbEntity
  8
0
 62
     7
100
AcDbLine
 10
-41.5000005
 20
124.5
 30
0.0
 11
-34.0000005
 21
124.5
 31
0.0
  0
LINE
  5
27E
330
1E
100
AcDbEntity
  8
0
 62
     7
100
AcDbLine
 10
-41.5000005
 20
116.5
 30
0.0
 11
-34.0000005
 21
116.5
 31
0.0
  0
LINE
  5
27F
330
1E
100
AcDbEntity
  8
0
 62
     2
100
AcDbLine
 10
-33.62500049999999
 20
124.1249999999999
 30
0.0
 11
-41.5000005
 21
124.1249999999999
 31
0.0
  0
LINE
  5
280
330
1E
100
AcDbEntity
  8
0
 62
     2
100
AcDbLine
 10
-41.5000005
 20
116.8749999999999
 30
0.0
 11
-33.62500049999999
 21
116.8749999999999
 31
0.0
  0
LINE
  5
281
330
1E
100
AcDbEntity
  8
0
 62
     7
100
AcDbLine
 10
-33.5000005
 20
117.0
 30
0.0
 11
-34.0000005
 21
116.5
 31
0.0
  0
LINE
  5
282
330
1E
100
AcDbEntity
  8
0
 62
     7
100
AcDbLine
 10
-33.5000005
 20
124.0
 30
0.0
 11
-34.0000005
 21
124.5
 31
0.0
  0
LINE
  5
283
330
1E
100
AcDbEntity
  8
0
 62
     7
100
AcDbLine
 10
-33.5000005
 20
117.0
 30
0.0
 11
-30.50000049999999
 21
117.0
 31
0.0
  0
LINE
  5
284
330
1E
100
AcDbEntity
  8
0
 62
     7
100
AcDbLine
 10
-33.5000005
 20
124.0
 30
0.0
 11
-30.50000049999999
 21
124.0
 31
0.0
  0
LINE
  5
285
330
1E
100
AcDbEntity
  8
0
 62
     7
100
AcDbLine
 10
-31.0000005
 20
124.0
 30
0.0
 11
-31.0000005
 21
117.0
 31
0.0
  0
LINE
  5
286
330
1E
100
AcDbEntity
  8
0
 62
     7
100
AcDbLine
 10
-30.50000049999999
 20
124.0
 30
0.0
 11
-30.50000049999999
 21
117.0
 31
0.0
  0
LINE
  5
287
330
1E
100
AcDbEntity
  8
0
 62
     7
100
AcDbLine
 10
-25.50000049999999
 20
123.3999999999999
 30
0.0
 11
-25.50000049999999
 21
117.5999999999999
 31
0.0
  0
LINE
  5
288
330
1E
100
AcDbEntity
  8
0
 62
     7
100
AcDbLine
 10
-30.50000049999999
 20
123.9
 30
0.0
 11
-26.0000005
 21
123.9
 31
0.0
  0
LINE
  5
289
330
1E
100
AcDbEntity
  8
0
 62
     7
100
AcDbLine
 10
-30.50000049999999
 20
117.1
 30
0.0
 11
-26.0000005
 21
117.1
 31
0.0
  0
LINE
  5
28A
330
1E
100
AcDbEntity
  8
0
 62
     7
100
AcDbLine
 10
-26.0000005
 20
123.9
 30
0.0
 11
-25.50000049999999
 21
123.3999999999999
 31
0.0
  0
LINE
  5
28B
330
1E
100
AcDbEntity
  8
0
 62
     7
100
AcDbLine
 10
-25.50000049999999
 20
117.5999999999999
 30
0.0
 11
-26.0000005
 21
117.1
 31
0.0
  0
LINE
  5
28C
330
1E
100
AcDbEntity
  8
0
 62
     7
100
AcDbLine
 10
-26.0000005
 20
123.9
 30
0.0
 11
-26.0000005
 21
117.1
 31
0.0
  0
POLYLINE
  5
28D
330
1E
100
AcDbEntity
  8
0
 62
     7
100
AcDb2dPolyline
 66
     1
 10
0.0
 20
0.0
 30
0.0
  0
VERTEX
  5
6F0
330
28D
100
AcDbEntity
  8
0
 62
     7
100
AcDbVertex
100
AcDb2dVertex
 10
-41.94659620000001
 20
115.5
 30
0.0
  0
VERTEX
  5
6F1
330
28D
100
AcDbEntity
  8
0
 62
     7
100
AcDbVertex
100
AcDb2dVertex
 10
-41.8648822
 20
115.740725
 30
0.0
  0
VERTEX
  5
6F2
330
28D
100
AcDbEntity
  8
0
 62
     7
100
AcDbVertex
100
AcDb2dVertex
 10
-41.7907823
 20
115.984379
 30
0.0
  0
VERTEX
  5
6F3
330
28D
100
AcDbEntity
  8
0
 62
     7
100
AcDbVertex
100
AcDb2dVertex
 10
-41.72452929999999
 20
116.230637
 30
0.0
  0
VERTEX
  5
6F4
330
28D
100
AcDbEntity
  8
0
 62
     7
100
AcDbVertex
100
AcDb2dVertex
 10
-41.6663555
 20
116.4791719999999
 30
0.0
  0
VERTEX
  5
6F5
330
28D
100
AcDbEntity
  8
0
 62
     7
100
AcDbVertex
100
AcDb2dVertex
 10
-41.6164936
 20
116.729661
 30
0.0
  0
VERTEX
  5
6F6
330
28D
100
AcDbEntity
  8
0
 62
     7
100
AcDbVertex
100
AcDb2dVertex
 10
-41.575176
 20
116.9817759999999
 30
0.0
  0
VERTEX
  5
6F7
330
28D
100
AcDbEntity
  8
0
 62
     7
100
AcDbVertex
100
AcDb2dVertex
 10
-41.54263529999999
 20
117.235193
 30
0.0
  0
VERTEX
  5
6F8
330
28D
100
AcDbEntity
  8
0
 62
     7
100
AcDbVertex
100
AcDb2dVertex
 10
-41.519104
 20
117.489586
 30
0.0
  0
VERTEX
  5
6F9
330
28D
100
AcDbEntity
  8
0
 62
     7
100
AcDbVertex
100
AcDb2dVertex
 10
-41.50481479999999
 20
117.7446299999999
 30
0.0
  0
VERTEX
  5
6FA
330
28D
100
AcDbEntity
  8
0
 62
     7
100
AcDbVertex
100
AcDb2dVertex
 10
-41.5
 20
118.0
 30
0.0
  0
VERTEX
  5
6FB
330
28D
100
AcDbEntity
  8
0
 62
     7
100
AcDbVertex
100
AcDb2dVertex
 10
-41.50481479999999
 20
118.2553689999999
 30
0.0
  0
VERTEX
  5
6FC
330
28D
100
AcDbEntity
  8
0
 62
     7
100
AcDbVertex
100
AcDb2dVertex
 10
-41.519104
 20
118.5104139999999
 30
0.0
  0
VERTEX
  5
6FD
330
28D
100
AcDbEntity
  8
0
 62
     7
100
AcDbVertex
100
AcDb2dVertex
 10
-41.54263529999999
 20
118.764807
 30
0.0
  0
VERTEX
  5
6FE
330
28D
100
AcDbEntity
  8
0
 62
     7
100
AcDbVertex
100
AcDb2dVertex
 10
-41.575176
 20
119.018224
 30
0.0
  0
VERTEX
  5
6FF
330
28D
100
AcDbEntity
  8
0
 62
     7
100
AcDbVertex
100
AcDb2dVertex
 10
-41.6164936
 20
119.2703389999999
 30
0.0
  0
VERTEX
  5
700
330
28D
100
AcDbEntity
  8
0
 62
     7
100
AcDbVertex
100
AcDb2dVertex
 10
-41.6663555
 20
119.5208269999999
 30
0.0
  0
VERTEX
  5
701
330
28D
100
AcDbEntity
  8
0
 62
     7
100
AcDbVertex
100
AcDb2dVertex
 10
-41.72452929999999
 20
119.7693629999999
 30
0.0
  0
VERTEX
  5
702
330
28D
100
AcDbEntity
  8
0
 62
     7
100
AcDbVertex
100
AcDb2dVertex
 10
-41.7907823
 20
120.01562
 30
0.0
  0
VERTEX
  5
703
330
28D
100
AcDbEntity
  8
0
 62
     7
100
AcDbVertex
100
AcDb2dVertex
 10
-41.8648822
 20
120.2592749999999
 30
0.0
  0
VERTEX
  5
704
330
28D
100
AcDbEntity
  8
0
 62
     7
100
AcDbVertex
100
AcDb2dVertex
 10
-41.94659620000001
 20
120.5
 30
0.0
  0
SEQEND
  5
705
330
28D
100
AcDbEntity
  8
0
 62
     7
  0
POLYLINE
  5
2A4
330
1E
100
AcDbEntity
  8
0
 62
     7
100
AcDb2dPolyline
 66
     1
 10
0.0
 20
0.0
 30
0.0
  0
VERTEX
  5
706
330
2A4
100
AcDbEntity
  8
0
 62
     7
100
AcDbVertex
100
AcDb2dVertex
 10
-41.94659620000001
 20
120.5
 30
0.0
  0
VERTEX
  5
707
330
2A4
100
AcDbEntity
  8
0
 62
     7
100
AcDbVertex
100
AcDb2dVertex
 10
-41.8648822
 20
120.7407249999999
 30
0.0
  0
VERTEX
  5
708
330
2A4
100
AcDbEntity
  8
0
 62
     7
100
AcDbVertex
100
AcDb2dVertex
 10
-41.7907823
 20
120.984379
 30
0.0
  0
VERTEX
  5
709
330
2A4
100
AcDbEntity
  8
0
 62
     7
100
AcDbVertex
100
AcDb2dVertex
 10
-41.72452929999999
 20
121.230637
 30
0.0
  0
VERTEX
  5
70A
330
2A4
100
AcDbEntity
  8
0
 62
     7
100
AcDbVertex
100
AcDb2dVertex
 10
-41.6663555
 20
121.479172
 30
0.0
  0
VERTEX
  5
70B
330
2A4
100
AcDbEntity
  8
0
 62
     7
100
AcDbVertex
100
AcDb2dVertex
 10
-41.6164936
 20
121.729661
 30
0.0
  0
VERTEX
  5
70C
330
2A4
100
AcDbEntity
  8
0
 62
     7
100
AcDbVertex
100
AcDb2dVertex
 10
-41.575176
 20
121.9817759999999
 30
0.0
  0
VERTEX
  5
70D
330
2A4
100
AcDbEntity
  8
0
 62
     7
100
AcDbVertex
100
AcDb2dVertex
 10
-41.54263529999999
 20
122.235193
 30
0.0
  0
VERTEX
  5
70E
330
2A4
100
AcDbEntity
  8
0
 62
     7
100
AcDbVertex
100
AcDb2dVertex
 10
-41.519104
 20
122.489586
 30
0.0
  0
VERTEX
  5
70F
330
2A4
100
AcDbEntity
  8
0
 62
     7
100
AcDbVertex
100
AcDb2dVertex
 10
-41.50481479999999
 20
122.7446299999999
 30
0.0
  0
VERTEX
  5
710
330
2A4
100
AcDbEntity
  8
0
 62
     7
100
AcDbVertex
100
AcDb2dVertex
 10
-41.5
 20
123.0
 30
0.0
  0
VERTEX
  5
711
330
2A4
100
AcDbEntity
  8
0
 62
     7
100
AcDbVertex
100
AcDb2dVertex
 10
-41.50481479999999
 20
123.2553689999999
 30
0.0
  0
VERTEX
  5
712
330
2A4
100
AcDbEntity
  8
0
 62
     7
100
AcDbVertex
100
AcDb2dVertex
 10
-41.519104
 20
123.5104139999999
 30
0.0
  0
VERTEX
  5
713
330
2A4
100
AcDbEntity
  8
0
 62
     7
100
AcDbVertex
100
AcDb2dVertex
 10
-41.54263529999999
 20
123.764807
 30
0.0
  0
VERTEX
  5
714
330
2A4
100
AcDbEntity
  8
0
 62
     7
100
AcDbVertex
100
AcDb2dVertex
 10
-41.575176
 20
124.0182239999999
 30
0.0
  0
VERTEX
  5
715
330
2A4
100
AcDbEntity
  8
0
 62
     7
100
AcDbVertex
100
AcDb2dVertex
 10
-41.6164936
 20
124.2703389999999
 30
0.0
  0
VERTEX
  5
716
330
2A4
100
AcDbEntity
  8
0
 62
     7
100
AcDbVertex
100
AcDb2dVertex
 10
-41.6663555
 20
124.520827
 30
0.0
  0
VERTEX
  5
717
330
2A4
100
AcDbEntity
  8
0
 62
     7
100
AcDbVertex
100
AcDb2dVertex
 10
-41.72452929999999
 20
124.7693629999999
 30
0.0
  0
VERTEX
  5
718
330
2A4
100
AcDbEntity
  8
0
 62
     7
100
AcDbVertex
100
AcDb2dVertex
 10
-41.7907823
 20
125.0156199999999
 30
0.0
  0
VERTEX
  5
719
330
2A4
100
AcDbEntity
  8
0
 62
     7
100
AcDbVertex
100
AcDb2dVertex
 10
-41.8648822
 20
125.259275
 30
0.0
  0
VERTEX
  5
71A
330
2A4
100
AcDbEntity
  8
0
 62
     7
100
AcDbVertex
100
AcDb2dVertex
 10
-41.94659620000001
 20
125.5
 30
0.0
  0
SEQEND
  5
71B
330
2A4
100
AcDbEntity
  8
0
 62
     7
  0
POLYLINE
  5
2BB
330
1E
100
AcDbEntity
  8
0
 62
     7
100
AcDb2dPolyline
 66
     1
 10
0.0
 20
0.0
 30
0.0
  0
VERTEX
  5
71C
330
2BB
100
AcDbEntity
  8
0
 62
     7
100
AcDbVertex
100
AcDb2dVertex
 10
-43.05340029999999
 20
120.5
 30
0.0
  0
VERTEX
  5
71D
330
2BB
100
AcDbEntity
  8
0
 62
     7
100
AcDbVertex
100
AcDb2dVertex
 10
-43.13511489999999
 20
120.7407249999999
 30
0.0
  0
VERTEX
  5
71E
330
2BB
100
AcDbEntity
  8
0
 62
     7
100
AcDbVertex
100
AcDb2dVertex
 10
-43.20921529999999
 20
120.984379
 30
0.0
  0
VERTEX
  5
71F
330
2BB
100
AcDbEntity
  8
0
 62
     7
100
AcDbVertex
100
AcDb2dVertex
 10
-43.27546889999999
 20
121.230637
 30
0.0
  0
VERTEX
  5
720
330
2BB
100
AcDbEntity
  8
0
 62
     7
100
AcDbVertex
100
AcDb2dVertex
 10
-43.3336431
 20
121.479172
 30
0.0
  0
VERTEX
  5
721
330
2BB
100
AcDbEntity
  8
0
 62
     7
100
AcDbVertex
100
AcDb2dVertex
 10
-43.3835055
 20
121.72966
 30
0.0
  0
VERTEX
  5
722
330
2BB
100
AcDbEntity
  8
0
 62
     7
100
AcDbVertex
100
AcDb2dVertex
 10
-43.4248234
 20
121.9817759999999
 30
0.0
  0
VERTEX
  5
723
330
2BB
100
AcDbEntity
  8
0
 62
     7
100
AcDbVertex
100
AcDb2dVertex
 10
-43.45736429999999
 20
122.235193
 30
0.0
  0
VERTEX
  5
724
330
2BB
100
AcDbEntity
  8
0
 62
     7
100
AcDbVertex
100
AcDb2dVertex
 10
-43.48089579999999
 20
122.489586
 30
0.0
  0
VERTEX
  5
725
330
2BB
100
AcDbEntity
  8
0
 62
     7
100
AcDbVertex
100
AcDb2dVertex
 10
-43.4951852
 20
122.7446299999999
 30
0.0
  0
VERTEX
  5
726
330
2BB
100
AcDbEntity
  8
0
 62
     7
100
AcDbVertex
100
AcDb2dVertex
 10
-43.5
 20
123.0
 30
0.0
  0
VERTEX
  5
727
330
2BB
100
AcDbEntity
  8
0
 62
     7
100
AcDbVertex
100
AcDb2dVertex
 10
-43.4951852
 20
123.2553689999999
 30
0.0
  0
VERTEX
  5
728
330
2BB
100
AcDbEntity
  8
0
 62
     7
100
AcDbVertex
100
AcDb2dVertex
 10
-43.48089579999999
 20
123.5104139999999
 30
0.0
  0
VERTEX
  5
729
330
2BB
100
AcDbEntity
  8
0
 62
     7
100
AcDbVertex
100
AcDb2dVertex
 10
-43.45736429999999
 20
123.764807
 30
0.0
  0
VERTEX
  5
72A
330
2BB
100
AcDbEntity
  8
0
 62
     7
100
AcDbVertex
100
AcDb2dVertex
 10
-43.4248234
 20
124.0182239999999
 30
0.0
  0
VERTEX
  5
72B
330
2BB
100
AcDbEntity
  8
0
 62
     7
100
AcDbVertex
100
AcDb2dVertex
 10
-43.3835055
 20
124.2703389999999
 30
0.0
  0
VERTEX
  5
72C
330
2BB
100
AcDbEntity
  8
0
 62
     7
100
AcDbVertex
100
AcDb2dVertex
 10
-43.3336431
 20
124.520828
 30
0.0
  0
VERTEX
  5
72D
330
2BB
100
AcDbEntity
  8
0
 62
     7
100
AcDbVertex
100
AcDb2dVertex
 10
-43.27546889999999
 20
124.7693629999999
 30
0.0
  0
VERTEX
  5
72E
330
2BB
100
AcDbEntity
  8
0
 62
     7
100
AcDbVertex
100
AcDb2dVertex
 10
-43.20921529999999
 20
125.0156209999999
 30
0.0
  0
VERTEX
  5
72F
330
2BB
100
AcDbEntity
  8
0
 62
     7
100
AcDbVertex
100
AcDb2dVertex
 10
-43.13511489999999
 20
125.259275
 30
0.0
  0
VERTEX
  5
730
330
2BB
100
AcDbEntity
  8
0
 62
     7
100
AcDbVertex
100
AcDb2dVertex
 10
-43.05340029999999
 20
125.5
 30
0.0
  0
SEQEND
  5
731
330
2BB
100
AcDbEntity
  8
0
 62
     7
  0
POLYLINE
  5
2D2
330
1E
100
AcDbEntity
  8
0
 62
     7
100
AcDb2dPolyline
 66
     1
 10
0.0
 20
0.0
 30
0.0
  0
VERTEX
  5
732
330
2D2
100
AcDbEntity
  8
0
 62
     7
100
AcDbVertex
100
AcDb2dVertex
 10
-43.05340029999999
 20
115.5
 30
0.0
  0
VERTEX
  5
733
330
2D2
100
AcDbEntity
  8
0
 62
     7
100
AcDbVertex
100
AcDb2dVertex
 10
-43.13511489999999
 20
115.740725
 30
0.0
  0
VERTEX
  5
734
330
2D2
100
AcDbEntity
  8
0
 62
     7
100
AcDbVertex
100
AcDb2dVertex
 10
-43.20921529999999
 20
115.984379
 30
0.0
  0
VERTEX
  5
735
330
2D2
100
AcDbEntity
  8
0
 62
     7
100
AcDbVertex
100
AcDb2dVertex
 10
-43.27546889999999
 20
116.230637
 30
0.0
  0
VERTEX
  5
736
330
2D2
100
AcDbEntity
  8
0
 62
     7
100
AcDbVertex
100
AcDb2dVertex
 10
-43.3336431
 20
116.4791719999999
 30
0.0
  0
VERTEX
  5
737
330
2D2
100
AcDbEntity
  8
0
 62
     7
100
AcDbVertex
100
AcDb2dVertex
 10
-43.3835055
 20
116.72966
 30
0.0
  0
VERTEX
  5
738
330
2D2
100
AcDbEntity
  8
0
 62
     7
100
AcDbVertex
100
AcDb2dVertex
 10
-43.4248234
 20
116.9817759999999
 30
0.0
  0
VERTEX
  5
739
330
2D2
100
AcDbEntity
  8
0
 62
     7
100
AcDbVertex
100
AcDb2dVertex
 10
-43.45736429999999
 20
117.235193
 30
0.0
  0
VERTEX
  5
73A
330
2D2
100
AcDbEntity
  8
0
 62
     7
100
AcDbVertex
100
AcDb2dVertex
 10
-43.48089579999999
 20
117.489586
 30
0.0
  0
VERTEX
  5
73B
330
2D2
100
AcDbEntity
  8
0
 62
     7
100
AcDbVertex
100
AcDb2dVertex
 10
-43.4951852
 20
117.7446299999999
 30
0.0
  0
VERTEX
  5
73C
330
2D2
100
AcDbEntity
  8
0
 62
     7
100
AcDbVertex
100
AcDb2dVertex
 10
-43.5
 20
118.0
 30
0.0
  0
VERTEX
  5
73D
330
2D2
100
AcDbEntity
  8
0
 62
     7
100
AcDbVertex
100
AcDb2dVertex
 10
-43.4951852
 20
118.2553689999999
 30
0.0
  0
VERTEX
  5
73E
330
2D2
100
AcDbEntity
  8
0
 62
     7
100
AcDbVertex
100
AcDb2dVertex
 10
-43.48089579999999
 20
118.5104139999999
 30
0.0
  0
VERTEX
  5
73F
330
2D2
100
AcDbEntity
  8
0
 62
     7
100
AcDbVertex
100
AcDb2dVertex
 10
-43.45736429999999
 20
118.764807
 30
0.0
  0
VERTEX
  5
740
330
2D2
100
AcDbEntity
  8
0
 62
     7
100
AcDbVertex
100
AcDb2dVertex
 10
-43.4248234
 20
119.018224
 30
0.0
  0
VERTEX
  5
741
330
2D2
100
AcDbEntity
  8
0
 62
     7
100
AcDbVertex
100
AcDb2dVertex
 10
-43.3835055
 20
119.2703389999999
 30
0.0
  0
VERTEX
  5
742
330
2D2
100
AcDbEntity
  8
0
 62
     7
100
AcDbVertex
100
AcDb2dVertex
 10
-43.3336431
 20
119.520828
 30
0.0
  0
VERTEX
  5
743
330
2D2
100
AcDbEntity
  8
0
 62
     7
100
AcDbVertex
100
AcDb2dVertex
 10
-43.27546889999999
 20
119.7693629999999
 30
0.0
  0
VERTEX
  5
744
330
2D2
100
AcDbEntity
  8
0
 62
     7
100
AcDbVertex
100
AcDb2dVertex
 10
-43.20921529999999
 20
120.015621
 30
0.0
  0
VERTEX
  5
745
330
2D2
100
AcDbEntity
  8
0
 62
     7
100
AcDbVertex
100
AcDb2dVertex
 10
-43.13511489999999
 20
120.2592749999999
 30
0.0
  0
VERTEX
  5
746
330
2D2
100
AcDbEntity
  8
0
 62
     7
100
AcDbVertex
100
AcDb2dVertex
 10
-43.05340029999999
 20
120.5
 30
0.0
  0
SEQEND
  5
747
330
2D2
100
AcDbEntity
  8
0
 62
     7
  0
LINE
  5
2E9
330
1E
100
AcDbEntity
  8
0
  6
CENTER
 62
     2
100
AcDbLine
 10
-92.5
 20
-120.0
 30
0.0
 11
-47.5
 21
-120.0
 31
0.0
  0
LINE
  5
2EA
330
1E
100
AcDbEntity
  8
0
 62
     7
100
AcDbLine
 10
-97.1
 20
-127.0
 30
0.0
 11
-97.1
 21
-135.0
 31
0.0
  0
LINE
  5
2EB
330
1E
100
AcDbEntity
  8
0
 62
     7
100
AcDbLine
 10
-98.2
 20
-134.8
 30
0.0
 11
-98.0
 21
-135.0
 31
0.0
  0
LINE
  5
2EC
330
1E
100
AcDbEntity
  8
0
 62
     7
100
AcDbLine
 10
-97.1
 20
-135.0
 30
0.0
 11
-98.0
 21
-135.0
 31
0.0
  0
LINE
  5
2ED
330
1E
100
AcDbEntity
  8
0
 62
     7
100
AcDbLine
 10
-98.2
 20
-127.2
 30
0.0
 11
-98.0
 21
-127.0
 31
0.0
  0
LINE
  5
2EE
330
1E
100
AcDbEntity
  8
0
 62
     7
100
AcDbLine
 10
-97.1
 20
-127.0
 30
0.0
 11
-98.0
 21
-127.0
 31
0.0
  0
LINE
  5
2EF
330
1E
100
AcDbEntity
  8
0
 62
     7
100
AcDbLine
 10
-98.0
 20
-135.0
 30
0.0
 11
-98.0
 21
-127.0
 31
0.0
  0
LINE
  5
2F0
330
1E
100
AcDbEntity
  8
0
 62
     7
100
AcDbLine
 10
-98.2
 20
-134.8
 30
0.0
 11
-98.2
 21
-127.2
 31
0.0
  0
LINE
  5
2F1
330
1E
100
AcDbEntity
  8
0
 62
     7
100
AcDbLine
 10
-97.1
 20
-134.8999999999999
 30
0.0
 11
-96.5
 21
-134.8999999999999
 31
0.0
  0
LINE
  5
2F2
330
1E
100
AcDbEntity
  8
0
 62
     7
100
AcDbLine
 10
-97.1
 20
-127.0999999999999
 30
0.0
 11
-96.5
 21
-127.0999999999999
 31
0.0
  0
LINE
  5
2F3
330
1E
100
AcDbEntity
  8
0
  6
CENTER
 62
     2
100
AcDbLine
 10
-100.2
 20
-131.0
 30
0.0
 11
-96.5
 21
-131.0
 31
0.0
  0
LINE
  5
2F4
330
1E
100
AcDbEntity
  8
0
 62
     7
100
AcDbLine
 10
-97.1
 20
-113.0
 30
0.0
 11
-98.0
 21
-113.0
 31
0.0
  0
LINE
  5
2F5
330
1E
100
AcDbEntity
  8
0
 62
     7
100
AcDbLine
 10
-98.2
 20
-112.7999999999999
 30
0.0
 11
-98.0
 21
-113.0
 31
0.0
  0
LINE
  5
2F6
330
1E
100
AcDbEntity
  8
0
 62
     7
100
AcDbLine
 10
-97.1
 20
-105.0
 30
0.0
 11
-98.0
 21
-105.0
 31
0.0
  0
LINE
  5
2F7
330
1E
100
AcDbEntity
  8
0
 62
     7
100
AcDbLine
 10
-98.2
 20
-105.2
 30
0.0
 11
-98.0
 21
-105.0
 31
0.0
  0
LINE
  5
2F8
330
1E
100
AcDbEntity
  8
0
 62
     7
100
AcDbLine
 10
-98.0
 20
-113.0
 30
0.0
 11
-98.0
 21
-105.0
 31
0.0
  0
LINE
  5
2F9
330
1E
100
AcDbEntity
  8
0
 62
     7
100
AcDbLine
 10
-97.1
 20
-113.0
 30
0.0
 11
-97.1
 21
-105.0
 31
0.0
  0
LINE
  5
2FA
330
1E
100
AcDbEntity
  8
0
 62
     7
100
AcDbLine
 10
-98.2
 20
-112.7999999999999
 30
0.0
 11
-98.2
 21
-105.2
 31
0.0
  0
LINE
  5
2FB
330
1E
100
AcDbEntity
  8
0
  6
CENTER
 62
     2
100
AcDbLine
 10
-96.5
 20
-109.0
 30
0.0
 11
-100.2
 21
-109.0
 31
0.0
  0
LINE
  5
2FC
330
1E
100
AcDbEntity
  8
0
 62
     7
100
AcDbLine
 10
-96.5
 20
-105.0999999999999
 30
0.0
 11
-97.1
 21
-105.0999999999999
 31
0.0
  0
LINE
  5
2FD
330
1E
100
AcDbEntity
  8
0
 62
     7
100
AcDbLine
 10
-96.5
 20
-112.9
 30
0.0
 11
-97.1
 21
-112.9
 31
0.0
  0
LINE
  5
2FE
330
1E
100
AcDbEntity
  8
0
 62
     7
100
AcDbLine
 10
-94.50000000000001
 20
-92.9999998
 30
0.0
 11
-94.50000000000001
 21
-88.9999998
 31
0.0
  0
LINE
  5
2FF
330
1E
100
AcDbEntity
  8
0
 62
     7
100
AcDbLine
 10
-45.49999999999999
 20
-88.9999998
 30
0.0
 11
-45.49999999999999
 21
-92.9999998
 31
0.0
  0
LINE
  5
300
330
1E
100
AcDbEntity
  8
0
 62
     7
100
AcDbLine
 10
-45.49999999999999
 20
-92.9999998
 30
0.0
 11
-94.50000000000001
 21
-92.9999998
 31
0.0
  0
CIRCLE
  5
301
330
1E
100
AcDbEntity
  8
0
 62
     7
100
AcDbCircle
 10
-84.07330319999999
 20
-127.7377399999999
 30
0.0
 40
0.472222209
  0
CIRCLE
  5
302
330
1E
100
AcDbEntity
  8
0
 62
     7
100
AcDbCircle
 10
-79.92666629999999
 20
-127.7377399999999
 30
0.0
 40
0.472222209
  0
ARC
  5
303
330
1E
100
AcDbEntity
  8
0
 62
     7
100
AcDbCircle
 10
-82.0
 20
-120.4722209999999
 30
0.0
 40
7.555555339999999
100
AcDbArc
 50
293.09357
 51
246.9065029999999
  0
CIRCLE
  5
304
330
1E
100
AcDbEntity
  8
0
 62
     7
100
AcDbCircle
 10
-82.0
 20
-120.0
 30
0.0
 40
8.5
  0
ARC
  5
305
330
1E
100
AcDbEntity
  8
0
 62
     7
100
AcDbCircle
 10
-79.92666629999999
 20
-127.7377399999999
 30
0.0
 40
1.0
100
AcDbArc
 50
19.7210511
 51
221.220702
  0
ARC
  5
306
330
1E
100
AcDbEntity
  8
0
 62
     7
100
AcDbCircle
 10
-84.07330319999999
 20
-127.7377399999999
 30
0.0
 40
1.0
100
AcDbArc
 50
318.7793849999999
 51
160.278981
  0
LINE
  5
307
330
1E
100
AcDbEntity
  8
0
  6
CENTER
 62
     2
100
AcDbLine
 10
-70.0
 20
-84.9999998
 30
0.0
 11
-70.0
 21
-141.0
 31
0.0
  0
LINE
  5
308
330
1E
100
AcDbEntity
  8
0
 62
     7
100
AcDbLine
 10
-92.5
 20
-93.99999599999999
 30
0.0
 11
-92.5
 21
-92.9999998
 31
0.0
  0
LINE
  5
309
330
1E
100
AcDbEntity
  8
0
 62
     7
100
AcDbLine
 10
-94.50000000000001
 20
-88.9999998
 30
0.0
 11
-45.49999999999999
 21
-88.9999998
 31
0.0
  0
LINE
  5
30A
330
1E
100
AcDbEntity
  8
0
  6
CENTER
 62
     2
100
AcDbLine
 10
-82.0
 20
-130.4999999999999
 30
0.0
 11
-82.0
 21
-109.4999999999999
 31
0.0
  0
LINE
  5
30B
330
1E
100
AcDbEntity
  8
0
 62
     7
100
AcDbLine
 10
-47.5
 20
-92.9999998
 30
0.0
 11
-47.5
 21
-93.99999599999999
 31
0.0
  0
LINE
  5
30C
330
1E
100
AcDbEntity
  8
0
 62
     7
100
AcDbLine
 10
-43.4999619
 20
-93.9999998
 30
0.0
 11
-95.0
 21
-93.9999998
 31
0.0
  0
LINE
  5
30D
330
1E
100
AcDbEntity
  8
0
 62
     7
100
AcDbLine
 10
-95.0
 20
-93.9999998
 30
0.0
 11
-95.0
 21
-103.0
 31
0.0
  0
LINE
  5
30E
330
1E
100
AcDbEntity
  8
0
 62
     7
100
AcDbLine
 10
-43.5
 20
-103.0
 30
0.0
 11
-95.0
 21
-103.0
 31
0.0
  0
LINE
  5
30F
330
1E
100
AcDbEntity
  8
0
 62
     7
100
AcDbLine
 10
-95.0
 20
-103.0
 30
0.0
 11
-96.5
 21
-104.4999999999999
 31
0.0
  0
ARC
  5
310
330
1E
100
AcDbEntity
  8
0
 62
     7
100
AcDbCircle
 10
-58.0
 20
-120.4722209999999
 30
0.0
 40
7.555555339999999
100
AcDbArc
 50
293.093497
 51
246.9064299999999
  0
CIRCLE
  5
311
330
1E
100
AcDbEntity
  8
0
 62
     7
100
AcDbCircle
 10
-58.0
 20
-120.0
 30
0.0
 40
8.5
  0
LINE
  5
312
330
1E
100
AcDbEntity
  8
0
  6
CENTER
 62
     2
100
AcDbLine
 10
-58.0
 20
-130.4999999999999
 30
0.0
 11
-58.0
 21
-109.4999999999999
 31
0.0
  0
ARC
  5
313
330
1E
100
AcDbEntity
  8
0
 62
     7
100
AcDbCircle
 10
-55.9266968
 20
-127.7377399999999
 30
0.0
 40
1.0
100
AcDbArc
 50
19.7210187
 51
221.2206149999999
  0
ARC
  5
314
330
1E
100
AcDbEntity
  8
0
 62
     7
100
AcDbCircle
 10
-60.07333370000001
 20
-127.7377399999999
 30
0.0
 40
1.0
100
AcDbArc
 50
318.7792979999999
 51
160.278949
  0
CIRCLE
  5
315
330
1E
100
AcDbEntity
  8
0
 62
     7
100
AcDbCircle
 10
-60.07333370000001
 20
-127.7377399999999
 30
0.0
 40
0.472222209
  0
CIRCLE
  5
316
330
1E
100
AcDbEntity
  8
0
 62
     7
100
AcDbCircle
 10
-55.9266968
 20
-127.7377399999999
 30
0.0
 40
0.472222209
  0
LINE
  5
317
330
1E
100
AcDbEntity
  8
0
  6
CENTER
 62
     2
100
AcDbLine
 10
-89.95298690000002
 20
-116.0
 30
0.0
 11
-98.4999997
 21
-116.0
 31
0.0
  0
ARC
  5
318
330
1E
100
AcDbEntity
  8
0
 62
     7
100
AcDbCircle
 10
-93.47499969999999
 20
-116.0
 30
0.0
 40
2.075
100
AcDbArc
 50
270.0
 51
90.00000020000001
  0
LINE
  5
319
330
1E
100
AcDbEntity
  8
0
  6
CENTER
 62
     2
100
AcDbLine
 10
-89.95298690000002
 20
-124.0
 30
0.0
 11
-98.4999997
 21
-124.0
 31
0.0
  0
ARC
  5
31A
330
1E
100
AcDbEntity
  8
0
 62
     7
100
AcDbCircle
 10
-93.47499969999999
 20
-124.0
 30
0.0
 40
2.075
100
AcDbArc
 50
270.0
 51
90.00000020000001
  0
LINE
  5
31B
330
1E
100
AcDbEntity
  8
0
 62
     7
100
AcDbLine
 10
-96.5
 20
-135.4999999999999
 30
0.0
 11
-96.5
 21
-126.0
 31
0.0
  0
LINE
  5
31C
330
1E
100
AcDbEntity
  8
0
 62
     7
100
AcDbLine
 10
-96.5
 20
-114.0
 30
0.0
 11
-96.5
 21
-104.4999999999999
 31
0.0
  0
LINE
  5
31D
330
1E
100
AcDbEntity
  8
0
 62
     7
100
AcDbLine
 10
-95.79999970000001
 20
-122.3999999999999
 30
0.0
 11
-95.5749997
 21
-122.3999999999999
 31
0.0
  0
LINE
  5
31E
330
1E
100
AcDbEntity
  8
0
 62
     7
100
AcDbLine
 10
-96.0999997
 20
-125.6
 30
0.0
 11
-95.5749997
 21
-125.6
 31
0.0
  0
LINE
  5
31F
330
1E
100
AcDbEntity
  8
0
 62
     7
100
AcDbLine
 10
-93.47499969999999
 20
-121.9249999999999
 30
0.0
 11
-95.0999997
 21
-121.9249999999999
 31
0.0
  0
LINE
  5
320
330
1E
100
AcDbEntity
  8
0
 62
     7
100
AcDbLine
 10
-95.0999997
 20
-121.9249999999999
 30
0.0
 11
-95.5749997
 21
-122.3999999999999
 31
0.0
  0
ARC
  5
321
330
1E
100
AcDbEntity
  8
0
 62
     7
100
AcDbCircle
 10
-95.79999970000001
 20
-122.0999999999999
 30
0.0
 40
0.3
100
AcDbArc
 50
180.0
 51
270.0
  0
LINE
  5
322
330
1E
100
AcDbEntity
  8
0
 62
     7
100
AcDbLine
 10
-95.0999997
 20
-126.075
 30
0.0
 11
-95.5749997
 21
-125.6
 31
0.0
  0
LINE
  5
323
330
1E
100
AcDbEntity
  8
0
 62
     7
100
AcDbLine
 10
-96.0999997
 20
-125.6
 30
0.0
 11
-96.49999970000001
 21
-126.0
 31
0.0
  0
ARC
  5
324
330
1E
100
AcDbEntity
  8
0
 62
     7
100
AcDbCircle
 10
-95.79999970000001
 20
-117.9
 30
0.0
 40
0.3
100
AcDbArc
 50
90.00000020000001
 51
180.0
  0
LINE
  5
325
330
1E
100
AcDbEntity
  8
0
 62
     7
100
AcDbLine
 10
-96.0999997
 20
-122.3999999999999
 30
0.0
 11
-96.0999997
 21
-117.9
 31
0.0
  0
LINE
  5
326
330
1E
100
AcDbEntity
  8
0
 62
     7
100
AcDbLine
 10
-95.0999997
 20
-118.0749999999999
 30
0.0
 11
-95.5749997
 21
-117.5999999999999
 31
0.0
  0
LINE
  5
327
330
1E
100
AcDbEntity
  8
0
 62
     7
100
AcDbLine
 10
-95.0999997
 20
-113.925
 30
0.0
 11
-95.5749997
 21
-114.4
 31
0.0
  0
LINE
  5
328
330
1E
100
AcDbEntity
  8
0
 62
     7
100
AcDbLine
 10
-93.47499969999999
 20
-113.925
 30
0.0
 11
-95.0999997
 21
-113.925
 31
0.0
  0
LINE
  5
329
330
1E
100
AcDbEntity
  8
0
 62
     7
100
AcDbLine
 10
-93.47499969999999
 20
-118.0749999999999
 30
0.0
 11
-95.0999997
 21
-118.0749999999999
 31
0.0
  0
LINE
  5
32A
330
1E
100
AcDbEntity
  8
0
 62
     7
100
AcDbLine
 10
-96.0999997
 20
-114.4
 30
0.0
 11
-96.49999970000001
 21
-114.0
 31
0.0
  0
LINE
  5
32B
330
1E
100
AcDbEntity
  8
0
 62
     7
100
AcDbLine
 10
-96.0999997
 20
-114.4
 30
0.0
 11
-95.5749997
 21
-114.4
 31
0.0
  0
LINE
  5
32C
330
1E
100
AcDbEntity
  8
0
 62
     7
100
AcDbLine
 10
-95.79999970000001
 20
-117.5999999999999
 30
0.0
 11
-95.5749997
 21
-117.5999999999999
 31
0.0
  0
LINE
  5
32D
330
1E
100
AcDbEntity
  8
0
 62
     7
100
AcDbLine
 10
-93.47499969999999
 20
-126.075
 30
0.0
 11
-95.12500000000001
 21
-126.074993
 31
0.0
  0
LINE
  5
32E
330
1E
100
AcDbEntity
  8
0
  6
CENTER
 62
     2
100
AcDbLine
 10
-50.0470131
 20
-116.0
 30
0.0
 11
-41.5000003
 21
-116.0
 31
0.0
  0
ARC
  5
32F
330
1E
100
AcDbEntity
  8
0
 62
     7
100
AcDbCircle
 10
-46.52500029999999
 20
-116.0
 30
0.0
 40
2.075
100
AcDbArc
 50
90.00000020000001
 51
270.0
  0
LINE
  5
330
330
1E
100
AcDbEntity
  8
0
  6
CENTER
 62
     2
100
AcDbLine
 10
-50.0470131
 20
-124.0
 30
0.0
 11
-41.5000003
 21
-124.0
 31
0.0
  0
ARC
  5
331
330
1E
100
AcDbEntity
  8
0
 62
     7
100
AcDbCircle
 10
-46.52500029999999
 20
-124.0
 30
0.0
 40
2.075
100
AcDbArc
 50
90.00000020000001
 51
270.0
  0
LINE
  5
332
330
1E
100
AcDbEntity
  8
0
 62
     7
100
AcDbLine
 10
-43.5
 20
-135.4999999999999
 30
0.0
 11
-43.5
 21
-126.0
 31
0.0
  0
LINE
  5
333
330
1E
100
AcDbEntity
  8
0
 62
     7
100
AcDbLine
 10
-43.5
 20
-114.0
 30
0.0
 11
-43.5
 21
-93.9999998
 31
0.0
  0
LINE
  5
334
330
1E
100
AcDbEntity
  8
0
 62
     7
100
AcDbLine
 10
-46.52500029999999
 20
-126.075
 30
0.0
 11
-44.87499999999999
 21
-126.074993
 31
0.0
  0
LINE
  5
335
330
1E
100
AcDbEntity
  8
0
 62
     7
100
AcDbLine
 10
-44.20000029999999
 20
-117.5999999999999
 30
0.0
 11
-44.42500029999999
 21
-117.5999999999999
 31
0.0
  0
LINE
  5
336
330
1E
100
AcDbEntity
  8
0
 62
     7
100
AcDbLine
 10
-43.90000029999999
 20
-114.4
 30
0.0
 11
-44.42500029999999
 21
-114.4
 31
0.0
  0
LINE
  5
337
330
1E
100
AcDbEntity
  8
0
 62
     7
100
AcDbLine
 10
-43.90000029999999
 20
-114.4
 30
0.0
 11
-43.50000029999999
 21
-114.0
 31
0.0
  0
LINE
  5
338
330
1E
100
AcDbEntity
  8
0
 62
     7
100
AcDbLine
 10
-46.52500029999999
 20
-118.0749999999999
 30
0.0
 11
-44.9000003
 21
-118.0749999999999
 31
0.0
  0
LINE
  5
339
330
1E
100
AcDbEntity
  8
0
 62
     7
100
AcDbLine
 10
-46.52500029999999
 20
-113.925
 30
0.0
 11
-44.9000003
 21
-113.925
 31
0.0
  0
LINE
  5
33A
330
1E
100
AcDbEntity
  8
0
 62
     7
100
AcDbLine
 10
-44.9000003
 20
-113.925
 30
0.0
 11
-44.42500029999999
 21
-114.4
 31
0.0
  0
LINE
  5
33B
330
1E
100
AcDbEntity
  8
0
 62
     7
100
AcDbLine
 10
-44.9000003
 20
-118.0749999999999
 30
0.0
 11
-44.42500029999999
 21
-117.5999999999999
 31
0.0
  0
LINE
  5
33C
330
1E
100
AcDbEntity
  8
0
 62
     7
100
AcDbLine
 10
-43.90000029999999
 20
-122.0999999999999
 30
0.0
 11
-43.90000029999999
 21
-117.9
 31
0.0
  0
ARC
  5
33D
330
1E
100
AcDbEntity
  8
0
 62
     7
100
AcDbCircle
 10
-44.20000029999999
 20
-117.9
 30
0.0
 40
0.3
100
AcDbArc
 50
0.0
 51
90.00000020000001
  0
LINE
  5
33E
330
1E
100
AcDbEntity
  8
0
 62
     7
100
AcDbLine
 10
-43.90000029999999
 20
-125.6
 30
0.0
 11
-43.50000029999999
 21
-126.0
 31
0.0
  0
LINE
  5
33F
330
1E
100
AcDbEntity
  8
0
 62
     7
100
AcDbLine
 10
-44.9000003
 20
-126.075
 30
0.0
 11
-44.42500029999999
 21
-125.6
 31
0.0
  0
ARC
  5
340
330
1E
100
AcDbEntity
  8
0
 62
     7
100
AcDbCircle
 10
-44.20000029999999
 20
-122.0999999999999
 30
0.0
 40
0.3
100
AcDbArc
 50
270.0
 51
0.0
  0
LINE
  5
341
330
1E
100
AcDbEntity
  8
0
 62
     7
100
AcDbLine
 10
-44.9000003
 20
-121.9249999999999
 30
0.0
 11
-44.42500029999999
 21
-122.3999999999999
 31
0.0
  0
LINE
  5
342
330
1E
100
AcDbEntity
  8
0
 62
     7
100
AcDbLine
 10
-46.52500029999999
 20
-121.9249999999999
 30
0.0
 11
-44.9000003
 21
-121.9249999999999
 31
0.0
  0
LINE
  5
343
330
1E
100
AcDbEntity
  8
0
 62
     7
100
AcDbLine
 10
-43.90000029999999
 20
-125.6
 30
0.0
 11
-44.42500029999999
 21
-125.6
 31
0.0
  0
LINE
  5
344
330
1E
100
AcDbEntity
  8
0
 62
     7
100
AcDbLine
 10
-44.20000029999999
 20
-122.3999999999999
 30
0.0
 11
-44.42500029999999
 21
-122.3999999999999
 31
0.0
  0
LINE
  5
345
330
1E
100
AcDbEntity
  8
0
 62
     7
100
AcDbLine
 10
-45.0
 20
-137.0
 30
0.0
 11
-57.0
 21
-137.0
 31
0.0
  0
LINE
  5
346
330
1E
100
AcDbEntity
  8
0
 62
     7
100
AcDbLine
 10
-43.5
 20
-135.4999999999999
 30
0.0
 11
-45.0
 21
-137.0
 31
0.0
  0
LINE
  5
347
330
1E
100
AcDbEntity
  8
0
 62
     7
100
AcDbLine
 10
-95.0
 20
-137.0
 30
0.0
 11
-96.5
 21
-135.4999999999999
 31
0.0
  0
LINE
  5
348
330
1E
100
AcDbEntity
  8
0
 62
     7
100
AcDbLine
 10
-57.5
 20
-136.4999999999999
 30
0.0
 11
-82.5
 21
-136.4999999999999
 31
0.0
  0
LINE
  5
349
330
1E
100
AcDbEntity
  8
0
 62
     7
100
AcDbLine
 10
-57.0
 20
-137.0
 30
0.0
 11
-57.5
 21
-136.4999999999999
 31
0.0
  0
LINE
  5
34A
330
1E
100
AcDbEntity
  8
0
 62
     7
100
AcDbLine
 10
-83.0
 20
-137.0
 30
0.0
 11
-82.5
 21
-136.4999999999999
 31
0.0
  0
LINE
  5
34B
330
1E
100
AcDbEntity
  8
0
 62
     7
100
AcDbLine
 10
-83.0
 20
-137.0
 30
0.0
 11
-95.0
 21
-137.0
 31
0.0
  0
LINE
  5
34C
330
1E
100
AcDbEntity
  8
0
 62
     7
100
AcDbLine
 10
-43.49997759999999
 20
-105.4999999999999
 30
0.0
 11
-41.5
 21
-105.4999999999999
 31
0.0
  0
LINE
  5
34D
330
1E
100
AcDbEntity
  8
0
 62
     7
100
AcDbLine
 10
-43.5
 20
-95.4999998
 30
0.0
 11
-41.5
 21
-95.4999998
 31
0.0
  0
LINE
  5
34E
330
1E
100
AcDbEntity
  8
0
 62
     7
100
AcDbLine
 10
-41.5
 20
-105.4999999999999
 30
0.0
 11
-41.5
 21
-95.4999998
 31
0.0
  0
LINE
  5
34F
330
1E
100
AcDbEntity
  8
0
 62
     7
100
AcDbLine
 10
-43.05340029999999
 20
-100.5
 30
0.0
 11
-41.94659620000001
 21
-100.5
 31
0.0
  0
LINE
  5
350
330
1E
100
AcDbEntity
  8
0
  6
CENTER
 62
     2
100
AcDbLine
 10
-50.5
 20
-102.75
 30
0.0
 11
-50.5
 21
-115.25
 31
0.0
  0
LINE
  5
351
330
1E
100
AcDbEntity
  8
0
  6
CENTER
 62
     2
100
AcDbLine
 10
-44.75
 20
-109.0
 30
0.0
 11
-56.75
 21
-109.0
 31
0.0
  0
CIRCLE
  5
352
330
1E
100
AcDbEntity
  8
0
 62
     7
100
AcDbCircle
 10
-50.5
 20
-109.0
 30
0.0
 40
4.25
  0
CIRCLE
  5
353
330
1E
100
AcDbEntity
  8
0
 62
     7
100
AcDbCircle
 10
-50.5
 20
-109.0
 30
0.0
 40
4.0
  0
LINE
  5
354
330
1E
100
AcDbEntity
  8
0
 62
     7
100
AcDbLine
 10
-50.0
 20
-105.031373
 30
0.0
 11
-50.0
 21
-112.968627
 31
0.0
  0
LINE
  5
355
330
1E
100
AcDbEntity
  8
0
 62
     7
100
AcDbLine
 10
-51.0
 20
-105.031373
 30
0.0
 11
-51.0
 21
-112.968627
 31
0.0
  0
LINE
  5
356
330
1E
100
AcDbEntity
  8
0
  6
CENTER
 62
     2
100
AcDbLine
 10
-89.50000000000001
 20
-124.75
 30
0.0
 11
-89.50000000000001
 21
-137.25
 31
0.0
  0
LINE
  5
357
330
1E
100
AcDbEntity
  8
0
  6
CENTER
 62
     2
100
AcDbLine
 10
-83.25000000000001
 20
-131.0
 30
0.0
 11
-95.75000000000001
 21
-131.0
 31
0.0
  0
CIRCLE
  5
358
330
1E
100
AcDbEntity
  8
0
 62
     7
100
AcDbCircle
 10
-89.50000000000001
 20
-131.0
 30
0.0
 40
4.25
  0
CIRCLE
  5
359
330
1E
100
AcDbEntity
  8
0
 62
     7
100
AcDbCircle
 10
-89.50000000000001
 20
-131.0
 30
0.0
 40
4.0
  0
LINE
  5
35A
330
1E
100
AcDbEntity
  8
0
 62
     7
100
AcDbLine
 10
-89.0
 20
-127.031373
 30
0.0
 11
-89.0
 21
-134.968627
 31
0.0
  0
LINE
  5
35B
330
1E
100
AcDbEntity
  8
0
 62
     7
100
AcDbLine
 10
-90.0
 20
-127.031373
 30
0.0
 11
-90.0
 21
-134.968627
 31
0.0
  0
LINE
  5
35C
330
1E
100
AcDbEntity
  8
0
  6
CENTER
 62
     2
100
AcDbLine
 10
-43.5000005
 20
-100.5
 30
0.0
 11
-23.50000049999999
 21
-100.5
 31
0.0
  0
LINE
  5
35D
330
1E
100
AcDbEntity
  8
0
 62
     7
100
AcDbLine
 10
-41.5000005
 20
-96.4999998
 30
0.0
 11
-34.0000005
 21
-96.4999998
 31
0.0
  0
LINE
  5
35E
330
1E
100
AcDbEntity
  8
0
 62
     7
100
AcDbLine
 10
-41.5000005
 20
-104.4999999999999
 30
0.0
 11
-34.0000005
 21
-104.4999999999999
 31
0.0
  0
LINE
  5
35F
330
1E
100
AcDbEntity
  8
0
 62
     2
100
AcDbLine
 10
-33.62500049999999
 20
-96.8749998
 30
0.0
 11
-41.5000005
 21
-96.8749998
 31
0.0
  0
LINE
  5
360
330
1E
100
AcDbEntity
  8
0
 62
     2
100
AcDbLine
 10
-41.5000005
 20
-104.125
 30
0.0
 11
-33.62500049999999
 21
-104.125
 31
0.0
  0
LINE
  5
361
330
1E
100
AcDbEntity
  8
0
 62
     7
100
AcDbLine
 10
-33.5000005
 20
-104.0
 30
0.0
 11
-34.0000005
 21
-104.4999999999999
 31
0.0
  0
LINE
  5
362
330
1E
100
AcDbEntity
  8
0
 62
     7
100
AcDbLine
 10
-33.5000005
 20
-96.99999980000001
 30
0.0
 11
-34.0000005
 21
-96.4999998
 31
0.0
  0
LINE
  5
363
330
1E
100
AcDbEntity
  8
0
 62
     7
100
AcDbLine
 10
-33.5000005
 20
-104.0
 30
0.0
 11
-30.50000049999999
 21
-104.0
 31
0.0
  0
LINE
  5
364
330
1E
100
AcDbEntity
  8
0
 62
     7
100
AcDbLine
 10
-33.5000005
 20
-96.99999980000001
 30
0.0
 11
-30.50000049999999
 21
-96.99999980000001
 31
0.0
  0
LINE
  5
365
330
1E
100
AcDbEntity
  8
0
 62
     7
100
AcDbLine
 10
-31.0000005
 20
-96.99999980000001
 30
0.0
 11
-31.0000005
 21
-104.0
 31
0.0
  0
LINE
  5
366
330
1E
100
AcDbEntity
  8
0
 62
     7
100
AcDbLine
 10
-30.50000049999999
 20
-96.99999980000001
 30
0.0
 11
-30.50000049999999
 21
-104.0
 31
0.0
  0
LINE
  5
367
330
1E
100
AcDbEntity
  8
0
 62
     7
100
AcDbLine
 10
-25.50000049999999
 20
-97.59999980000001
 30
0.0
 11
-25.50000049999999
 21
-103.4
 31
0.0
  0
LINE
  5
368
330
1E
100
AcDbEntity
  8
0
 62
     7
100
AcDbLine
 10
-30.50000049999999
 20
-97.0999998
 30
0.0
 11
-26.0000005
 21
-97.0999998
 31
0.0
  0
LINE
  5
369
330
1E
100
AcDbEntity
  8
0
 62
     7
100
AcDbLine
 10
-30.50000049999999
 20
-103.9
 30
0.0
 11
-26.0000005
 21
-103.9
 31
0.0
  0
LINE
  5
36A
330
1E
100
AcDbEntity
  8
0
 62
     7
100
AcDbLine
 10
-26.0000005
 20
-97.0999998
 30
0.0
 11
-25.50000049999999
 21
-97.59999980000001
 31
0.0
  0
LINE
  5
36B
330
1E
100
AcDbEntity
  8
0
 62
     7
100
AcDbLine
 10
-25.50000049999999
 20
-103.4
 30
0.0
 11
-26.0000005
 21
-103.9
 31
0.0
  0
LINE
  5
36C
330
1E
100
AcDbEntity
  8
0
 62
     7
100
AcDbLine
 10
-26.0000005
 20
-97.0999998
 30
0.0
 11
-26.0000005
 21
-103.9
 31
0.0
  0
POLYLINE
  5
36D
330
1E
100
AcDbEntity
  8
0
 62
     7
100
AcDb2dPolyline
 66
     1
 10
0.0
 20
0.0
 30
0.0
  0
VERTEX
  5
748
330
36D
100
AcDbEntity
  8
0
 62
     7
100
AcDbVertex
100
AcDb2dVertex
 10
-43.05340029999999
 20
-95.4999998
 30
0.0
  0
VERTEX
  5
749
330
36D
100
AcDbEntity
  8
0
 62
     7
100
AcDbVertex
100
AcDb2dVertex
 10
-43.13511489999999
 20
-95.74072499999999
 30
0.0
  0
VERTEX
  5
74A
330
36D
100
AcDbEntity
  8
0
 62
     7
100
AcDbVertex
100
AcDb2dVertex
 10
-43.20921529999999
 20
-95.984379
 30
0.0
  0
VERTEX
  5
74B
330
36D
100
AcDbEntity
  8
0
 62
     7
100
AcDbVertex
100
AcDb2dVertex
 10
-43.27546889999999
 20
-96.23063659999999
 30
0.0
  0
VERTEX
  5
74C
330
36D
100
AcDbEntity
  8
0
 62
     7
100
AcDbVertex
100
AcDb2dVertex
 10
-43.3336431
 20
-96.47917209999999
 30
0.0
  0
VERTEX
  5
74D
330
36D
100
AcDbEntity
  8
0
 62
     7
100
AcDbVertex
100
AcDb2dVertex
 10
-43.3835055
 20
-96.72966030000001
 30
0.0
  0
VERTEX
  5
74E
330
36D
100
AcDbEntity
  8
0
 62
     7
100
AcDbVertex
100
AcDb2dVertex
 10
-43.4248234
 20
-96.98177559999999
 30
0.0
  0
VERTEX
  5
74F
330
36D
100
AcDbEntity
  8
0
 62
     7
100
AcDbVertex
100
AcDb2dVertex
 10
-43.45736429999999
 20
-97.23519260000001
 30
0.0
  0
VERTEX
  5
750
330
36D
100
AcDbEntity
  8
0
 62
     7
100
AcDbVertex
100
AcDb2dVertex
 10
-43.48089579999999
 20
-97.48958600000001
 30
0.0
  0
VERTEX
  5
751
330
36D
100
AcDbEntity
  8
0
 62
     7
100
AcDbVertex
100
AcDb2dVertex
 10
-43.4951852
 20
-97.7446302
 30
0.0
  0
VERTEX
  5
752
330
36D
100
AcDbEntity
  8
0
 62
     7
100
AcDbVertex
100
AcDb2dVertex
 10
-43.5
 20
-97.9999998
 30
0.0
  0
VERTEX
  5
753
330
36D
100
AcDbEntity
  8
0
 62
     7
100
AcDbVertex
100
AcDb2dVertex
 10
-43.4951852
 20
-98.2553695
 30
0.0
  0
VERTEX
  5
754
330
36D
100
AcDbEntity
  8
0
 62
     7
100
AcDbVertex
100
AcDb2dVertex
 10
-43.48089579999999
 20
-98.5104137
 30
0.0
  0
VERTEX
  5
755
330
36D
100
AcDbEntity
  8
0
 62
     7
100
AcDbVertex
100
AcDb2dVertex
 10
-43.45736429999999
 20
-98.764807
 30
0.0
  0
VERTEX
  5
756
330
36D
100
AcDbEntity
  8
0
 62
     7
100
AcDbVertex
100
AcDb2dVertex
 10
-43.4248234
 20
-99.01822410000001
 30
0.0
  0
VERTEX
  5
757
330
36D
100
AcDbEntity
  8
0
 62
     7
100
AcDbVertex
100
AcDb2dVertex
 10
-43.3835055
 20
-99.27033940000001
 30
0.0
  0
VERTEX
  5
758
330
36D
100
AcDbEntity
  8
0
 62
     7
100
AcDbVertex
100
AcDb2dVertex
 10
-43.3336431
 20
-99.5208275
 30
0.0
  0
VERTEX
  5
759
330
36D
100
AcDbEntity
  8
0
 62
     7
100
AcDbVertex
100
AcDb2dVertex
 10
-43.27546889999999
 20
-99.76936309999999
 30
0.0
  0
VERTEX
  5
75A
330
36D
100
AcDbEntity
  8
0
 62
     7
100
AcDbVertex
100
AcDb2dVertex
 10
-43.20921529999999
 20
-100.0156209999999
 30
0.0
  0
VERTEX
  5
75B
330
36D
100
AcDbEntity
  8
0
 62
     7
100
AcDbVertex
100
AcDb2dVertex
 10
-43.13511489999999
 20
-100.259275
 30
0.0
  0
VERTEX
  5
75C
330
36D
100
AcDbEntity
  8
0
 62
     7
100
AcDbVertex
100
AcDb2dVertex
 10
-43.05340029999999
 20
-100.5
 30
0.0
  0
SEQEND
  5
75D
330
36D
100
AcDbEntity
  8
0
 62
     7
  0
POLYLINE
  5
384
330
1E
100
AcDbEntity
  8
0
 62
     7
100
AcDb2dPolyline
 66
     1
 10
0.0
 20
0.0
 30
0.0
  0
VERTEX
  5
75E
330
384
100
AcDbEntity
  8
0
 62
     7
100
AcDbVertex
100
AcDb2dVertex
 10
-43.05340029999999
 20
-100.5
 30
0.0
  0
VERTEX
  5
75F
330
384
100
AcDbEntity
  8
0
 62
     7
100
AcDbVertex
100
AcDb2dVertex
 10
-43.13511489999999
 20
-100.7407249999999
 30
0.0
  0
VERTEX
  5
760
330
384
100
AcDbEntity
  8
0
 62
     7
100
AcDbVertex
100
AcDb2dVertex
 10
-43.20921529999999
 20
-100.984379
 30
0.0
  0
VERTEX
  5
761
330
384
100
AcDbEntity
  8
0
 62
     7
100
AcDbVertex
100
AcDb2dVertex
 10
-43.27546889999999
 20
-101.230637
 30
0.0
  0
VERTEX
  5
762
330
384
100
AcDbEntity
  8
0
 62
     7
100
AcDbVertex
100
AcDb2dVertex
 10
-43.3336431
 20
-101.4791719999999
 30
0.0
  0
VERTEX
  5
763
330
384
100
AcDbEntity
  8
0
 62
     7
100
AcDbVertex
100
AcDb2dVertex
 10
-43.3835055
 20
-101.7296599999999
 30
0.0
  0
VERTEX
  5
764
330
384
100
AcDbEntity
  8
0
 62
     7
100
AcDbVertex
100
AcDb2dVertex
 10
-43.4248234
 20
-101.981776
 30
0.0
  0
VERTEX
  5
765
330
384
100
AcDbEntity
  8
0
 62
     7
100
AcDbVertex
100
AcDb2dVertex
 10
-43.45736429999999
 20
-102.235193
 30
0.0
  0
VERTEX
  5
766
330
384
100
AcDbEntity
  8
0
 62
     7
100
AcDbVertex
100
AcDb2dVertex
 10
-43.48089579999999
 20
-102.4895859999999
 30
0.0
  0
VERTEX
  5
767
330
384
100
AcDbEntity
  8
0
 62
     7
100
AcDbVertex
100
AcDb2dVertex
 10
-43.4951852
 20
-102.74463
 30
0.0
  0
VERTEX
  5
768
330
384
100
AcDbEntity
  8
0
 62
     7
100
AcDbVertex
100
AcDb2dVertex
 10
-43.5
 20
-103.0
 30
0.0
  0
VERTEX
  5
769
330
384
100
AcDbEntity
  8
0
 62
     7
100
AcDbVertex
100
AcDb2dVertex
 10
-43.4951852
 20
-103.2553689999999
 30
0.0
  0
VERTEX
  5
76A
330
384
100
AcDbEntity
  8
0
 62
     7
100
AcDbVertex
100
AcDb2dVertex
 10
-43.48089579999999
 20
-103.510414
 30
0.0
  0
VERTEX
  5
76B
330
384
100
AcDbEntity
  8
0
 62
     7
100
AcDbVertex
100
AcDb2dVertex
 10
-43.45736429999999
 20
-103.7648069999999
 30
0.0
  0
VERTEX
  5
76C
330
384
100
AcDbEntity
  8
0
 62
     7
100
AcDbVertex
100
AcDb2dVertex
 10
-43.4248234
 20
-104.018224
 30
0.0
  0
VERTEX
  5
76D
330
384
100
AcDbEntity
  8
0
 62
     7
100
AcDbVertex
100
AcDb2dVertex
 10
-43.3835055
 20
-104.270339
 30
0.0
  0
VERTEX
  5
76E
330
384
100
AcDbEntity
  8
0
 62
     7
100
AcDbVertex
100
AcDb2dVertex
 10
-43.3336431
 20
-104.520828
 30
0.0
  0
VERTEX
  5
76F
330
384
100
AcDbEntity
  8
0
 62
     7
100
AcDbVertex
100
AcDb2dVertex
 10
-43.27546889999999
 20
-104.7693629999999
 30
0.0
  0
VERTEX
  5
770
330
384
100
AcDbEntity
  8
0
 62
     7
100
AcDbVertex
100
AcDb2dVertex
 10
-43.20921529999999
 20
-105.0156209999999
 30
0.0
  0
VERTEX
  5
771
330
384
100
AcDbEntity
  8
0
 62
     7
100
AcDbVertex
100
AcDb2dVertex
 10
-43.13511489999999
 20
-105.259275
 30
0.0
  0
VERTEX
  5
772
330
384
100
AcDbEntity
  8
0
 62
     7
100
AcDbVertex
100
AcDb2dVertex
 10
-43.05340029999999
 20
-105.4999999999999
 30
0.0
  0
SEQEND
  5
773
330
384
100
AcDbEntity
  8
0
 62
     7
  0
POLYLINE
  5
39B
330
1E
100
AcDbEntity
  8
0
 62
     7
100
AcDb2dPolyline
 66
     1
 10
0.0
 20
0.0
 30
0.0
  0
VERTEX
  5
774
330
39B
100
AcDbEntity
  8
0
 62
     7
100
AcDbVertex
100
AcDb2dVertex
 10
-41.94659620000001
 20
-100.5
 30
0.0
  0
VERTEX
  5
775
330
39B
100
AcDbEntity
  8
0
 62
     7
100
AcDbVertex
100
AcDb2dVertex
 10
-41.8648822
 20
-100.7407249999999
 30
0.0
  0
VERTEX
  5
776
330
39B
100
AcDbEntity
  8
0
 62
     7
100
AcDbVertex
100
AcDb2dVertex
 10
-41.7907823
 20
-100.984379
 30
0.0
  0
VERTEX
  5
777
330
39B
100
AcDbEntity
  8
0
 62
     7
100
AcDbVertex
100
AcDb2dVertex
 10
-41.72452929999999
 20
-101.230637
 30
0.0
  0
VERTEX
  5
778
330
39B
100
AcDbEntity
  8
0
 62
     7
100
AcDbVertex
100
AcDb2dVertex
 10
-41.6663555
 20
-101.4791719999999
 30
0.0
  0
VERTEX
  5
779
330
39B
100
AcDbEntity
  8
0
 62
     7
100
AcDbVertex
100
AcDb2dVertex
 10
-41.6164936
 20
-101.729661
 30
0.0
  0
VERTEX
  5
77A
330
39B
100
AcDbEntity
  8
0
 62
     7
100
AcDbVertex
100
AcDb2dVertex
 10
-41.575176
 20
-101.981776
 30
0.0
  0
VERTEX
  5
77B
330
39B
100
AcDbEntity
  8
0
 62
     7
100
AcDbVertex
100
AcDb2dVertex
 10
-41.54263529999999
 20
-102.235193
 30
0.0
  0
VERTEX
  5
77C
330
39B
100
AcDbEntity
  8
0
 62
     7
100
AcDbVertex
100
AcDb2dVertex
 10
-41.519104
 20
-102.4895859999999
 30
0.0
  0
VERTEX
  5
77D
330
39B
100
AcDbEntity
  8
0
 62
     7
100
AcDbVertex
100
AcDb2dVertex
 10
-41.50481479999999
 20
-102.74463
 30
0.0
  0
VERTEX
  5
77E
330
39B
100
AcDbEntity
  8
0
 62
     7
100
AcDbVertex
100
AcDb2dVertex
 10
-41.5
 20
-103.0
 30
0.0
  0
VERTEX
  5
77F
330
39B
100
AcDbEntity
  8
0
 62
     7
100
AcDbVertex
100
AcDb2dVertex
 10
-41.50481479999999
 20
-103.2553689999999
 30
0.0
  0
VERTEX
  5
780
330
39B
100
AcDbEntity
  8
0
 62
     7
100
AcDbVertex
100
AcDb2dVertex
 10
-41.519104
 20
-103.510414
 30
0.0
  0
VERTEX
  5
781
330
39B
100
AcDbEntity
  8
0
 62
     7
100
AcDbVertex
100
AcDb2dVertex
 10
-41.54263529999999
 20
-103.7648069999999
 30
0.0
  0
VERTEX
  5
782
330
39B
100
AcDbEntity
  8
0
 62
     7
100
AcDbVertex
100
AcDb2dVertex
 10
-41.575176
 20
-104.018224
 30
0.0
  0
VERTEX
  5
783
330
39B
100
AcDbEntity
  8
0
 62
     7
100
AcDbVertex
100
AcDb2dVertex
 10
-41.6164936
 20
-104.270339
 30
0.0
  0
VERTEX
  5
784
330
39B
100
AcDbEntity
  8
0
 62
     7
100
AcDbVertex
100
AcDb2dVertex
 10
-41.6663555
 20
-104.520827
 30
0.0
  0
VERTEX
  5
785
330
39B
100
AcDbEntity
  8
0
 62
     7
100
AcDbVertex
100
AcDb2dVertex
 10
-41.72452929999999
 20
-104.7693629999999
 30
0.0
  0
VERTEX
  5
786
330
39B
100
AcDbEntity
  8
0
 62
     7
100
AcDbVertex
100
AcDb2dVertex
 10
-41.7907823
 20
-105.0156199999999
 30
0.0
  0
VERTEX
  5
787
330
39B
100
AcDbEntity
  8
0
 62
     7
100
AcDbVertex
100
AcDb2dVertex
 10
-41.8648822
 20
-105.259275
 30
0.0
  0
VERTEX
  5
788
330
39B
100
AcDbEntity
  8
0
 62
     7
100
AcDbVertex
100
AcDb2dVertex
 10
-41.94659620000001
 20
-105.4999999999999
 30
0.0
  0
SEQEND
  5
789
330
39B
100
AcDbEntity
  8
0
 62
     7
  0
POLYLINE
  5
3B2
330
1E
100
AcDbEntity
  8
0
 62
     7
100
AcDb2dPolyline
 66
     1
 10
0.0
 20
0.0
 30
0.0
  0
VERTEX
  5
78A
330
3B2
100
AcDbEntity
  8
0
 62
     7
100
AcDbVertex
100
AcDb2dVertex
 10
-41.94659620000001
 20
-95.4999998
 30
0.0
  0
VERTEX
  5
78B
330
3B2
100
AcDbEntity
  8
0
 62
     7
100
AcDbVertex
100
AcDb2dVertex
 10
-41.8648822
 20
-95.74072509999998
 30
0.0
  0
VERTEX
  5
78C
330
3B2
100
AcDbEntity
  8
0
 62
     7
100
AcDbVertex
100
AcDb2dVertex
 10
-41.7907823
 20
-95.98437930000001
 30
0.0
  0
VERTEX
  5
78D
330
3B2
100
AcDbEntity
  8
0
 62
     7
100
AcDbVertex
100
AcDb2dVertex
 10
-41.72452929999999
 20
-96.23063680000001
 30
0.0
  0
VERTEX
  5
78E
330
3B2
100
AcDbEntity
  8
0
 62
     7
100
AcDbVertex
100
AcDb2dVertex
 10
-41.6663555
 20
-96.47917240000001
 30
0.0
  0
VERTEX
  5
78F
330
3B2
100
AcDbEntity
  8
0
 62
     7
100
AcDbVertex
100
AcDb2dVertex
 10
-41.6164936
 20
-96.72966049999999
 30
0.0
  0
VERTEX
  5
790
330
3B2
100
AcDbEntity
  8
0
 62
     7
100
AcDbVertex
100
AcDb2dVertex
 10
-41.575176
 20
-96.98177579999999
 30
0.0
  0
VERTEX
  5
791
330
3B2
100
AcDbEntity
  8
0
 62
     7
100
AcDbVertex
100
AcDb2dVertex
 10
-41.54263529999999
 20
-97.23519279999999
 30
0.0
  0
VERTEX
  5
792
330
3B2
100
AcDbEntity
  8
0
 62
     7
100
AcDbVertex
100
AcDb2dVertex
 10
-41.519104
 20
-97.4895861
 30
0.0
  0
VERTEX
  5
793
330
3B2
100
AcDbEntity
  8
0
 62
     7
100
AcDbVertex
100
AcDb2dVertex
 10
-41.50481479999999
 20
-97.7446302
 30
0.0
  0
VERTEX
  5
794
330
3B2
100
AcDbEntity
  8
0
 62
     7
100
AcDbVertex
100
AcDb2dVertex
 10
-41.5
 20
-97.9999998
 30
0.0
  0
VERTEX
  5
795
330
3B2
100
AcDbEntity
  8
0
 62
     7
100
AcDbVertex
100
AcDb2dVertex
 10
-41.50481479999999
 20
-98.2553694
 30
0.0
  0
VERTEX
  5
796
330
3B2
100
AcDbEntity
  8
0
 62
     7
100
AcDbVertex
100
AcDb2dVertex
 10
-41.519104
 20
-98.5104135
 30
0.0
  0
VERTEX
  5
797
330
3B2
100
AcDbEntity
  8
0
 62
     7
100
AcDbVertex
100
AcDb2dVertex
 10
-41.54263529999999
 20
-98.7648068
 30
0.0
  0
VERTEX
  5
798
330
3B2
100
AcDbEntity
  8
0
 62
     7
100
AcDbVertex
100
AcDb2dVertex
 10
-41.575176
 20
-99.0182238
 30
0.0
  0
VERTEX
  5
799
330
3B2
100
AcDbEntity
  8
0
 62
     7
100
AcDbVertex
100
AcDb2dVertex
 10
-41.6164936
 20
-99.2703391
 30
0.0
  0
VERTEX
  5
79A
330
3B2
100
AcDbEntity
  8
0
 62
     7
100
AcDbVertex
100
AcDb2dVertex
 10
-41.6663555
 20
-99.52082719999999
 30
0.0
  0
VERTEX
  5
79B
330
3B2
100
AcDbEntity
  8
0
 62
     7
100
AcDbVertex
100
AcDb2dVertex
 10
-41.72452929999999
 20
-99.7693628
 30
0.0
  0
VERTEX
  5
79C
330
3B2
100
AcDbEntity
  8
0
 62
     7
100
AcDbVertex
100
AcDb2dVertex
 10
-41.7907823
 20
-100.0156199999999
 30
0.0
  0
VERTEX
  5
79D
330
3B2
100
AcDbEntity
  8
0
 62
     7
100
AcDbVertex
100
AcDb2dVertex
 10
-41.8648822
 20
-100.259275
 30
0.0
  0
VERTEX
  5
79E
330
3B2
100
AcDbEntity
  8
0
 62
     7
100
AcDbVertex
100
AcDb2dVertex
 10
-41.94659620000001
 20
-100.5
 30
0.0
  0
SEQEND
  5
79F
330
3B2
100
AcDbEntity
  8
0
 62
     7
  0
LINE
  5
3C9
330
1E
100
AcDbEntity
  8
0
  6
CENTER
 62
     2
100
AcDbLine
 10
219.4999999999999
 20
-48.0
 30
0.0
 11
219.4999999999999
 21
-51.4
 31
0.0
  0
LINE
  5
3CA
330
1E
100
AcDbEntity
  8
0
 62
     7
100
AcDbLine
 10
202.0
 20
21.0
 30
0.0
 11
202.0
 21
19.0
 31
0.0
  0
LINE
  5
3CB
330
1E
100
AcDbEntity
  8
0
 62
     7
100
AcDbLine
 10
198.0
 20
21.0
 30
0.0
 11
198.0
 21
19.0
 31
0.0
  0
LINE
  5
3CC
330
1E
100
AcDbEntity
  8
0
  6
CENTER
 62
     2
100
AcDbLine
 10
204.0
 20
21.0
 30
0.0
 11
196.0
 21
21.0
 31
0.0
  0
ARC
  5
3CD
330
1E
100
AcDbEntity
  8
0
 62
     7
100
AcDbCircle
 10
200.0
 20
21.0
 30
0.0
 40
2.0
100
AcDbArc
 50
0.0
 51
180.0
  0
ARC
  5
3CE
330
1E
100
AcDbEntity
  8
0
 62
     7
100
AcDbCircle
 10
200.0
 20
19.0
 30
0.0
 40
2.0
100
AcDbArc
 50
180.0
 51
0.0
  0
CIRCLE
  5
3CF
330
1E
100
AcDbEntity
  8
0
 62
     7
100
AcDbCircle
 10
200.0
 20
-20.0
 30
0.0
 40
2.0
  0
LINE
  5
3D0
330
1E
100
AcDbEntity
  8
0
  6
CENTER
 62
     2
100
AcDbLine
 10
204.0
 20
19.0
 30
0.0
 11
196.0
 21
19.0
 31
0.0
  0
LINE
  5
3D1
330
1E
100
AcDbEntity
  8
0
  6
CENTER
 62
     2
100
AcDbLine
 10
204.0
 20
-20.0
 30
0.0
 11
196.0
 21
-20.0
 31
0.0
  0
LINE
  5
3D2
330
1E
100
AcDbEntity
  8
0
 62
     7
100
AcDbLine
 10
187.5
 20
48.00002670000001
 30
0.0
 11
187.5
 21
-47.9999962
 31
0.0
  0
LINE
  5
3D3
330
1E
100
AcDbEntity
  8
0
 62
     7
100
AcDbLine
 10
212.5
 20
48.0000076
 30
0.0
 11
212.5
 21
-48.0
 31
0.0
  0
LINE
  5
3D4
330
1E
100
AcDbEntity
  8
0
 62
     7
100
AcDbLine
 10
187.0
 20
48.00002670000001
 30
0.0
 11
187.0
 21
-47.9999962
 31
0.0
  0
LINE
  5
3D5
330
1E
100
AcDbEntity
  8
0
 62
     7
100
AcDbLine
 10
213.0
 20
48.0000076
 30
0.0
 11
213.0
 21
-48.0
 31
0.0
  0
LINE
  5
3D6
330
1E
100
AcDbEntity
  8
0
 62
     7
100
AcDbLine
 10
184.4999999999999
 20
-48.3
 30
0.0
 11
176.5
 21
-48.3
 31
0.0
  0
LINE
  5
3D7
330
1E
100
AcDbEntity
  8
0
 62
     7
100
AcDbLine
 10
181.0
 20
-48.6
 30
0.0
 11
180.0
 21
-48.6
 31
0.0
  0
LINE
  5
3D8
330
1E
100
AcDbEntity
  8
0
 62
     7
100
AcDbLine
 10
176.5
 20
-49.2
 30
0.0
 11
180.0
 21
-49.2
 31
0.0
  0
LINE
  5
3D9
330
1E
100
AcDbEntity
  8
0
 62
     7
100
AcDbLine
 10
180.0
 20
-49.4
 30
0.0
 11
176.6999999999999
 21
-49.4
 31
0.0
  0
LINE
  5
3DA
330
1E
100
AcDbEntity
  8
0
 62
     7
100
AcDbLine
 10
180.0
 20
-48.6
 30
0.0
 11
180.0
 21
-49.4
 31
0.0
  0
LINE
  5
3DB
330
1E
100
AcDbEntity
  8
0
 62
     7
100
AcDbLine
 10
176.6999999999999
 20
-49.4
 30
0.0
 11
176.5
 21
-49.2
 31
0.0
  0
LINE
  5
3DC
330
1E
100
AcDbEntity
  8
0
 62
     7
100
AcDbLine
 10
176.5
 20
-48.3
 30
0.0
 11
176.5
 21
-49.2
 31
0.0
  0
LINE
  5
3DD
330
1E
100
AcDbEntity
  8
0
 62
     7
100
AcDbLine
 10
184.4999999999999
 20
-49.2
 30
0.0
 11
181.0
 21
-49.2
 31
0.0
  0
LINE
  5
3DE
330
1E
100
AcDbEntity
  8
0
 62
     7
100
AcDbLine
 10
181.0
 20
-48.6
 30
0.0
 11
181.0
 21
-49.4
 31
0.0
  0
LINE
  5
3DF
330
1E
100
AcDbEntity
  8
0
 62
     7
100
AcDbLine
 10
184.3
 20
-49.4
 30
0.0
 11
184.4999999999999
 21
-49.2
 31
0.0
  0
LINE
  5
3E0
330
1E
100
AcDbEntity
  8
0
 62
     7
100
AcDbLine
 10
184.3
 20
-49.4
 30
0.0
 11
181.0
 21
-49.4
 31
0.0
  0
LINE
  5
3E1
330
1E
100
AcDbEntity
  8
0
 62
     7
100
AcDbLine
 10
184.4999999999999
 20
-48.3
 30
0.0
 11
184.4999999999999
 21
-49.2
 31
0.0
  0
LINE
  5
3E2
330
1E
100
AcDbEntity
  8
0
 62
     7
100
AcDbLine
 10
176.6
 20
-48.0
 30
0.0
 11
176.6
 21
-48.3
 31
0.0
  0
LINE
  5
3E3
330
1E
100
AcDbEntity
  8
0
 62
     7
100
AcDbLine
 10
184.4
 20
-48.0
 30
0.0
 11
184.4
 21
-48.3
 31
0.0
  0
LINE
  5
3E4
330
1E
100
AcDbEntity
  8
0
  6
CENTER
 62
     2
100
AcDbLine
 10
180.4999999999999
 20
-48.0
 30
0.0
 11
180.4999999999999
 21
-51.4
 31
0.0
  0
LINE
  5
3E5
330
1E
100
AcDbEntity
  8
0
  6
CENTER
 62
     2
100
AcDbLine
 10
180.4999999999999
 20
51.4
 30
0.0
 11
180.4999999999999
 21
48.0
 31
0.0
  0
LINE
  5
3E6
330
1E
100
AcDbEntity
  8
0
 62
     7
100
AcDbLine
 10
184.4999999999999
 20
48.3
 30
0.0
 11
184.4999999999999
 21
49.2
 31
0.0
  0
LINE
  5
3E7
330
1E
100
AcDbEntity
  8
0
 62
     7
100
AcDbLine
 10
184.3
 20
49.4
 30
0.0
 11
181.0
 21
49.4
 31
0.0
  0
LINE
  5
3E8
330
1E
100
AcDbEntity
  8
0
 62
     7
100
AcDbLine
 10
184.3
 20
49.4
 30
0.0
 11
184.4999999999999
 21
49.2
 31
0.0
  0
LINE
  5
3E9
330
1E
100
AcDbEntity
  8
0
 62
     7
100
AcDbLine
 10
181.0
 20
48.6
 30
0.0
 11
181.0
 21
49.4
 31
0.0
  0
LINE
  5
3EA
330
1E
100
AcDbEntity
  8
0
 62
     7
100
AcDbLine
 10
184.4999999999999
 20
49.2
 30
0.0
 11
181.0
 21
49.2
 31
0.0
  0
LINE
  5
3EB
330
1E
100
AcDbEntity
  8
0
 62
     7
100
AcDbLine
 10
176.5
 20
48.3
 30
0.0
 11
176.5
 21
49.2
 31
0.0
  0
LINE
  5
3EC
330
1E
100
AcDbEntity
  8
0
 62
     7
100
AcDbLine
 10
176.6999999999999
 20
49.4
 30
0.0
 11
176.5
 21
49.2
 31
0.0
  0
LINE
  5
3ED
330
1E
100
AcDbEntity
  8
0
 62
     7
100
AcDbLine
 10
180.0
 20
48.6
 30
0.0
 11
180.0
 21
49.4
 31
0.0
  0
LINE
  5
3EE
330
1E
100
AcDbEntity
  8
0
 62
     7
100
AcDbLine
 10
180.0
 20
49.4
 30
0.0
 11
176.6999999999999
 21
49.4
 31
0.0
  0
LINE
  5
3EF
330
1E
100
AcDbEntity
  8
0
 62
     7
100
AcDbLine
 10
176.5
 20
49.2
 30
0.0
 11
180.0
 21
49.2
 31
0.0
  0
LINE
  5
3F0
330
1E
100
AcDbEntity
  8
0
 62
     7
100
AcDbLine
 10
181.0
 20
48.6
 30
0.0
 11
180.0
 21
48.6
 31
0.0
  0
LINE
  5
3F1
330
1E
100
AcDbEntity
  8
0
 62
     7
100
AcDbLine
 10
184.4999999999999
 20
48.3
 30
0.0
 11
176.5
 21
48.3
 31
0.0
  0
LINE
  5
3F2
330
1E
100
AcDbEntity
  8
0
 62
     7
100
AcDbLine
 10
184.4
 20
48.0
 30
0.0
 11
184.4
 21
48.3
 31
0.0
  0
LINE
  5
3F3
330
1E
100
AcDbEntity
  8
0
 62
     7
100
AcDbLine
 10
176.6
 20
48.0
 30
0.0
 11
176.6
 21
48.3
 31
0.0
  0
LINE
  5
3F4
330
1E
100
AcDbEntity
  8
0
 62
     7
100
AcDbLine
 10
215.6
 20
-48.0
 30
0.0
 11
215.6
 21
-48.3
 31
0.0
  0
LINE
  5
3F5
330
1E
100
AcDbEntity
  8
0
 62
     7
100
AcDbLine
 10
223.3999999999999
 20
-48.0
 30
0.0
 11
223.3999999999999
 21
-48.3
 31
0.0
  0
LINE
  5
3F6
330
1E
100
AcDbEntity
  8
0
 62
     7
100
AcDbLine
 10
223.3999999999999
 20
48.0
 30
0.0
 11
223.3999999999999
 21
48.3
 31
0.0
  0
LINE
  5
3F7
330
1E
100
AcDbEntity
  8
0
 62
     7
100
AcDbLine
 10
215.6
 20
48.0
 30
0.0
 11
215.6
 21
48.3
 31
0.0
  0
LINE
  5
3F8
330
1E
100
AcDbEntity
  8
0
 62
     7
100
AcDbLine
 10
228.0
 20
-41.5
 30
0.0
 11
228.0
 21
-38.0
 31
0.0
  0
LINE
  5
3F9
330
1E
100
AcDbEntity
  8
0
 62
     7
100
AcDbLine
 10
228.2
 20
-38.0
 30
0.0
 11
228.2
 21
-41.29999999999999
 31
0.0
  0
LINE
  5
3FA
330
1E
100
AcDbEntity
  8
0
 62
     7
100
AcDbLine
 10
227.4
 20
-38.0
 30
0.0
 11
228.2
 21
-38.0
 31
0.0
  0
LINE
  5
3FB
330
1E
100
AcDbEntity
  8
0
 62
     7
100
AcDbLine
 10
228.2
 20
-41.29999999999999
 30
0.0
 11
228.0
 21
-41.5
 31
0.0
  0
LINE
  5
3FC
330
1E
100
AcDbEntity
  8
0
 62
     7
100
AcDbLine
 10
227.0999999999999
 20
-41.5
 30
0.0
 11
228.0
 21
-41.5
 31
0.0
  0
LINE
  5
3FD
330
1E
100
AcDbEntity
  8
0
 62
     7
100
AcDbLine
 10
228.0
 20
-33.5
 30
0.0
 11
228.0
 21
-37.0
 31
0.0
  0
LINE
  5
3FE
330
1E
100
AcDbEntity
  8
0
 62
     7
100
AcDbLine
 10
227.4
 20
-37.0
 30
0.0
 11
228.2
 21
-37.0
 31
0.0
  0
LINE
  5
3FF
330
1E
100
AcDbEntity
  8
0
 62
     7
100
AcDbLine
 10
228.2
 20
-33.7
 30
0.0
 11
228.0
 21
-33.5
 31
0.0
  0
LINE
  5
400
330
1E
100
AcDbEntity
  8
0
 62
     7
100
AcDbLine
 10
228.2
 20
-33.7
 30
0.0
 11
228.2
 21
-37.0
 31
0.0
  0
LINE
  5
401
330
1E
100
AcDbEntity
  8
0
 62
     7
100
AcDbLine
 10
227.0999999999999
 20
-33.5
 30
0.0
 11
228.0
 21
-33.5
 31
0.0
  0
LINE
  5
402
330
1E
100
AcDbEntity
  8
0
 62
     7
100
AcDbLine
 10
227.4
 20
-37.0
 30
0.0
 11
227.4
 21
-38.0
 31
0.0
  0
LINE
  5
403
330
1E
100
AcDbEntity
  8
0
 62
     7
100
AcDbLine
 10
227.0999999999999
 20
-33.5
 30
0.0
 11
227.0999999999999
 21
-41.5
 31
0.0
  0
LINE
  5
404
330
1E
100
AcDbEntity
  8
0
 62
     7
100
AcDbLine
 10
227.0999999999999
 20
-41.39999999999999
 30
0.0
 11
226.5
 21
-41.39999999999999
 31
0.0
  0
LINE
  5
405
330
1E
100
AcDbEntity
  8
0
 62
     7
100
AcDbLine
 10
227.0999999999999
 20
-33.6
 30
0.0
 11
226.5
 21
-33.6
 31
0.0
  0
LINE
  5
406
330
1E
100
AcDbEntity
  8
0
  6
CENTER
 62
     2
100
AcDbLine
 10
226.5
 20
-37.5
 30
0.0
 11
230.2
 21
-37.5
 31
0.0
  0
LINE
  5
407
330
1E
100
AcDbEntity
  8
0
 62
     7
100
AcDbLine
 10
227.0999999999999
 20
33.5
 30
0.0
 11
227.0999999999999
 21
41.5
 31
0.0
  0
LINE
  5
408
330
1E
100
AcDbEntity
  8
0
 62
     7
100
AcDbLine
 10
227.4
 20
37.0
 30
0.0
 11
227.4
 21
38.0
 31
0.0
  0
LINE
  5
409
330
1E
100
AcDbEntity
  8
0
 62
     7
100
AcDbLine
 10
227.0999999999999
 20
33.5
 30
0.0
 11
228.0
 21
33.5
 31
0.0
  0
LINE
  5
40A
330
1E
100
AcDbEntity
  8
0
 62
     7
100
AcDbLine
 10
228.2
 20
33.7
 30
0.0
 11
228.2
 21
37.0
 31
0.0
  0
LINE
  5
40B
330
1E
100
AcDbEntity
  8
0
 62
     7
100
AcDbLine
 10
228.2
 20
33.7
 30
0.0
 11
228.0
 21
33.5
 31
0.0
  0
LINE
  5
40C
330
1E
100
AcDbEntity
  8
0
 62
     7
100
AcDbLine
 10
227.4
 20
37.0
 30
0.0
 11
228.2
 21
37.0
 31
0.0
  0
LINE
  5
40D
330
1E
100
AcDbEntity
  8
0
 62
     7
100
AcDbLine
 10
228.0
 20
33.5
 30
0.0
 11
228.0
 21
37.0
 31
0.0
  0
LINE
  5
40E
330
1E
100
AcDbEntity
  8
0
 62
     7
100
AcDbLine
 10
227.0999999999999
 20
41.5
 30
0.0
 11
228.0
 21
41.5
 31
0.0
  0
LINE
  5
40F
330
1E
100
AcDbEntity
  8
0
 62
     7
100
AcDbLine
 10
228.2
 20
41.29999999999999
 30
0.0
 11
228.0
 21
41.5
 31
0.0
  0
LINE
  5
410
330
1E
100
AcDbEntity
  8
0
 62
     7
100
AcDbLine
 10
227.4
 20
38.0
 30
0.0
 11
228.2
 21
38.0
 31
0.0
  0
LINE
  5
411
330
1E
100
AcDbEntity
  8
0
 62
     7
100
AcDbLine
 10
228.2
 20
38.0
 30
0.0
 11
228.2
 21
41.29999999999999
 31
0.0
  0
LINE
  5
412
330
1E
100
AcDbEntity
  8
0
 62
     7
100
AcDbLine
 10
228.0
 20
41.5
 30
0.0
 11
228.0
 21
38.0
 31
0.0
  0
LINE
  5
413
330
1E
100
AcDbEntity
  8
0
 62
     7
100
AcDbLine
 10
227.0999999999999
 20
41.39999999999999
 30
0.0
 11
226.5
 21
41.39999999999999
 31
0.0
  0
LINE
  5
414
330
1E
100
AcDbEntity
  8
0
 62
     7
100
AcDbLine
 10
227.0999999999999
 20
33.6
 30
0.0
 11
226.5
 21
33.6
 31
0.0
  0
LINE
  5
415
330
1E
100
AcDbEntity
  8
0
  6
CENTER
 62
     2
100
AcDbLine
 10
195.0
 20
-32.0
 30
0.0
 11
205.0
 21
-32.0
 31
0.0
  0
CIRCLE
  5
416
330
1E
100
AcDbEntity
  8
0
 62
     2
100
AcDbCircle
 10
200.0
 20
-32.0
 30
0.0
 40
3.0
  0
CIRCLE
  5
417
330
1E
100
AcDbEntity
  8
0
 62
     2
100
AcDbCircle
 10
200.0
 20
32.0
 30
0.0
 40
3.0
  0
CIRCLE
  5
418
330
1E
100
AcDbEntity
  8
0
 62
     7
100
AcDbCircle
 10
200.0
 20
-32.0
 30
0.0
 40
2.6
  0
CIRCLE
  5
419
330
1E
100
AcDbEntity
  8
0
 62
     7
100
AcDbCircle
 10
200.0
 20
32.0
 30
0.0
 40
2.6
  0
LINE
  5
41A
330
1E
100
AcDbEntity
  8
0
  6
CENTER
 62
     2
100
AcDbLine
 10
195.0
 20
32.0
 30
0.0
 11
205.0
 21
32.0
 31
0.0
  0
CIRCLE
  5
41B
330
1E
100
AcDbEntity
  8
0
 62
     7
100
AcDbCircle
 10
200.0
 20
0.0
 30
0.0
 40
10.5
  0
LINE
  5
41C
330
1E
100
AcDbEntity
  8
0
  6
CENTER
 62
     2
100
AcDbLine
 10
226.5
 20
37.5
 30
0.0
 11
230.2
 21
37.5
 31
0.0
  0
ARC
  5
41D
330
1E
100
AcDbEntity
  8
0
 62
     7
100
AcDbCircle
 10
170.9441679999999
 20
-13.16989519999999
 30
0.0
 40
2.555816169999999
100
AcDbArc
 50
325.6156439999999
 51
34.3843657
  0
ARC
  5
41E
330
1E
100
AcDbEntity
  8
0
 62
     7
100
AcDbCircle
 10
170.9441679999999
 20
-21.83009719999999
 30
0.0
 40
2.555816169999999
100
AcDbArc
 50
325.615617
 51
34.3843384
  0
ARC
  5
41F
330
1E
100
AcDbEntity
  8
0
 62
     7
100
AcDbCircle
 10
163.9465949999999
 20
-17.4999733
 30
0.0
 40
9.55339146
100
AcDbArc
 50
342.4119539999999
 51
17.5879743
  0
ARC
  5
420
330
1E
100
AcDbEntity
  8
0
 62
     7
100
AcDbCircle
 10
174.0558019999999
 20
-13.16989519999999
 30
0.0
 40
2.555816169999999
100
AcDbArc
 50
145.615598
 51
214.38432
  0
ARC
  5
421
330
1E
100
AcDbEntity
  8
0
 62
     7
100
AcDbCircle
 10
181.053391
 20
-17.4999733
 30
0.0
 40
9.55339146
100
AcDbArc
 50
162.4119889999999
 51
197.5880099999999
  0
ARC
  5
422
330
1E
100
AcDbEntity
  8
0
 62
     7
100
AcDbCircle
 10
174.0558169999999
 20
-21.83009719999999
 30
0.0
 40
2.555816169999999
100
AcDbArc
 50
145.615626
 51
214.384347
  0
LINE
  5
423
330
1E
100
AcDbEntity
  8
0
 62
     7
100
AcDbLine
 10
173.053378
 20
-11.7265348
 30
0.0
 11
173.4999489999999
 21
-12.50001909999999
 31
0.0
  0
LINE
  5
424
330
1E
100
AcDbEntity
  8
0
 62
     7
100
AcDbLine
 10
173.0533829999999
 20
-23.27346879999999
 30
0.0
 11
173.4999699999999
 21
-22.4999581
 31
0.0
  0
LINE
  5
425
330
1E
100
AcDbEntity
  8
0
 62
     7
100
AcDbLine
 10
171.9465419999999
 20
-11.7265095
 30
0.0
 11
171.4999549999999
 21
-12.5000201
 31
0.0
  0
LINE
  5
426
330
1E
100
AcDbEntity
  8
0
 62
     7
100
AcDbLine
 10
171.9465539999999
 20
-23.2734778
 30
0.0
 11
171.499967
 21
-22.4999671
 31
0.0
  0
LINE
  5
427
330
1E
100
AcDbEntity
  8
0
 62
     7
100
AcDbLine
 10
173.053345
 20
-11.7264557
 30
0.0
 11
171.9465639999999
 21
-11.7264557
 31
0.0
  0
LINE
  5
428
330
1E
100
AcDbEntity
  8
0
 62
     7
100
AcDbLine
 10
173.053391
 20
-14.613205
 30
0.0
 11
171.9465639999999
 21
-14.613205
 31
0.0
  0
LINE
  5
429
330
1E
100
AcDbEntity
  8
0
 62
     7
100
AcDbLine
 10
173.053406
 20
-20.38670349999999
 30
0.0
 11
171.9465639999999
 21
-20.38670349999999
 31
0.0
  0
LINE
  5
42A
330
1E
100
AcDbEntity
  8
0
 62
     7
100
AcDbLine
 10
173.053391
 20
-23.27346799999999
 30
0.0
 11
171.9465639999999
 21
-23.27346799999999
 31
0.0
  0
LINE
  5
42B
330
1E
100
AcDbEntity
  8
0
 62
     7
100
AcDbLine
 10
171.5
 20
-22.4999886
 30
0.0
 11
171.5
 21
-12.5000496
 31
0.0
  0
LINE
  5
42C
330
1E
100
AcDbEntity
  8
0
 62
     7
100
AcDbLine
 10
171.5
 20
22.4999886
 30
0.0
 11
171.5
 21
12.5000496
 31
0.0
  0
LINE
  5
42D
330
1E
100
AcDbEntity
  8
0
 62
     7
100
AcDbLine
 10
173.053391
 20
23.27346799999999
 30
0.0
 11
171.9465639999999
 21
23.27346799999999
 31
0.0
  0
LINE
  5
42E
330
1E
100
AcDbEntity
  8
0
 62
     7
100
AcDbLine
 10
173.053406
 20
20.38670349999999
 30
0.0
 11
171.9465639999999
 21
20.38670349999999
 31
0.0
  0
LINE
  5
42F
330
1E
100
AcDbEntity
  8
0
 62
     7
100
AcDbLine
 10
173.053391
 20
14.613205
 30
0.0
 11
171.9465639999999
 21
14.613205
 31
0.0
  0
LINE
  5
430
330
1E
100
AcDbEntity
  8
0
 62
     7
100
AcDbLine
 10
173.053345
 20
11.7264557
 30
0.0
 11
171.9465639999999
 21
11.7264557
 31
0.0
  0
LINE
  5
431
330
1E
100
AcDbEntity
  8
0
 62
     7
100
AcDbLine
 10
171.9465539999999
 20
23.2734778
 30
0.0
 11
171.499967
 21
22.4999671
 31
0.0
  0
LINE
  5
432
330
1E
100
AcDbEntity
  8
0
 62
     7
100
AcDbLine
 10
171.9465419999999
 20
11.7265095
 30
0.0
 11
171.4999549999999
 21
12.5000201
 31
0.0
  0
LINE
  5
433
330
1E
100
AcDbEntity
  8
0
 62
     7
100
AcDbLine
 10
173.0533829999999
 20
23.27346879999999
 30
0.0
 11
173.4999699999999
 21
22.4999581
 31
0.0
  0
LINE
  5
434
330
1E
100
AcDbEntity
  8
0
 62
     7
100
AcDbLine
 10
173.053378
 20
11.7265348
 30
0.0
 11
173.4999489999999
 21
12.50001909999999
 31
0.0
  0
ARC
  5
435
330
1E
100
AcDbEntity
  8
0
 62
     7
100
AcDbCircle
 10
174.0558169999999
 20
21.83009719999999
 30
0.0
 40
2.555816169999999
100
AcDbArc
 50
145.615653
 51
214.384375
  0
ARC
  5
436
330
1E
100
AcDbEntity
  8
0
 62
     7
100
AcDbCircle
 10
181.053391
 20
17.4999733
 30
0.0
 40
9.55339146
100
AcDbArc
 50
162.4119889999999
 51
197.5880099999999
  0
ARC
  5
437
330
1E
100
AcDbEntity
  8
0
 62
     7
100
AcDbCircle
 10
174.0558019999999
 20
13.16989519999999
 30
0.0
 40
2.555816169999999
100
AcDbArc
 50
145.61568
 51
214.3844009999999
  0
ARC
  5
438
330
1E
100
AcDbEntity
  8
0
 62
     7
100
AcDbCircle
 10
163.9465949999999
 20
17.4999733
 30
0.0
 40
9.55339146
100
AcDbArc
 50
342.4120259999999
 51
17.5880463
  0
ARC
  5
439
330
1E
100
AcDbEntity
  8
0
 62
     7
100
AcDbCircle
 10
170.9441679999999
 20
21.83009719999999
 30
0.0
 40
2.555816169999999
100
AcDbArc
 50
325.615662
 51
34.384383
  0
ARC
  5
43A
330
1E
100
AcDbEntity
  8
0
 62
     7
100
AcDbCircle
 10
170.9441679999999
 20
13.16989519999999
 30
0.0
 40
2.555816169999999
100
AcDbArc
 50
325.6156339999999
 51
34.3843557
  0
LINE
  5
43B
330
1E
100
AcDbEntity
  8
0
 62
     7
100
AcDbLine
 10
173.5
 20
48.00002670000001
 30
0.0
 11
173.5
 21
-47.9999962
 31
0.0
  0
CIRCLE
  5
43C
330
1E
100
AcDbEntity
  8
0
 62
     7
100
AcDbCircle
 10
181.4999999999999
 20
-38.5
 30
0.0
 40
3.0
  0
LINE
  5
43D
330
1E
100
AcDbEntity
  8
0
  6
CENTER
 62
     2
100
AcDbLine
 10
186.5
 20
-38.5
 30
0.0
 11
176.5
 21
-38.5
 31
0.0
  0
CIRCLE
  5
43E
330
1E
100
AcDbEntity
  8
0
 62
     7
100
AcDbCircle
 10
218.5
 20
38.5
 30
0.0
 40
3.0
  0
LINE
  5
43F
330
1E
100
AcDbEntity
  8
0
  6
CENTER
 62
     2
100
AcDbLine
 10
213.5
 20
38.5
 30
0.0
 11
223.4999999999999
 21
38.5
 31
0.0
  0
LINE
  5
440
330
1E
100
AcDbEntity
  8
0
  6
CENTER
 62
     2
100
AcDbLine
 10
230.5
 20
0.0
 30
0.0
 11
169.5
 21
0.0
 31
0.0
  0
LINE
  5
441
330
1E
100
AcDbEntity
  8
0
 62
     7
100
AcDbLine
 10
226.5
 20
48.0
 30
0.0
 11
173.5
 21
48.0
 31
0.0
  0
LINE
  5
442
330
1E
100
AcDbEntity
  8
0
  6
CENTER
 62
     2
100
AcDbLine
 10
200.0
 20
52.0
 30
0.0
 11
200.0
 21
-52.0
 31
0.0
  0
LINE
  5
443
330
1E
100
AcDbEntity
  8
0
 62
     7
100
AcDbLine
 10
226.5
 20
48.0000076
 30
0.0
 11
226.5
 21
-48.0
 31
0.0
  0
LINE
  5
444
330
1E
100
AcDbEntity
  8
0
 62
     7
100
AcDbLine
 10
226.5
 20
-48.0
 30
0.0
 11
173.5
 21
-48.0
 31
0.0
  0
LINE
  5
445
330
1E
100
AcDbEntity
  8
0
 62
     7
100
AcDbLine
 10
175.0
 20
-48.0
 30
0.0
 11
175.0
 21
48.0
 31
0.0
  0
LINE
  5
446
330
1E
100
AcDbEntity
  8
0
 62
     7
100
AcDbLine
 10
225.0
 20
48.0000076
 30
0.0
 11
225.0
 21
-48.0
 31
0.0
  0
LINE
  5
447
330
1E
100
AcDbEntity
  8
0
  6
CENTER
 62
     2
100
AcDbLine
 10
218.5
 20
33.5
 30
0.0
 11
218.5
 21
43.5
 31
0.0
  0
LINE
  5
448
330
1E
100
AcDbEntity
  8
0
  6
CENTER
 62
     2
100
AcDbLine
 10
219.4999999999999
 20
51.4
 30
0.0
 11
219.4999999999999
 21
48.0
 31
0.0
  0
CIRCLE
  5
449
330
1E
100
AcDbEntity
  8
0
 62
     7
100
AcDbCircle
 10
218.5
 20
38.5
 30
0.0
 40
1.25
  0
CIRCLE
  5
44A
330
1E
100
AcDbEntity
  8
0
 62
     7
100
AcDbCircle
 10
181.4999999999999
 20
-38.5
 30
0.0
 40
1.25
  0
CIRCLE
  5
44B
330
1E
100
AcDbEntity
  8
0
 62
     7
100
AcDbCircle
 10
200.0
 20
0.0
 30
0.0
 40
11.0
  0
CIRCLE
  5
44C
330
1E
100
AcDbEntity
  8
0
 62
     7
100
AcDbCircle
 10
200.0
 20
-4.0
 30
0.0
 40
1.5
  0
CIRCLE
  5
44D
330
1E
100
AcDbEntity
  8
0
 62
     7
100
AcDbCircle
 10
200.0
 20
4.0
 30
0.0
 40
1.5
  0
LINE
  5
44E
330
1E
100
AcDbEntity
  8
0
 62
     7
100
AcDbLine
 10
215.5
 20
48.3
 30
0.0
 11
223.4999999999999
 21
48.3
 31
0.0
  0
LINE
  5
44F
330
1E
100
AcDbEntity
  8
0
 62
     7
100
AcDbLine
 10
219.0
 20
48.6
 30
0.0
 11
220.0
 21
48.6
 31
0.0
  0
LINE
  5
450
330
1E
100
AcDbEntity
  8
0
 62
     7
100
AcDbLine
 10
223.4999999999999
 20
49.2
 30
0.0
 11
220.0
 21
49.2
 31
0.0
  0
LINE
  5
451
330
1E
100
AcDbEntity
  8
0
 62
     7
100
AcDbLine
 10
220.0
 20
49.4
 30
0.0
 11
223.3
 21
49.4
 31
0.0
  0
LINE
  5
452
330
1E
100
AcDbEntity
  8
0
 62
     7
100
AcDbLine
 10
220.0
 20
48.6
 30
0.0
 11
220.0
 21
49.4
 31
0.0
  0
LINE
  5
453
330
1E
100
AcDbEntity
  8
0
 62
     7
100
AcDbLine
 10
223.3
 20
49.4
 30
0.0
 11
223.4999999999999
 21
49.2
 31
0.0
  0
LINE
  5
454
330
1E
100
AcDbEntity
  8
0
 62
     7
100
AcDbLine
 10
223.4999999999999
 20
48.3
 30
0.0
 11
223.4999999999999
 21
49.2
 31
0.0
  0
LINE
  5
455
330
1E
100
AcDbEntity
  8
0
 62
     7
100
AcDbLine
 10
215.5
 20
49.2
 30
0.0
 11
219.0
 21
49.2
 31
0.0
  0
LINE
  5
456
330
1E
100
AcDbEntity
  8
0
 62
     7
100
AcDbLine
 10
219.0
 20
48.6
 30
0.0
 11
219.0
 21
49.4
 31
0.0
  0
LINE
  5
457
330
1E
100
AcDbEntity
  8
0
 62
     7
100
AcDbLine
 10
215.7
 20
49.4
 30
0.0
 11
215.5
 21
49.2
 31
0.0
  0
LINE
  5
458
330
1E
100
AcDbEntity
  8
0
 62
     7
100
AcDbLine
 10
215.7
 20
49.4
 30
0.0
 11
219.0
 21
49.4
 31
0.0
  0
LINE
  5
459
330
1E
100
AcDbEntity
  8
0
 62
     7
100
AcDbLine
 10
215.5
 20
48.3
 30
0.0
 11
215.5
 21
49.2
 31
0.0
  0
LINE
  5
45A
330
1E
100
AcDbEntity
  8
0
 62
     7
100
AcDbLine
 10
215.5
 20
-48.3
 30
0.0
 11
215.5
 21
-49.2
 31
0.0
  0
LINE
  5
45B
330
1E
100
AcDbEntity
  8
0
 62
     7
100
AcDbLine
 10
215.7
 20
-49.4
 30
0.0
 11
219.0
 21
-49.4
 31
0.0
  0
LINE
  5
45C
330
1E
100
AcDbEntity
  8
0
 62
     7
100
AcDbLine
 10
215.7
 20
-49.4
 30
0.0
 11
215.5
 21
-49.2
 31
0.0
  0
LINE
  5
45D
330
1E
100
AcDbEntity
  8
0
 62
     7
100
AcDbLine
 10
219.0
 20
-48.6
 30
0.0
 11
219.0
 21
-49.4
 31
0.0
  0
LINE
  5
45E
330
1E
100
AcDbEntity
  8
0
 62
     7
100
AcDbLine
 10
215.5
 20
-49.2
 30
0.0
 11
219.0
 21
-49.2
 31
0.0
  0
LINE
  5
45F
330
1E
100
AcDbEntity
  8
0
 62
     7
100
AcDbLine
 10
223.4999999999999
 20
-48.3
 30
0.0
 11
223.4999999999999
 21
-49.2
 31
0.0
  0
LINE
  5
460
330
1E
100
AcDbEntity
  8
0
 62
     7
100
AcDbLine
 10
223.3
 20
-49.4
 30
0.0
 11
223.4999999999999
 21
-49.2
 31
0.0
  0
LINE
  5
461
330
1E
100
AcDbEntity
  8
0
 62
     7
100
AcDbLine
 10
220.0
 20
-48.6
 30
0.0
 11
220.0
 21
-49.4
 31
0.0
  0
LINE
  5
462
330
1E
100
AcDbEntity
  8
0
 62
     7
100
AcDbLine
 10
220.0
 20
-49.4
 30
0.0
 11
223.3
 21
-49.4
 31
0.0
  0
LINE
  5
463
330
1E
100
AcDbEntity
  8
0
 62
     7
100
AcDbLine
 10
223.4999999999999
 20
-49.2
 30
0.0
 11
220.0
 21
-49.2
 31
0.0
  0
LINE
  5
464
330
1E
100
AcDbEntity
  8
0
 62
     7
100
AcDbLine
 10
219.0
 20
-48.6
 30
0.0
 11
220.0
 21
-48.6
 31
0.0
  0
LINE
  5
465
330
1E
100
AcDbEntity
  8
0
 62
     7
100
AcDbLine
 10
215.5
 20
-48.3
 30
0.0
 11
223.4999999999999
 21
-48.3
 31
0.0
  0
LINE
  5
466
330
1E
100
AcDbEntity
  8
0
  6
CENTER
 62
     2
100
AcDbLine
 10
181.4999999999999
 20
-33.5
 30
0.0
 11
181.4999999999999
 21
-43.5
 31
0.0
  0
LINE
  5
467
330
1E
100
AcDbEntity
  8
0
  6
CENTER
 62
     2
100
AcDbLine
 10
173.5
 20
17.5
 30
0.0
 11
153.5
 21
17.5
 31
0.0
  0
LINE
  5
468
330
1E
100
AcDbEntity
  8
0
 62
     7
100
AcDbLine
 10
171.5
 20
21.49999999999999
 30
0.0
 11
161.0
 21
21.49999999999999
 31
0.0
  0
LINE
  5
469
330
1E
100
AcDbEntity
  8
0
 62
     7
100
AcDbLine
 10
171.5
 20
13.5
 30
0.0
 11
161.0
 21
13.5
 31
0.0
  0
LINE
  5
46A
330
1E
100
AcDbEntity
  8
0
 62
     2
100
AcDbLine
 10
160.625
 20
21.125
 30
0.0
 11
171.5
 21
21.125
 31
0.0
  0
LINE
  5
46B
330
1E
100
AcDbEntity
  8
0
 62
     2
100
AcDbLine
 10
171.5
 20
13.875
 30
0.0
 11
160.625
 21
13.875
 31
0.0
  0
LINE
  5
46C
330
1E
100
AcDbEntity
  8
0
 62
     7
100
AcDbLine
 10
161.0
 20
21.49999999999999
 30
0.0
 11
161.0
 21
19.43649169999999
 31
0.0
  0
LINE
  5
46D
330
1E
100
AcDbEntity
  8
0
 62
     7
100
AcDbLine
 10
160.4999999999999
 20
14.0
 30
0.0
 11
161.0
 21
13.5
 31
0.0
  0
LINE
  5
46E
330
1E
100
AcDbEntity
  8
0
 62
     7
100
AcDbLine
 10
160.4999999999999
 20
21.0
 30
0.0
 11
161.0
 21
21.49999999999999
 31
0.0
  0
LINE
  5
46F
330
1E
100
AcDbEntity
  8
0
 62
     7
100
AcDbLine
 10
160.4999999999999
 20
21.0
 30
0.0
 11
160.4999999999999
 21
14.0
 31
0.0
  0
LINE
  5
470
330
1E
100
AcDbEntity
  8
0
 62
     7
100
AcDbLine
 10
155.4999999999999
 20
20.4
 30
0.0
 11
155.4999999999999
 21
14.59999999999999
 31
0.0
  0
LINE
  5
471
330
1E
100
AcDbEntity
  8
0
 62
     7
100
AcDbLine
 10
160.4999999999999
 20
20.89999999999999
 30
0.0
 11
156.0
 21
20.89999999999999
 31
0.0
  0
LINE
  5
472
330
1E
100
AcDbEntity
  8
0
 62
     7
100
AcDbLine
 10
160.4999999999999
 20
14.1
 30
0.0
 11
156.0
 21
14.1
 31
0.0
  0
LINE
  5
473
330
1E
100
AcDbEntity
  8
0
 62
     7
100
AcDbLine
 10
156.0
 20
20.89999999999999
 30
0.0
 11
155.4999999999999
 21
20.4
 31
0.0
  0
LINE
  5
474
330
1E
100
AcDbEntity
  8
0
 62
     7
100
AcDbLine
 10
155.4999999999999
 20
14.59999999999999
 30
0.0
 11
156.0
 21
14.1
 31
0.0
  0
LINE
  5
475
330
1E
100
AcDbEntity
  8
0
 62
     7
100
AcDbLine
 10
156.0
 20
20.89999999999999
 30
0.0
 11
156.0
 21
14.1
 31
0.0
  0
LINE
  5
476
330
1E
100
AcDbEntity
  8
0
 62
     7
100
AcDbLine
 10
163.4999999999999
 20
19.43649169999999
 30
0.0
 11
163.4999999999999
 21
15.5635083
 31
0.0
  0
LINE
  5
477
330
1E
100
AcDbEntity
  8
0
 62
     7
100
AcDbLine
 10
161.0
 20
19.43649169999999
 30
0.0
 11
163.4999999999999
 21
19.43649169999999
 31
0.0
  0
LINE
  5
478
330
1E
100
AcDbEntity
  8
0
 62
     7
100
AcDbLine
 10
163.4999999999999
 20
15.5635083
 30
0.0
 11
161.0
 21
15.5635083
 31
0.0
  0
LINE
  5
479
330
1E
100
AcDbEntity
  8
0
 62
     7
100
AcDbLine
 10
161.0
 20
15.5635083
 30
0.0
 11
161.0
 21
13.5
 31
0.0
  0
LINE
  5
47A
330
1E
100
AcDbEntity
  8
0
 62
     2
100
AcDbLine
 10
161.0
 20
19.43649169999999
 30
0.0
 11
163.4999999999999
 21
15.5635083
 31
0.0
  0
LINE
  5
47B
330
1E
100
AcDbEntity
  8
0
 62
     2
100
AcDbLine
 10
163.4999999999999
 20
19.43649169999999
 30
0.0
 11
161.0
 21
15.5635083
 31
0.0
  0
LINE
  5
47C
330
1E
100
AcDbEntity
  8
0
  6
CENTER
 62
     2
100
AcDbLine
 10
173.5
 20
-17.5
 30
0.0
 11
153.5
 21
-17.5
 31
0.0
  0
LINE
  5
47D
330
1E
100
AcDbEntity
  8
0
 62
     7
100
AcDbLine
 10
171.5
 20
-21.49999999999999
 30
0.0
 11
161.0
 21
-21.49999999999999
 31
0.0
  0
LINE
  5
47E
330
1E
100
AcDbEntity
  8
0
 62
     7
100
AcDbLine
 10
171.5
 20
-13.5
 30
0.0
 11
161.0
 21
-13.5
 31
0.0
  0
LINE
  5
47F
330
1E
100
AcDbEntity
  8
0
 62
     2
100
AcDbLine
 10
160.625
 20
-21.125
 30
0.0
 11
171.5
 21
-21.125
 31
0.0
  0
LINE
  5
480
330
1E
100
AcDbEntity
  8
0
 62
     2
100
AcDbLine
 10
171.5
 20
-13.875
 30
0.0
 11
160.625
 21
-13.875
 31
0.0
  0
LINE
  5
481
330
1E
100
AcDbEntity
  8
0
 62
     2
100
AcDbLine
 10
163.4999999999999
 20
-19.43649169999999
 30
0.0
 11
161.0
 21
-15.5635083
 31
0.0
  0
LINE
  5
482
330
1E
100
AcDbEntity
  8
0
 62
     2
100
AcDbLine
 10
161.0
 20
-19.43649169999999
 30
0.0
 11
163.4999999999999
 21
-15.5635083
 31
0.0
  0
LINE
  5
483
330
1E
100
AcDbEntity
  8
0
 62
     7
100
AcDbLine
 10
161.0
 20
-15.5635083
 30
0.0
 11
161.0
 21
-13.5
 31
0.0
  0
LINE
  5
484
330
1E
100
AcDbEntity
  8
0
 62
     7
100
AcDbLine
 10
163.4999999999999
 20
-15.5635083
 30
0.0
 11
161.0
 21
-15.5635083
 31
0.0
  0
LINE
  5
485
330
1E
100
AcDbEntity
  8
0
 62
     7
100
AcDbLine
 10
161.0
 20
-19.43649169999999
 30
0.0
 11
163.4999999999999
 21
-19.43649169999999
 31
0.0
  0
LINE
  5
486
330
1E
100
AcDbEntity
  8
0
 62
     7
100
AcDbLine
 10
163.4999999999999
 20
-19.43649169999999
 30
0.0
 11
163.4999999999999
 21
-15.5635083
 31
0.0
  0
LINE
  5
487
330
1E
100
AcDbEntity
  8
0
 62
     7
100
AcDbLine
 10
156.0
 20
-20.89999999999999
 30
0.0
 11
156.0
 21
-14.1
 31
0.0
  0
LINE
  5
488
330
1E
100
AcDbEntity
  8
0
 62
     7
100
AcDbLine
 10
155.4999999999999
 20
-14.59999999999999
 30
0.0
 11
156.0
 21
-14.1
 31
0.0
  0
LINE
  5
489
330
1E
100
AcDbEntity
  8
0
 62
     7
100
AcDbLine
 10
156.0
 20
-20.89999999999999
 30
0.0
 11
155.4999999999999
 21
-20.4
 31
0.0
  0
LINE
  5
48A
330
1E
100
AcDbEntity
  8
0
 62
     7
100
AcDbLine
 10
160.4999999999999
 20
-14.1
 30
0.0
 11
156.0
 21
-14.1
 31
0.0
  0
LINE
  5
48B
330
1E
100
AcDbEntity
  8
0
 62
     7
100
AcDbLine
 10
160.4999999999999
 20
-20.89999999999999
 30
0.0
 11
156.0
 21
-20.89999999999999
 31
0.0
  0
LINE
  5
48C
330
1E
100
AcDbEntity
  8
0
 62
     7
100
AcDbLine
 10
155.4999999999999
 20
-20.4
 30
0.0
 11
155.4999999999999
 21
-14.59999999999999
 31
0.0
  0
LINE
  5
48D
330
1E
100
AcDbEntity
  8
0
 62
     7
100
AcDbLine
 10
160.4999999999999
 20
-21.0
 30
0.0
 11
160.4999999999999
 21
-14.0
 31
0.0
  0
LINE
  5
48E
330
1E
100
AcDbEntity
  8
0
 62
     7
100
AcDbLine
 10
160.4999999999999
 20
-21.0
 30
0.0
 11
161.0
 21
-21.49999999999999
 31
0.0
  0
LINE
  5
48F
330
1E
100
AcDbEntity
  8
0
 62
     7
100
AcDbLine
 10
160.4999999999999
 20
-14.0
 30
0.0
 11
161.0
 21
-13.5
 31
0.0
  0
LINE
  5
490
330
1E
100
AcDbEntity
  8
0
 62
     7
100
AcDbLine
 10
161.0
 20
-21.49999999999999
 30
0.0
 11
161.0
 21
-19.43649169999999
 31
0.0
  0
POLYLINE
  5
491
330
1E
100
AcDbEntity
  8
0
 62
     7
100
AcDb2dPolyline
 66
     1
 10
0.0
 20
0.0
 30
0.0
  0
VERTEX
  5
7A0
330
491
100
AcDbEntity
  8
0
 62
     7
100
AcDbVertex
100
AcDb2dVertex
 10
161.0
 20
19.43649169999999
 30
0.0
  0
VERTEX
  5
7A1
330
491
100
AcDbEntity
  8
0
 62
     7
100
AcDbVertex
100
AcDb2dVertex
 10
160.911669
 20
19.2564751
 30
0.0
  0
VERTEX
  5
7A2
330
491
100
AcDbEntity
  8
0
 62
     7
100
AcDbVertex
100
AcDb2dVertex
 10
160.8305389999999
 20
19.07215339999999
 30
0.0
  0
VERTEX
  5
7A3
330
491
100
AcDbEntity
  8
0
 62
     7
100
AcDbVertex
100
AcDb2dVertex
 10
160.757104
 20
18.8840051
 30
0.0
  0
VERTEX
  5
7A4
330
491
100
AcDbEntity
  8
0
 62
     7
100
AcDbVertex
100
AcDb2dVertex
 10
160.6918569999999
 20
18.6925085
 30
0.0
  0
VERTEX
  5
7A5
330
491
100
AcDbEntity
  8
0
 62
     7
100
AcDbVertex
100
AcDb2dVertex
 10
160.6352919999999
 20
18.4981418
 30
0.0
  0
VERTEX
  5
7A6
330
491
100
AcDbEntity
  8
0
 62
     7
100
AcDbVertex
100
AcDb2dVertex
 10
160.587904
 20
18.30138339999999
 30
0.0
  0
VERTEX
  5
7A7
330
491
100
AcDbEntity
  8
0
 62
     7
100
AcDbVertex
100
AcDb2dVertex
 10
160.550187
 20
18.1027117
 30
0.0
  0
VERTEX
  5
7A8
330
491
100
AcDbEntity
  8
0
 62
     7
100
AcDbVertex
100
AcDb2dVertex
 10
160.522635
 20
17.9026051
 30
0.0
  0
VERTEX
  5
7A9
330
491
100
AcDbEntity
  8
0
 62
     7
100
AcDbVertex
100
AcDb2dVertex
 10
160.505741
 20
17.7015417
 30
0.0
  0
VERTEX
  5
7AA
330
491
100
AcDbEntity
  8
0
 62
     7
100
AcDbVertex
100
AcDb2dVertex
 10
160.4999999999999
 20
17.5
 30
0.0
  0
VERTEX
  5
7AB
330
491
100
AcDbEntity
  8
0
 62
     7
100
AcDbVertex
100
AcDb2dVertex
 10
160.505741
 20
17.2984583
 30
0.0
  0
VERTEX
  5
7AC
330
491
100
AcDbEntity
  8
0
 62
     7
100
AcDbVertex
100
AcDb2dVertex
 10
160.522635
 20
17.09739489999999
 30
0.0
  0
VERTEX
  5
7AD
330
491
100
AcDbEntity
  8
0
 62
     7
100
AcDbVertex
100
AcDb2dVertex
 10
160.550187
 20
16.89728829999999
 30
0.0
  0
VERTEX
  5
7AE
330
491
100
AcDbEntity
  8
0
 62
     7
100
AcDbVertex
100
AcDb2dVertex
 10
160.587904
 20
16.6986166
 30
0.0
  0
VERTEX
  5
7AF
330
491
100
AcDbEntity
  8
0
 62
     7
100
AcDbVertex
100
AcDb2dVertex
 10
160.6352919999999
 20
16.5018582
 30
0.0
  0
VERTEX
  5
7B0
330
491
100
AcDbEntity
  8
0
 62
     7
100
AcDbVertex
100
AcDb2dVertex
 10
160.6918569999999
 20
16.3074915
 30
0.0
  0
VERTEX
  5
7B1
330
491
100
AcDbEntity
  8
0
 62
     7
100
AcDbVertex
100
AcDb2dVertex
 10
160.757104
 20
16.1159949
 30
0.0
  0
VERTEX
  5
7B2
330
491
100
AcDbEntity
  8
0
 62
     7
100
AcDbVertex
100
AcDb2dVertex
 10
160.8305389999999
 20
15.92784659999999
 30
0.0
  0
VERTEX
  5
7B3
330
491
100
AcDbEntity
  8
0
 62
     7
100
AcDbVertex
100
AcDb2dVertex
 10
160.911669
 20
15.7435249
 30
0.0
  0
VERTEX
  5
7B4
330
491
100
AcDbEntity
  8
0
 62
     7
100
AcDbVertex
100
AcDb2dVertex
 10
161.0
 20
15.5635083
 30
0.0
  0
SEQEND
  5
7B5
330
491
100
AcDbEntity
  8
0
 62
     7
  0
POLYLINE
  5
4A8
330
1E
100
AcDbEntity
  8
0
 62
     7
100
AcDb2dPolyline
 66
     1
 10
0.0
 20
0.0
 30
0.0
  0
VERTEX
  5
7B6
330
4A8
100
AcDbEntity
  8
0
 62
     7
100
AcDbVertex
100
AcDb2dVertex
 10
163.4999999999999
 20
19.43649169999999
 30
0.0
  0
VERTEX
  5
7B7
330
4A8
100
AcDbEntity
  8
0
 62
     7
100
AcDbVertex
100
AcDb2dVertex
 10
163.588331
 20
19.2564751
 30
0.0
  0
VERTEX
  5
7B8
330
4A8
100
AcDbEntity
  8
0
 62
     7
100
AcDbVertex
100
AcDb2dVertex
 10
163.669461
 20
19.07215339999999
 30
0.0
  0
VERTEX
  5
7B9
330
4A8
100
AcDbEntity
  8
0
 62
     7
100
AcDbVertex
100
AcDb2dVertex
 10
163.742896
 20
18.8840051
 30
0.0
  0
VERTEX
  5
7BA
330
4A8
100
AcDbEntity
  8
0
 62
     7
100
AcDbVertex
100
AcDb2dVertex
 10
163.8081429999999
 20
18.6925085
 30
0.0
  0
VERTEX
  5
7BB
330
4A8
100
AcDbEntity
  8
0
 62
     7
100
AcDbVertex
100
AcDb2dVertex
 10
163.864708
 20
18.4981418
 30
0.0
  0
VERTEX
  5
7BC
330
4A8
100
AcDbEntity
  8
0
 62
     7
100
AcDbVertex
100
AcDb2dVertex
 10
163.9120959999999
 20
18.30138339999999
 30
0.0
  0
VERTEX
  5
7BD
330
4A8
100
AcDbEntity
  8
0
 62
     7
100
AcDbVertex
100
AcDb2dVertex
 10
163.9498129999999
 20
18.1027117
 30
0.0
  0
VERTEX
  5
7BE
330
4A8
100
AcDbEntity
  8
0
 62
     7
100
AcDbVertex
100
AcDb2dVertex
 10
163.9773649999999
 20
17.9026051
 30
0.0
  0
VERTEX
  5
7BF
330
4A8
100
AcDbEntity
  8
0
 62
     7
100
AcDbVertex
100
AcDb2dVertex
 10
163.9942589999999
 20
17.7015417
 30
0.0
  0
VERTEX
  5
7C0
330
4A8
100
AcDbEntity
  8
0
 62
     7
100
AcDbVertex
100
AcDb2dVertex
 10
164.0
 20
17.5
 30
0.0
  0
VERTEX
  5
7C1
330
4A8
100
AcDbEntity
  8
0
 62
     7
100
AcDbVertex
100
AcDb2dVertex
 10
163.9942589999999
 20
17.2984583
 30
0.0
  0
VERTEX
  5
7C2
330
4A8
100
AcDbEntity
  8
0
 62
     7
100
AcDbVertex
100
AcDb2dVertex
 10
163.9773649999999
 20
17.09739489999999
 30
0.0
  0
VERTEX
  5
7C3
330
4A8
100
AcDbEntity
  8
0
 62
     7
100
AcDbVertex
100
AcDb2dVertex
 10
163.9498129999999
 20
16.89728829999999
 30
0.0
  0
VERTEX
  5
7C4
330
4A8
100
AcDbEntity
  8
0
 62
     7
100
AcDbVertex
100
AcDb2dVertex
 10
163.9120959999999
 20
16.6986166
 30
0.0
  0
VERTEX
  5
7C5
330
4A8
100
AcDbEntity
  8
0
 62
     7
100
AcDbVertex
100
AcDb2dVertex
 10
163.864708
 20
16.5018582
 30
0.0
  0
VERTEX
  5
7C6
330
4A8
100
AcDbEntity
  8
0
 62
     7
100
AcDbVertex
100
AcDb2dVertex
 10
163.8081429999999
 20
16.3074915
 30
0.0
  0
VERTEX
  5
7C7
330
4A8
100
AcDbEntity
  8
0
 62
     7
100
AcDbVertex
100
AcDb2dVertex
 10
163.742896
 20
16.1159949
 30
0.0
  0
VERTEX
  5
7C8
330
4A8
100
AcDbEntity
  8
0
 62
     7
100
AcDbVertex
100
AcDb2dVertex
 10
163.669461
 20
15.92784659999999
 30
0.0
  0
VERTEX
  5
7C9
330
4A8
100
AcDbEntity
  8
0
 62
     7
100
AcDbVertex
100
AcDb2dVertex
 10
163.588331
 20
15.7435249
 30
0.0
  0
VERTEX
  5
7CA
330
4A8
100
AcDbEntity
  8
0
 62
     7
100
AcDbVertex
100
AcDb2dVertex
 10
163.4999999999999
 20
15.5635083
 30
0.0
  0
SEQEND
  5
7CB
330
4A8
100
AcDbEntity
  8
0
 62
     7
  0
POLYLINE
  5
4BF
330
1E
100
AcDbEntity
  8
0
 62
     7
100
AcDb2dPolyline
 66
     1
 10
0.0
 20
0.0
 30
0.0
  0
VERTEX
  5
7CC
330
4BF
100
AcDbEntity
  8
0
 62
     7
100
AcDbVertex
100
AcDb2dVertex
 10
163.4999999999999
 20
-19.43649169999999
 30
0.0
  0
VERTEX
  5
7CD
330
4BF
100
AcDbEntity
  8
0
 62
     7
100
AcDbVertex
100
AcDb2dVertex
 10
163.588331
 20
-19.2564751
 30
0.0
  0
VERTEX
  5
7CE
330
4BF
100
AcDbEntity
  8
0
 62
     7
100
AcDbVertex
100
AcDb2dVertex
 10
163.669461
 20
-19.07215339999999
 30
0.0
  0
VERTEX
  5
7CF
330
4BF
100
AcDbEntity
  8
0
 62
     7
100
AcDbVertex
100
AcDb2dVertex
 10
163.742896
 20
-18.8840051
 30
0.0
  0
VERTEX
  5
7D0
330
4BF
100
AcDbEntity
  8
0
 62
     7
100
AcDbVertex
100
AcDb2dVertex
 10
163.8081429999999
 20
-18.6925085
 30
0.0
  0
VERTEX
  5
7D1
330
4BF
100
AcDbEntity
  8
0
 62
     7
100
AcDbVertex
100
AcDb2dVertex
 10
163.864708
 20
-18.4981418
 30
0.0
  0
VERTEX
  5
7D2
330
4BF
100
AcDbEntity
  8
0
 62
     7
100
AcDbVertex
100
AcDb2dVertex
 10
163.9120959999999
 20
-18.30138339999999
 30
0.0
  0
VERTEX
  5
7D3
330
4BF
100
AcDbEntity
  8
0
 62
     7
100
AcDbVertex
100
AcDb2dVertex
 10
163.9498129999999
 20
-18.1027117
 30
0.0
  0
VERTEX
  5
7D4
330
4BF
100
AcDbEntity
  8
0
 62
     7
100
AcDbVertex
100
AcDb2dVertex
 10
163.9773649999999
 20
-17.9026051
 30
0.0
  0
VERTEX
  5
7D5
330
4BF
100
AcDbEntity
  8
0
 62
     7
100
AcDbVertex
100
AcDb2dVertex
 10
163.9942589999999
 20
-17.7015417
 30
0.0
  0
VERTEX
  5
7D6
330
4BF
100
AcDbEntity
  8
0
 62
     7
100
AcDbVertex
100
AcDb2dVertex
 10
164.0
 20
-17.5
 30
0.0
  0
VERTEX
  5
7D7
330
4BF
100
AcDbEntity
  8
0
 62
     7
100
AcDbVertex
100
AcDb2dVertex
 10
163.9942589999999
 20
-17.2984583
 30
0.0
  0
VERTEX
  5
7D8
330
4BF
100
AcDbEntity
  8
0
 62
     7
100
AcDbVertex
100
AcDb2dVertex
 10
163.9773649999999
 20
-17.09739489999999
 30
0.0
  0
VERTEX
  5
7D9
330
4BF
100
AcDbEntity
  8
0
 62
     7
100
AcDbVertex
100
AcDb2dVertex
 10
163.9498129999999
 20
-16.89728829999999
 30
0.0
  0
VERTEX
  5
7DA
330
4BF
100
AcDbEntity
  8
0
 62
     7
100
AcDbVertex
100
AcDb2dVertex
 10
163.9120959999999
 20
-16.6986166
 30
0.0
  0
VERTEX
  5
7DB
330
4BF
100
AcDbEntity
  8
0
 62
     7
100
AcDbVertex
100
AcDb2dVertex
 10
163.864708
 20
-16.5018582
 30
0.0
  0
VERTEX
  5
7DC
330
4BF
100
AcDbEntity
  8
0
 62
     7
100
AcDbVertex
100
AcDb2dVertex
 10
163.8081429999999
 20
-16.3074915
 30
0.0
  0
VERTEX
  5
7DD
330
4BF
100
AcDbEntity
  8
0
 62
     7
100
AcDbVertex
100
AcDb2dVertex
 10
163.742896
 20
-16.1159949
 30
0.0
  0
VERTEX
  5
7DE
330
4BF
100
AcDbEntity
  8
0
 62
     7
100
AcDbVertex
100
AcDb2dVertex
 10
163.669461
 20
-15.92784659999999
 30
0.0
  0
VERTEX
  5
7DF
330
4BF
100
AcDbEntity
  8
0
 62
     7
100
AcDbVertex
100
AcDb2dVertex
 10
163.588331
 20
-15.7435249
 30
0.0
  0
VERTEX
  5
7E0
330
4BF
100
AcDbEntity
  8
0
 62
     7
100
AcDbVertex
100
AcDb2dVertex
 10
163.4999999999999
 20
-15.5635083
 30
0.0
  0
SEQEND
  5
7E1
330
4BF
100
AcDbEntity
  8
0
 62
     7
  0
POLYLINE
  5
4D6
330
1E
100
AcDbEntity
  8
0
 62
     7
100
AcDb2dPolyline
 66
     1
 10
0.0
 20
0.0
 30
0.0
  0
VERTEX
  5
7E2
330
4D6
100
AcDbEntity
  8
0
 62
     7
100
AcDbVertex
100
AcDb2dVertex
 10
161.0
 20
-19.43649169999999
 30
0.0
  0
VERTEX
  5
7E3
330
4D6
100
AcDbEntity
  8
0
 62
     7
100
AcDbVertex
100
AcDb2dVertex
 10
160.911669
 20
-19.2564751
 30
0.0
  0
VERTEX
  5
7E4
330
4D6
100
AcDbEntity
  8
0
 62
     7
100
AcDbVertex
100
AcDb2dVertex
 10
160.8305389999999
 20
-19.07215339999999
 30
0.0
  0
VERTEX
  5
7E5
330
4D6
100
AcDbEntity
  8
0
 62
     7
100
AcDbVertex
100
AcDb2dVertex
 10
160.757104
 20
-18.8840051
 30
0.0
  0
VERTEX
  5
7E6
330
4D6
100
AcDbEntity
  8
0
 62
     7
100
AcDbVertex
100
AcDb2dVertex
 10
160.6918569999999
 20
-18.6925085
 30
0.0
  0
VERTEX
  5
7E7
330
4D6
100
AcDbEntity
  8
0
 62
     7
100
AcDbVertex
100
AcDb2dVertex
 10
160.6352919999999
 20
-18.4981418
 30
0.0
  0
VERTEX
  5
7E8
330
4D6
100
AcDbEntity
  8
0
 62
     7
100
AcDbVertex
100
AcDb2dVertex
 10
160.587904
 20
-18.30138339999999
 30
0.0
  0
VERTEX
  5
7E9
330
4D6
100
AcDbEntity
  8
0
 62
     7
100
AcDbVertex
100
AcDb2dVertex
 10
160.550187
 20
-18.1027117
 30
0.0
  0
VERTEX
  5
7EA
330
4D6
100
AcDbEntity
  8
0
 62
     7
100
AcDbVertex
100
AcDb2dVertex
 10
160.522635
 20
-17.9026051
 30
0.0
  0
VERTEX
  5
7EB
330
4D6
100
AcDbEntity
  8
0
 62
     7
100
AcDbVertex
100
AcDb2dVertex
 10
160.505741
 20
-17.7015417
 30
0.0
  0
VERTEX
  5
7EC
330
4D6
100
AcDbEntity
  8
0
 62
     7
100
AcDbVertex
100
AcDb2dVertex
 10
160.4999999999999
 20
-17.5
 30
0.0
  0
VERTEX
  5
7ED
330
4D6
100
AcDbEntity
  8
0
 62
     7
100
AcDbVertex
100
AcDb2dVertex
 10
160.505741
 20
-17.2984583
 30
0.0
  0
VERTEX
  5
7EE
330
4D6
100
AcDbEntity
  8
0
 62
     7
100
AcDbVertex
100
AcDb2dVertex
 10
160.522635
 20
-17.09739489999999
 30
0.0
  0
VERTEX
  5
7EF
330
4D6
100
AcDbEntity
  8
0
 62
     7
100
AcDbVertex
100
AcDb2dVertex
 10
160.550187
 20
-16.89728829999999
 30
0.0
  0
VERTEX
  5
7F0
330
4D6
100
AcDbEntity
  8
0
 62
     7
100
AcDbVertex
100
AcDb2dVertex
 10
160.587904
 20
-16.6986166
 30
0.0
  0
VERTEX
  5
7F1
330
4D6
100
AcDbEntity
  8
0
 62
     7
100
AcDbVertex
100
AcDb2dVertex
 10
160.6352919999999
 20
-16.5018582
 30
0.0
  0
VERTEX
  5
7F2
330
4D6
100
AcDbEntity
  8
0
 62
     7
100
AcDbVertex
100
AcDb2dVertex
 10
160.6918569999999
 20
-16.3074915
 30
0.0
  0
VERTEX
  5
7F3
330
4D6
100
AcDbEntity
  8
0
 62
     7
100
AcDbVertex
100
AcDb2dVertex
 10
160.757104
 20
-16.1159949
 30
0.0
  0
VERTEX
  5
7F4
330
4D6
100
AcDbEntity
  8
0
 62
     7
100
AcDbVertex
100
AcDb2dVertex
 10
160.8305389999999
 20
-15.92784659999999
 30
0.0
  0
VERTEX
  5
7F5
330
4D6
100
AcDbEntity
  8
0
 62
     7
100
AcDbVertex
100
AcDb2dVertex
 10
160.911669
 20
-15.7435249
 30
0.0
  0
VERTEX
  5
7F6
330
4D6
100
AcDbEntity
  8
0
 62
     7
100
AcDbVertex
100
AcDb2dVertex
 10
161.0
 20
-15.5635083
 30
0.0
  0
SEQEND
  5
7F7
330
4D6
100
AcDbEntity
  8
0
 62
     7
  0
TEXT
  5
4ED
330
1E
100
AcDbEntity
  8
0
 62
     7
100
AcDbText
 10
-229.800283
 20
178.35
 30
0.0
 40
6.30000019
  1
RAT
 41
1.000000149999999
  7
MONOTXT
100
AcDbText
  0
TEXT
  5
4EE
330
1E
100
AcDbEntity
  8
0
 62
     7
100
AcDbText
 10
-267.6002899999999
 20
186.3499999999999
 30
0.0
 40
6.30000019
  1
ROTARY ACTUATOR
 41
1.04166682
  7
MONOTXT
100
AcDbText
  0
LINE
  5
4EF
330
1E
100
AcDbEntity
  8
0
 62
     7
100
AcDbLine
 10
282.099854
 20
195.5
 30
0.0
 11
282.099854
 21
-195.0
 31
0.0
  0
LINE
  5
4F0
330
1E
100
AcDbEntity
  8
0
 62
     7
100
AcDbLine
 10
-281.25
 20
195.5
 30
0.0
 11
282.099854
 21
195.5
 31
0.0
  0
LINE
  5
4F1
330
1E
100
AcDbEntity
  8
0
 62
     7
100
AcDbLine
 10
-281.25
 20
195.5
 30
0.0
 11
-281.25
 21
-195.0
 31
0.0
  0
LINE
  5
4F2
330
1E
100
AcDbEntity
  8
0
 62
     7
100
AcDbLine
 10
-281.25
 20
-195.0
 30
0.0
 11
282.099854
 21
-195.0
 31
0.0
  0
LINE
  5
4F3
330
1E
100
AcDbEntity
  8
0
 62
     7
100
AcDbLine
 10
162.099976
 20
-175.0
 30
0.0
 11
162.099976
 21
-195.0
 31
0.0
  0
LINE
  5
4F4
330
1E
100
AcDbEntity
  8
0
 62
     7
100
AcDbLine
 10
162.099976
 20
-175.0
 30
0.0
 11
282.099854
 21
-175.0
 31
0.0
  0
LINE
  5
4F5
330
1E
100
AcDbEntity
  8
0
 62
     7
100
AcDbLine
 10
162.099976
 20
175.5
 30
0.0
 11
282.099854
 21
175.5
 31
0.0
  0
LINE
  5
4F6
330
1E
100
AcDbEntity
  8
0
 62
     7
100
AcDbLine
 10
-281.25
 20
175.5
 30
0.0
 11
-161.25
 21
175.5
 31
0.0
  0
LINE
  5
4F7
330
1E
100
AcDbEntity
  8
0
 62
     7
100
AcDbLine
 10
162.099976
 20
195.5
 30
0.0
 11
162.099976
 21
175.5
 31
0.0
  0
LINE
  5
4F8
330
1E
100
AcDbEntity
  8
0
 62
     7
100
AcDbLine
 10
-161.25
 20
195.5
 30
0.0
 11
-161.25
 21
175.5
 31
0.0
  0
TEXT
  5
4F9
330
1E
100
AcDbEntity
  8
0
 62
     7
100
AcDbText
 10
197.7996899999999
 20
182.3499999999999
 30
0.0
 40
6.30000019
  1
Ver. 1.0
 41
1.08108124
  7
MONOTXT
100
AcDbText
  0
TEXT
  5
4FA
330
1E
100
AcDbEntity
  8
0
 62
     7
100
AcDbText
 10
169.885276
 20
-189.4999999999999
 30
0.0
 40
9.0
  1
KOGANEI CORP.
 41
1.04838732
  7
MONOTXT
100
AcDbText
  0
TEXT
  5
4FB
330
1E
100
AcDbEntity
  8
0
 62
     7
100
AcDbText
 10
-267.600562
 20
157.3499999999999
 30
0.0
 40
6.30000019
  1
MODEL:RAT10-180-SS2
 41
1.000000149999999
  7
MONOTXT
100
AcDbText
  0
ENDSEC
  0
SECTION
  2
OBJECTS
  0
DICTIONARY
  5
C
330
0
100
AcDbDictionary
  3
ACAD_GROUP
350
D
  3
ACAD_MLINESTYLE
350
16
  3
ACAD_PLOTSETTINGS
350
18
  3
ACAD_LAYOUT
350
19
1001
ACAD
1000
TREAT_AS_HARD
1070
     0
  0
DICTIONARY
  5
696
330
1E
100
AcDbDictionary
  3
ACAD_LAYOUTSELFREF
350
697
  0
DICTIONARY
  5
694
330
1A
100
AcDbDictionary
  3
ACAD_LAYOUTSELFREF
350
695
  0
DICTIONARY
  5
D
102
{ACAD_REACTORS
330
C
102
}
330
C
100
AcDbDictionary
1001
ACAD
1000
TREAT_AS_HARD
1070
     0
  0
DICTIONARY
  5
16
102
{ACAD_REACTORS
330
C
102
}
330
C
100
AcDbDictionary
  3
STANDARD
350
17
1001
ACAD
1000
TREAT_AS_HARD
1070
     0
  0
DICTIONARY
  5
18
102
{ACAD_REACTORS
330
C
102
}
330
C
100
AcDbDictionary
1001
ACAD
1000
TREAT_AS_HARD
1070
     0
  0
DICTIONARY
  5
19
102
{ACAD_REACTORS
330
C
102
}
330
C
100
AcDbDictionary
1001
ACAD
1000
TREAT_AS_HARD
1070
     0
  0
XRECORD
  5
697
102
{ACAD_REACTORS
330
696
102
}
330
696
100
AcDbXrecord
340
1E
  0
XRECORD
  5
695
102
{ACAD_REACTORS
330
694
102
}
330
694
100
AcDbXrecord
340
1A
  0
MLINESTYLE
  5
17
102
{ACAD_REACTORS
330
16
102
}
330
16
100
AcDbMlineStyle
  2
STANDARD
 70
     0
  3

 62
   256
 51
90.0
 52
90.0
 71
     2
 49
0.5
 62
   256
  6
BYLAYER
 49
-0.5
 62
   256
  6
BYLAYER
  0
ENDSEC
  0
EOF
