  0
SECTION
  2
HEADER
  0
ENDSEC
  0
SECTION
  2
TABLES
  0
TABLE
  2
LTYPE
 70
     4
  0
LTYPE
  2
CONTINUOUS
 70
    64
  3
Solid line
 72
    65
 73
     0
 40
0.000000
  0
LTYPE
  2
DASHED
 70
    64
  3
__ __ __ __ __ __ __ __ __ __ __ __ __ __ __
 72
    65
 73
     2
 40
3.500000
 49
2.000000
 49
-1.500000
  0
LTYPE
  2
CENTER
 70
    64
  3
____ _ ____ _ ____ _ ____ _ ____ _ ____ _ ____
 72
    65
 73
     4
 40
17.500000
 49
13.000000
 49
-1.500000
 49
1.500000
 49
-1.500000
  0
LTYPE
  2
PHANTOM
 70
    64
  3
_____ _ _ _____ _ _ _____ _ _ _____ _ _ ____  
 72
    65
 73
     6
 40
15.500000
 49
8.000000
 49
-1.500000
 49
1.500000
 49
-1.500000
 49
1.500000
 49
-1.500000
  0
LTYPE
  2
DASHED1
 70
    64
  3
__ __ __ __ __ __ __ __ __ __ __ __ __ __ __
 72
    65
 73
     2
 40
1.500000
 49
1.000000
 49
-0.500000
  0
LTYPE
  2
DASHED2
 70
    64
  3
__ __ __ __ __ __ __ __ __ __ __ __ __ __ __
 72
    65
 73
     2
 40
3.500000
 49
2.500000
 49
-1.000000
  0
LTYPE
  2
DASHED3
 70
    64
  3
__ __ __ __ __ __ __ __ __ __ __ __ __ __ __
 72
    65
 73
     2
 40
6.000000
 49
4.000000
 49
-2.000000
  0
LTYPE
  2
DASHED4
 70
    64
  3
__ __ __ __ __ __ __ __ __ __ __ __ __ __ __
 72
    65
 73
     2
 40
12.000000
 49
10.000000
 49
-2.000000
  0
LTYPE
  2
DASHED5
 70
    64
  3
__ __ __ __ __ __ __ __ __ __ __ __ __ __ __
 72
    65
 73
     2
 40
17.000000
 49
15.000000
 49
-2.000000
  0
LTYPE
  2
DASHED6
 70
    64
  3
__ __ __ __ __ __ __ __ __ __ __ __ __ __ __
 72
    65
 73
     2
 40
29.000000
 49
27.000000
 49
-2.000000
  0
LTYPE
  2
PHANTOM1
 70
    64
  3
_____ _ _ _____ _ _ _____ _ _ _____ _ _ ____  
 72
    65
 73
     6
 40
31.000000
 49
25.000000
 49
-1.500000
 49
1.000000
 49
-1.000000
 49
1.000000
 49
-1.500000
  0
LTYPE
  2
PHANTOM2
 70
    64
  3
_____ _ _ _____ _ _ _____ _ _ _____ _ _ ____  
 72
    65
 73
     6
 40
36.000000
 49
27.000000
 49
-1.500000
 49
2.500000
 49
-1.000000
 49
2.500000
 49
-1.500000
  0
LTYPE
  2
PHANTOM3
 70
    64
  3
_____ _ _ _____ _ _ _____ _ _ _____ _ _ ____  
 72
    65
 73
     6
 40
78.000000
 49
64.000000
 49
-2.000000
 49
4.000000
 49
-2.000000
 49
4.000000
 49
-2.000000
  0
LTYPE
  2
CENTER1
 70
    64
  3
____ _ ____ _ ____ _ ____ _ ____ _ ____ _ ____
 72
    65
 73
     4
 40
19.000000
 49
14.000000
 49
-1.000000
 49
3.000000
 49
-1.000000
  0
LTYPE
  2
CENTER2
 70
    64
  3
____ _ ____ _ ____ _ ____ _ ____ _ ____ _ ____
 72
    65
 73
     4
 40
28.500000
 49
25.000000
 49
-1.000000
 49
1.500000
 49
-1.000000
  0
LTYPE
  2
CENTER3
 70
    64
  3
____ _ ____ _ ____ _ ____ _ ____ _ ____ _ ____
 72
    65
 73
     4
 40
31.500000
 49
27.000000
 49
-1.000000
 49
2.500000
 49
-1.000000
  0
LTYPE
  2
CENTER4
 70
    64
  3
____ _ ____ _ ____ _ ____ _ ____ _ ____ _ ____
 72
    65
 73
     4
 40
50.000000
 49
45.000000
 49
-1.000000
 49
3.000000
 49
-1.000000
  0
LTYPE
  2
CENTER5
 70
    64
  3
____ _ ____ _ ____ _ ____ _ ____ _ ____ _ ____
 72
    65
 73
     4
 40
100.000000
 49
92.000000
 49
-2.000000
 49
4.000000
 49
-2.000000
  0
LTYPE
  2
SBK1
 70
    64
  3
______ _ _ _ ______ _ _ _ ______ _ _ _ _____  
 72
    65
 73
     8
 40
60.500000
 49
45.000000
 49
-2.000000
 49
2.500000
 49
-2.000000
 49
2.500000
 49
-2.000000
 49
2.500000
 49
-2.000000
  0
LTYPE
  2
SBK2
 70
    64
  3
______ _ _ _ ______ _ _ _ ______ _ _ _ _____  
 72
    65
 73
     8
 40
84.000000
 49
64.000000
 49
-2.000000
 49
4.000000
 49
-2.000000
 49
4.000000
 49
-2.000000
 49
4.000000
 49
-2.000000
  0
LTYPE
  2
STCH
 70
    64
  3
__ __ __ __ __ __ __ __ __ __ __ __ __ __ __
 72
    65
 73
     2
 40
3.000000
 49
1.000000
 49
-2.000000
  0
LTYPE
  2
MTCH
 70
    64
  3
_____ _ _ _____ _ _ _____ _ _ _____ _ _ ____  
 72
    65
 73
     6
 40
80.000000
 49
66.000000
 49
-2.000000
 49
4.000000
 49
-2.000000
 49
4.000000
 49
-2.000000
  0
ENDTAB
  0
TABLE
  2
LAYER
 70
     1
  0
LAYER
  2
0
 70
     0
 62
     7
  6
CONTINUOUS
  0
ENDTAB
  0
TABLE
  2
STYLE
 70
     1
  0
STYLE
  2
STANDARD
 70
     0
 40
0.000000
 41
1.000000
 50
0.000000
 71
     0
 42
0.200000
  3
txt
  4
BIGFONT
  0
ENDTAB
  0
TABLE
  2
VIEW
 70
     0
  0
ENDTAB
  0
ENDSEC
  0
SECTION
  2
BLOCKS
  0
ENDSEC
  0
SECTION
  2
ENTITIES
  0
LINE
  8
0
  6
CENTER
 62
     2
 10
-170.775543
 20
50.984692
 11
-164.706711
 21
44.915844
  0
LINE
  8
0
  6
DASHED
 62
     2
 10
-171.417725
 20
48.091373
 11
-167.993103
 21
44.666759
  0
LINE
  8
0
  6
DASHED
 62
     2
 10
-167.882187
 20
51.626888
 11
-164.457565
 21
48.202274
  0
LINE
  8
0
 10
-149.373779
 20
16.827888
 11
-161.863724
 21
16.827888
  0
LINE
  8
0
  6
CENTER
 62
     2
 10
-155.618744
 20
60.827892
 11
-155.618744
 21
10.827896
  0
LINE
  8
0
  6
CENTER
 62
     2
 10
-180.618744
 20
35.827896
 11
-130.618744
 21
35.827896
  0
LINE
  8
0
  6
DASHED
 62
     2
 10
-153.118744
 20
23.580448
 11
-153.118744
 21
16.827888
  0
LINE
  8
0
  6
DASHED
 62
     2
 10
-158.118744
 20
23.580448
 11
-158.118744
 21
16.827888
  0
LINE
  8
0
  6
DASHED
 62
     2
 10
-168.197769
 20
51.376781
 11
-164.740433
 21
47.919449
  0
LINE
  8
0
  6
DASHED
 62
     2
 10
-171.167603
 20
48.406963
 11
-167.710251
 21
44.949612
  0
LINE
  8
0
  6
DASHED
 62
     2
 10
-157.718750
 20
23.580448
 11
-157.718750
 21
16.827888
  0
LINE
  8
0
  6
DASHED
 62
     2
 10
-153.518738
 20
23.580448
 11
-153.518738
 21
16.827888
  0
LINE
  8
0
  6
CENTER
 62
     2
 10
-170.775574
 20
20.671104
 11
-164.918030
 21
26.528652
  0
LINE
  8
0
  6
DASHED
 62
     2
 10
-167.882217
 20
20.028913
 11
-164.457611
 21
23.453531
  0
LINE
  8
0
  6
DASHED
 62
     2
 10
-171.417740
 20
23.564445
 11
-167.993118
 21
26.989058
  0
LINE
  8
0
  6
DASHED
 62
     2
 10
-171.167633
 20
23.248871
 11
-167.710297
 21
26.706217
  0
LINE
  8
0
  6
DASHED
 62
     2
 10
-168.197815
 20
20.279024
 11
-164.740448
 21
23.736383
  0
LINE
  8
0
  6
CENTER
 62
     2
 10
-140.461960
 20
20.671087
 11
-146.412720
 21
26.621851
  0
LINE
  8
0
  6
DASHED
 62
     2
 10
-139.819763
 20
23.564417
 11
-143.244385
 21
26.989038
  0
LINE
  8
0
  6
DASHED
 62
     2
 10
-143.355301
 20
20.028910
 11
-146.779907
 21
23.453516
  0
LINE
  8
0
  6
DASHED
 62
     2
 10
-143.039719
 20
20.278996
 11
-146.497086
 21
23.736355
  0
LINE
  8
0
  6
DASHED
 62
     2
 10
-140.069885
 20
23.248833
 11
-143.527252
 21
26.706194
  0
LINE
  8
0
  6
CENTER
 62
     2
 10
-140.461960
 20
50.984699
 11
-146.453568
 21
44.993076
  0
LINE
  8
0
  6
DASHED
 62
     2
 10
-143.355270
 20
51.626873
 11
-146.779877
 21
48.202255
  0
LINE
  8
0
  6
DASHED
 62
     2
 10
-139.819763
 20
48.091347
 11
-143.244385
 21
44.666733
  0
LINE
  8
0
  6
DASHED
 62
     2
 10
-140.069855
 20
48.406929
 11
-143.527237
 21
44.949562
  0
LINE
  8
0
  6
DASHED
 62
     2
 10
-143.039673
 20
51.376755
 11
-146.497040
 21
47.919384
  0
LINE
  8
0
  6
CENTER
 62
     2
 10
-155.618744
 20
-38.144966
 11
-155.618744
 21
-79.597176
  0
LINE
  8
0
 10
-135.618744
 20
-54.172104
 11
-175.618744
 21
-54.172104
  0
LINE
  8
0
 10
-135.618744
 20
-64.172104
 11
-175.618744
 21
-64.172104
  0
LINE
  8
0
 10
-135.618744
 20
-54.172104
 11
-135.618744
 21
-64.172104
  0
LINE
  8
0
 10
-175.618744
 20
-54.172104
 11
-175.618744
 21
-64.172104
  0
LINE
  8
0
 10
-141.118744
 20
-77.172104
 11
-170.118744
 21
-77.172104
  0
LINE
  8
0
  6
DASHED
 62
     2
 10
-146.118744
 20
-43.172104
 11
-146.118744
 21
-75.172104
  0
LINE
  8
0
  6
DASHED
 62
     2
 10
-165.118744
 20
-43.172104
 11
-165.118744
 21
-75.172104
  0
LINE
  8
0
 10
-139.118744
 20
-64.172104
 11
-139.118744
 21
-65.172104
  0
LINE
  8
0
 10
-138.218750
 20
-65.172104
 11
-173.118744
 21
-65.172104
  0
LINE
  8
0
 10
-138.218750
 20
-74.172104
 11
-173.118744
 21
-74.172104
  0
LINE
  8
0
 10
-139.118744
 20
-74.172104
 11
-139.118744
 21
-75.172104
  0
LINE
  8
0
 10
-139.118744
 20
-54.172104
 11
-139.118744
 21
-53.172104
  0
LINE
  8
0
 10
-139.118744
 20
-44.172104
 11
-139.118744
 21
-43.172104
  0
LINE
  8
0
 10
-172.118744
 20
-64.172104
 11
-172.118744
 21
-65.172104
  0
LINE
  8
0
 10
-172.118744
 20
-74.172104
 11
-172.118744
 21
-75.172104
  0
LINE
  8
0
 10
-172.118744
 20
-54.172104
 11
-172.118744
 21
-53.172104
  0
LINE
  8
0
 10
-172.118744
 20
-44.172104
 11
-172.118744
 21
-43.172104
  0
LINE
  8
0
 10
-138.118744
 20
-53.172104
 11
-173.118744
 21
-53.172104
  0
LINE
  8
0
 10
-138.118744
 20
-44.172104
 11
-173.118744
 21
-44.172104
  0
LINE
  8
0
 10
-141.118744
 20
-41.172104
 11
-170.118744
 21
-41.172104
  0
LINE
  8
0
  6
CENTER
 62
     2
 10
-133.730530
 20
-59.172104
 11
-177.361374
 21
-59.172104
  0
LINE
  8
0
 10
-149.373764
 20
-54.172104
 11
-149.373764
 21
-64.172104
  0
LINE
  8
0
 10
-161.863724
 20
-54.172104
 11
-161.863724
 21
-64.172104
  0
LINE
  8
0
 62
     2
 10
-161.863724
 20
-64.172104
 11
-157.570297
 21
-60.734604
  0
LINE
  8
0
 62
     2
 10
-153.667191
 20
-57.609596
 11
-149.373764
 21
-54.172089
  0
LINE
  8
0
 62
     2
 10
-161.863724
 20
-54.172131
 11
-157.570312
 21
-57.609623
  0
LINE
  8
0
 62
     2
 10
-153.667206
 20
-60.734634
 11
-149.373779
 21
-64.172134
  0
LINE
  8
0
  6
CENTER
 62
     2
 10
-169.760880
 20
-55.552834
 11
-169.760880
 21
-62.500423
  0
LINE
  8
0
  6
CENTER
 62
     2
 10
-141.476608
 20
-55.552834
 11
-141.476608
 21
-62.500423
  0
LINE
  8
0
 10
-173.118744
 20
-44.172104
 11
-173.118744
 21
-53.172104
  0
LINE
  8
0
 10
-173.118744
 20
-65.172104
 11
-173.118744
 21
-74.172104
  0
LINE
  8
0
 10
-138.118744
 20
-44.172104
 11
-138.118744
 21
-53.172104
  0
LINE
  8
0
 10
-138.118744
 20
-65.172104
 11
-138.118744
 21
-74.172104
  0
LINE
  8
0
  6
CENTER
 62
     2
 10
-103.356262
 20
35.827896
 11
-33.356262
 21
35.827896
  0
LINE
  8
0
 10
-76.037399
 20
6.827896
 11
-60.675110
 21
6.827896
  0
LINE
  8
0
  6
DASHED
 62
     2
 10
-83.205482
 20
54.919796
 11
-87.341789
 21
59.056110
  0
LINE
  8
0
  6
DASHED
 62
     2
 10
-87.448135
 20
50.677158
 11
-91.584442
 21
54.813461
  0
LINE
  8
0
  6
CENTER
 62
     2
 10
-82.852394
 20
50.324070
 11
-91.699905
 21
59.171581
  0
LINE
  8
0
  6
CENTER
 62
     2
 10
-68.356255
 20
70.827896
 11
-68.356255
 21
0.827896
  0
LINE
  8
0
  6
DASHED
 62
     2
 10
-65.356255
 20
18.586960
 11
-65.356255
 21
6.827896
  0
LINE
  8
0
  6
DASHED
 62
     2
 10
-71.356255
 20
18.586960
 11
-71.356255
 21
6.827896
  0
LINE
  8
0
  6
DASHED
 62
     2
 10
-83.559044
 20
54.566257
 11
-87.744545
 21
58.751766
  0
LINE
  8
0
  6
DASHED
 62
     2
 10
-87.094582
 20
51.030716
 11
-91.280083
 21
55.216225
  0
LINE
  8
0
  6
DASHED
 62
     2
 10
-65.856255
 20
18.466736
 11
-65.856255
 21
6.827896
  0
LINE
  8
0
  6
DASHED
 62
     2
 10
-70.856255
 20
18.466736
 11
-70.856255
 21
6.827896
  0
LINE
  8
0
  6
DASHED
 62
     2
 10
-87.448151
 20
20.978664
 11
-91.584457
 21
16.842356
  0
LINE
  8
0
  6
DASHED
 62
     2
 10
-83.072411
 20
16.869123
 11
-87.341827
 21
12.599710
  0
LINE
  8
0
  6
CENTER
 62
     2
 10
-82.360306
 20
21.823879
 11
-91.699951
 21
12.484238
  0
LINE
  8
0
  6
DASHED
 62
     2
 10
-87.094604
 20
20.625114
 11
-91.280121
 21
16.439596
  0
LINE
  8
0
  6
DASHED
 62
     2
 10
-83.559074
 20
17.089582
 11
-87.744591
 21
12.904068
  0
LINE
  8
0
  6
DASHED
 62
     2
 10
-53.507027
 20
16.736002
 11
-49.370716
 21
12.599692
  0
LINE
  8
0
  6
DASHED
 62
     2
 10
-49.264378
 20
20.978642
 11
-45.128075
 21
16.842335
  0
LINE
  8
0
  6
CENTER
 62
     2
 10
-53.558723
 20
21.030338
 11
-45.012600
 21
12.484208
  0
LINE
  8
0
  6
DASHED
 62
     2
 10
-53.153481
 20
17.089552
 11
-48.984623
 21
12.920695
  0
LINE
  8
0
  6
DASHED
 62
     2
 10
-49.617943
 20
20.625084
 11
-45.449089
 21
16.456226
  0
LINE
  8
0
  6
DASHED
 62
     2
 10
-49.264362
 20
50.677132
 11
-45.128048
 21
54.813438
  0
LINE
  8
0
  6
DASHED
 62
     2
 10
-53.507000
 20
54.919777
 11
-49.370686
 21
59.056091
  0
LINE
  8
0
  6
CENTER
 62
     2
 10
-53.730877
 20
50.453255
 11
-45.012569
 21
59.171562
  0
LINE
  8
0
  6
DASHED
 62
     2
 10
-49.617905
 20
51.030678
 11
-45.432388
 21
55.216194
  0
LINE
  8
0
  6
DASHED
 62
     2
 10
-53.153442
 20
54.566223
 11
-48.967926
 21
58.751736
  0
LINE
  8
0
  6
CENTER
 62
     2
 10
-68.356247
 20
-37.319633
 11
-68.356247
 21
-92.794861
  0
LINE
  8
0
  6
CENTER
 62
     2
 10
-35.754547
 20
-65.172104
 11
-100.756058
 21
-65.172104
  0
LINE
  8
0
 10
-38.356247
 20
-71.672104
 11
-98.356247
 21
-71.672104
  0
LINE
  8
0
 10
-38.356247
 20
-58.672104
 11
-98.356247
 21
-58.672104
  0
LINE
  8
0
 10
-38.356247
 20
-58.672100
 11
-38.356247
 21
-71.672104
  0
LINE
  8
0
 10
-98.356247
 20
-58.672108
 11
-98.356247
 21
-71.672104
  0
LINE
  8
0
 10
-44.356247
 20
-71.672104
 11
-44.356247
 21
-73.172104
  0
LINE
  8
0
 10
-43.356247
 20
-73.172104
 11
-93.356247
 21
-73.172104
  0
LINE
  8
0
 10
-46.356247
 20
-89.172104
 11
-90.356247
 21
-89.172104
  0
LINE
  8
0
 10
-43.356247
 20
-83.172104
 11
-93.356247
 21
-83.172104
  0
LINE
  8
0
 10
-43.356247
 20
-73.172104
 11
-43.356247
 21
-83.172104
  0
LINE
  8
0
 10
-44.356247
 20
-83.172104
 11
-44.356247
 21
-87.172104
  0
LINE
  8
0
  6
DASHED
 62
     2
 10
-54.856247
 20
-43.172104
 11
-54.856247
 21
-87.172104
  0
LINE
  8
0
 10
-92.356247
 20
-71.672104
 11
-92.356247
 21
-73.172104
  0
LINE
  8
0
 10
-93.356247
 20
-73.172104
 11
-93.356247
 21
-83.172104
  0
LINE
  8
0
 10
-92.356247
 20
-83.172104
 11
-92.356247
 21
-87.172104
  0
LINE
  8
0
  6
DASHED
 62
     2
 10
-81.856247
 20
-43.172104
 11
-81.856247
 21
-87.172104
  0
LINE
  8
0
 10
-92.356247
 20
-58.672104
 11
-92.356247
 21
-57.172104
  0
LINE
  8
0
 10
-93.356247
 20
-57.172104
 11
-93.356247
 21
-47.172104
  0
LINE
  8
0
 10
-43.356247
 20
-57.172104
 11
-93.356247
 21
-57.172104
  0
LINE
  8
0
 10
-43.356247
 20
-47.172104
 11
-93.356247
 21
-47.172104
  0
LINE
  8
0
 10
-92.356247
 20
-47.172104
 11
-92.356247
 21
-43.172104
  0
LINE
  8
0
 10
-46.356247
 20
-41.172104
 11
-90.356247
 21
-41.172104
  0
LINE
  8
0
 10
-44.356247
 20
-47.172104
 11
-44.356247
 21
-43.172104
  0
LINE
  8
0
 10
-43.356247
 20
-57.172104
 11
-43.356247
 21
-47.172104
  0
LINE
  8
0
 10
-44.356247
 20
-58.672104
 11
-44.356247
 21
-57.172104
  0
LINE
  8
0
 10
-76.037392
 20
-58.672104
 11
-76.037392
 21
-71.672104
  0
LINE
  8
0
 10
-60.675102
 20
-58.672104
 11
-60.675102
 21
-71.672104
  0
LINE
  8
0
 62
     2
 10
-76.037399
 20
-58.672112
 11
-70.646332
 21
-63.234184
  0
LINE
  8
0
 62
     2
 10
-60.675117
 20
-58.672092
 11
-66.066185
 21
-63.234165
  0
LINE
  8
0
 62
     2
 10
-76.037392
 20
-71.672112
 11
-70.646332
 21
-67.110039
  0
LINE
  8
0
 62
     2
 10
-60.675102
 20
-71.672112
 11
-66.066177
 21
-67.110031
  0
LINE
  8
0
  6
CENTER
 62
     2
 10
-89.569458
 20
-60.406929
 11
-89.569458
 21
-69.992950
  0
LINE
  8
0
  6
CENTER
 62
     2
 10
-47.143036
 20
-60.406929
 11
-47.143036
 21
-69.992950
  0
LINE
  8
0
  6
CENTER
 62
     2
 10
-13.593765
 20
35.827896
 11
66.406235
 21
35.827896
  0
LINE
  8
0
 10
18.099613
 20
1.827896
 11
34.712864
 21
1.827896
  0
LINE
  8
0
  6
CENTER
 62
     2
 10
26.406239
 20
75.827896
 11
26.406239
 21
-4.172104
  0
LINE
  8
0
  6
DASHED
 62
     2
 10
29.406239
 20
13.586960
 11
29.406239
 21
1.827896
  0
LINE
  8
0
  6
DASHED
 62
     2
 10
23.406239
 20
13.586960
 11
23.406239
 21
1.827896
  0
LINE
  8
0
  6
DASHED
 62
     2
 10
3.778803
 20
17.443151
 11
-0.372759
 21
13.291593
  0
LINE
  8
0
  6
DASHED
 62
     2
 10
8.021449
 20
13.200480
 11
3.869887
 21
9.048920
  0
LINE
  8
0
  6
CENTER
 62
     2
 10
7.965246
 20
17.386944
 11
-0.472989
 21
8.948715
  0
LINE
  8
0
  6
DASHED
 62
     2
 10
4.132350
 20
17.089582
 11
-0.047076
 21
12.910160
  0
LINE
  8
0
  6
DASHED
 62
     2
 10
7.667880
 20
13.554049
 11
3.488453
 21
9.374626
  0
LINE
  8
0
  6
DASHED
 62
     2
 10
23.906239
 20
13.466736
 11
23.906239
 21
1.827896
  0
LINE
  8
0
  6
DASHED
 62
     2
 10
28.906239
 20
13.466736
 11
28.906239
 21
1.827896
  0
LINE
  8
0
  6
DASHED
 62
     2
 10
44.790989
 20
13.200472
 11
48.942547
 21
9.048915
  0
LINE
  8
0
  6
DASHED
 62
     2
 10
49.033657
 20
17.443123
 11
53.185219
 21
13.291560
  0
LINE
  8
0
  6
CENTER
 62
     2
 10
44.847195
 20
17.386917
 11
53.285423
 21
8.948687
  0
LINE
  8
0
  6
DASHED
 62
     2
 10
45.144554
 20
13.554018
 11
49.323978
 21
9.374592
  0
LINE
  8
0
  6
DASHED
 62
     2
 10
48.680088
 20
17.089550
 11
52.859512
 21
12.910126
  0
LINE
  8
0
  6
DASHED
 62
     2
 10
49.033661
 20
54.212650
 11
53.185223
 21
58.364208
  0
LINE
  8
0
  6
DASHED
 62
     2
 10
44.791023
 20
58.455326
 11
48.942574
 21
62.606873
  0
LINE
  8
0
  6
CENTER
 62
     2
 10
44.847225
 20
54.268856
 11
53.285458
 21
62.707081
  0
LINE
  8
0
  6
DASHED
 62
     2
 10
48.680126
 20
54.566223
 11
52.859539
 21
58.745636
  0
LINE
  8
0
  6
DASHED
 62
     2
 10
45.144600
 20
58.101761
 11
49.324017
 21
62.281170
  0
LINE
  8
0
  6
DASHED
 62
     2
 10
8.021491
 20
58.455334
 11
3.869933
 21
62.606895
  0
LINE
  8
0
  6
DASHED
 62
     2
 10
3.778814
 20
54.212685
 11
-0.372739
 21
58.364243
  0
LINE
  8
0
  6
CENTER
 62
     2
 10
7.965286
 20
54.268887
 11
-0.472943
 21
62.707123
  0
LINE
  8
0
  6
DASHED
 62
     2
 10
7.667922
 20
58.101788
 11
3.488503
 21
62.281212
  0
LINE
  8
0
  6
DASHED
 62
     2
 10
4.132383
 20
54.566254
 11
-0.047035
 21
58.745678
  0
LINE
  8
0
  6
CENTER
 62
     2
 10
26.406242
 20
-35.812439
 11
26.406242
 21
-97.843704
  0
LINE
  8
0
  6
CENTER
 62
     2
 10
65.421677
 20
-67.172104
 11
-12.298988
 21
-67.172104
  0
LINE
  8
0
 10
61.406246
 20
-60.172104
 11
-8.593758
 21
-60.172104
  0
LINE
  8
0
 10
61.406246
 20
-74.172104
 11
-8.593758
 21
-74.172104
  0
LINE
  8
0
 10
61.406246
 20
-60.172100
 11
61.406246
 21
-74.172104
  0
LINE
  8
0
 10
-8.593758
 20
-60.172108
 11
-8.593758
 21
-74.172104
  0
LINE
  8
0
 10
18.099621
 20
-60.172104
 11
18.099621
 21
-74.172104
  0
LINE
  8
0
 10
34.712868
 20
-60.172104
 11
34.712868
 21
-74.172104
  0
LINE
  8
0
 62
     2
 10
18.099613
 20
-60.172108
 11
24.112175
 21
-65.238899
  0
LINE
  8
0
 62
     2
 10
34.712879
 20
-60.172119
 11
28.700312
 21
-65.238914
  0
LINE
  8
0
 62
     2
 10
18.099630
 20
-74.172119
 11
24.112190
 21
-69.105331
  0
LINE
  8
0
 62
     2
 10
34.712868
 20
-74.172112
 11
28.700306
 21
-69.105316
  0
LINE
  8
0
 10
52.406246
 20
-93.172104
 11
0.406246
 21
-93.172104
  0
LINE
  8
0
 10
55.406246
 20
-74.172104
 11
55.406246
 21
-76.172104
  0
LINE
  8
0
  6
DASHED
 62
     2
 10
44.906246
 20
-44.172104
 11
44.906246
 21
-90.172104
  0
LINE
  8
0
 10
56.406246
 20
-76.172104
 11
-3.593758
 21
-76.172104
  0
LINE
  8
0
 10
56.406246
 20
-87.172104
 11
-3.593758
 21
-87.172104
  0
LINE
  8
0
 10
56.406246
 20
-76.172104
 11
56.406246
 21
-87.172104
  0
LINE
  8
0
 10
55.406246
 20
-87.172104
 11
55.406246
 21
-90.172104
  0
LINE
  8
0
 10
-2.593758
 20
-74.172104
 11
-2.593758
 21
-76.172104
  0
LINE
  8
0
 10
-3.593758
 20
-76.172104
 11
-3.593758
 21
-87.172104
  0
LINE
  8
0
 10
-2.593758
 20
-87.172104
 11
-2.593758
 21
-90.172104
  0
LINE
  8
0
  6
DASHED
 62
     2
 10
7.906242
 20
-44.172104
 11
7.906242
 21
-90.172104
  0
LINE
  8
0
 10
-2.593758
 20
-60.172108
 11
-2.593758
 21
-58.172108
  0
LINE
  8
0
 10
56.406246
 20
-58.172104
 11
-3.593758
 21
-58.172104
  0
LINE
  8
0
 10
-3.593758
 20
-58.172108
 11
-3.593758
 21
-47.172108
  0
LINE
  8
0
 10
56.406246
 20
-47.172104
 11
-3.593758
 21
-47.172104
  0
LINE
  8
0
 10
-2.593758
 20
-47.172108
 11
-2.593758
 21
-44.172108
  0
LINE
  8
0
 10
52.406239
 20
-41.172104
 11
0.406239
 21
-41.172104
  0
LINE
  8
0
 10
55.406246
 20
-47.172100
 11
55.406246
 21
-44.172100
  0
LINE
  8
0
 10
56.406246
 20
-58.172100
 11
56.406246
 21
-47.172100
  0
LINE
  8
0
 10
55.406246
 20
-60.172100
 11
55.406246
 21
-58.172100
  0
LINE
  8
0
  6
CENTER
 62
     2
 10
1.657503
 20
-62.383858
 11
1.657503
 21
-71.798424
  0
LINE
  8
0
  6
CENTER
 62
     2
 10
51.154980
 20
-62.383858
 11
51.154980
 21
-71.798424
  0
LINE
  8
0
  6
CENTER
 62
     2
 10
88.668747
 20
35.827896
 11
178.668747
 21
35.827896
  0
LINE
  8
0
  6
CENTER
 62
     2
 10
133.668747
 20
80.827896
 11
133.668747
 21
-9.172104
  0
LINE
  8
0
 10
124.780548
 20
-3.172104
 11
142.556946
 21
-3.172104
  0
LINE
  8
0
  6
CENTER
 62
     2
 10
103.497780
 20
65.998901
 11
112.094666
 21
57.402012
  0
LINE
  8
0
  6
DASHED
 62
     2
 10
108.354675
 20
66.798836
 11
112.455536
 21
62.697968
  0
LINE
  8
0
  6
DASHED
 62
     2
 10
102.697830
 20
61.141968
 11
106.798698
 21
57.041100
  0
LINE
  8
0
  6
DASHED
 62
     2
 10
107.871849
 20
66.397804
 11
112.013611
 21
62.256039
  0
LINE
  8
0
  6
DASHED
 62
     2
 10
103.098862
 20
61.624825
 11
107.240623
 21
57.483055
  0
LINE
  8
0
  6
CENTER
 62
     2
 10
103.497765
 20
5.656926
 11
112.237083
 21
14.396248
  0
LINE
  8
0
  6
DASHED
 62
     2
 10
102.697830
 20
10.513820
 11
106.798691
 21
14.614679
  0
LINE
  8
0
  6
DASHED
 62
     2
 10
108.354691
 20
4.856967
 11
112.455551
 21
8.957829
  0
LINE
  8
0
  6
DASHED
 62
     2
 10
103.098846
 20
10.030973
 11
107.240631
 21
14.172760
  0
LINE
  8
0
  6
DASHED
 62
     2
 10
107.871819
 20
5.257998
 11
112.013611
 21
9.399789
  0
LINE
  8
0
  6
CENTER
 62
     2
 10
163.839722
 20
5.656913
 11
155.068176
 21
14.428459
  0
LINE
  8
0
  6
DASHED
 62
     2
 10
158.982819
 20
4.856969
 11
154.881958
 21
8.957829
  0
LINE
  8
0
  6
DASHED
 62
     2
 10
164.639679
 20
10.513838
 11
160.538803
 21
14.614704
  0
LINE
  8
0
  6
DASHED
 62
     2
 10
159.465683
 20
5.258000
 11
155.323914
 21
9.399768
  0
LINE
  8
0
  6
DASHED
 62
     2
 10
164.238647
 20
10.030973
 11
160.096878
 21
14.172746
  0
LINE
  8
0
  6
CENTER
 62
     2
 10
163.839737
 20
65.998863
 11
155.631577
 21
57.790699
  0
LINE
  8
0
  6
DASHED
 62
     2
 10
164.639679
 20
61.141953
 11
160.538818
 21
57.041084
  0
LINE
  8
0
  6
DASHED
 62
     2
 10
158.982819
 20
66.798820
 11
154.881958
 21
62.697952
  0
LINE
  8
0
  6
DASHED
 62
     2
 10
164.238647
 20
61.624813
 11
160.096893
 21
57.483051
  0
LINE
  8
0
  6
DASHED
 62
     2
 10
159.465668
 20
66.397804
 11
155.323914
 21
62.256042
  0
LINE
  8
0
  6
DASHED
 62
     2
 10
128.804733
 20
-3.172103
 11
128.998505
 21
3.027895
  0
LINE
  8
0
  6
DASHED
 62
     2
 10
138.532730
 20
-3.172104
 11
138.338974
 21
3.027899
  0
LINE
  8
0
  6
DASHED
 62
     2
 10
129.390747
 20
-3.172106
 11
129.584503
 21
3.027893
  0
LINE
  8
0
  6
DASHED
 62
     2
 10
137.946747
 20
-3.172106
 11
137.752991
 21
3.027893
  0
LINE
  8
0
  6
CENTER
 62
     2
 10
133.668747
 20
-102.172104
 11
133.668747
 21
-36.419758
  0
LINE
  8
0
  6
CENTER
 62
     2
 10
178.668747
 20
-69.172104
 11
88.668747
 21
-69.172104
  0
LINE
  8
0
 10
173.668747
 20
-76.672104
 11
93.668747
 21
-76.672104
  0
LINE
  8
0
 10
173.668747
 20
-61.672104
 11
93.668747
 21
-61.672104
  0
LINE
  8
0
 10
173.668747
 20
-76.672104
 11
173.668747
 21
-61.672100
  0
LINE
  8
0
 10
93.668747
 20
-76.672112
 11
93.668747
 21
-61.672108
  0
LINE
  8
0
 10
124.780548
 20
-61.672104
 11
124.780548
 21
-76.672104
  0
LINE
  8
0
 10
142.556946
 20
-61.672104
 11
142.556946
 21
-76.672104
  0
LINE
  8
0
 62
     2
 10
124.780563
 20
-61.672096
 11
129.951355
 21
-66.035301
  0
LINE
  8
0
 62
     2
 10
142.556961
 20
-61.672115
 11
137.386154
 21
-66.035332
  0
LINE
  8
0
 10
165.168747
 20
-97.172104
 11
102.168747
 21
-97.172104
  0
LINE
  8
0
 10
169.168747
 20
-78.672104
 11
98.168747
 21
-78.672104
  0
LINE
  8
0
 10
169.168747
 20
-91.672104
 11
98.168747
 21
-91.672104
  0
LINE
  8
0
 10
168.168747
 20
-94.172104
 11
168.168747
 21
-91.672104
  0
LINE
  8
0
 10
169.168747
 20
-91.672104
 11
169.168747
 21
-78.672104
  0
LINE
  8
0
  6
DASHED
 62
     2
 10
157.668747
 20
-94.172104
 11
157.668747
 21
-44.172104
  0
LINE
  8
0
 10
168.168747
 20
-78.672104
 11
168.168747
 21
-76.672104
  0
LINE
  8
0
 10
99.168747
 20
-78.672112
 11
99.168747
 21
-76.672112
  0
LINE
  8
0
 10
98.168747
 20
-91.672112
 11
98.168747
 21
-78.672112
  0
LINE
  8
0
 10
99.168747
 20
-94.172112
 11
99.168747
 21
-91.672112
  0
LINE
  8
0
  6
DASHED
 62
     2
 10
109.668747
 20
-94.172104
 11
109.668747
 21
-44.172104
  0
LINE
  8
0
 10
99.168747
 20
-59.672108
 11
99.168747
 21
-61.672108
  0
LINE
  8
0
 10
98.168747
 20
-46.672108
 11
98.168747
 21
-59.672108
  0
LINE
  8
0
 10
169.168747
 20
-59.672104
 11
98.168747
 21
-59.672104
  0
LINE
  8
0
 10
169.168747
 20
-46.672104
 11
98.168747
 21
-46.672104
  0
LINE
  8
0
 10
99.168747
 20
-44.172108
 11
99.168747
 21
-46.672108
  0
LINE
  8
0
 10
165.168747
 20
-41.172104
 11
102.168747
 21
-41.172104
  0
LINE
  8
0
 10
168.168747
 20
-44.172100
 11
168.168747
 21
-46.672100
  0
LINE
  8
0
 10
169.168747
 20
-46.672100
 11
169.168747
 21
-59.672100
  0
LINE
  8
0
 10
168.168747
 20
-59.672100
 11
168.168747
 21
-61.672100
  0
LINE
  8
0
  6
CENTER
 62
     2
 10
105.384468
 20
-63.115948
 11
105.384468
 21
-75.018433
  0
LINE
  8
0
  6
CENTER
 62
     2
 10
161.953033
 20
-63.115940
 11
161.953033
 21
-75.018433
  0
LINE
  8
0
 62
     2
 10
124.780563
 20
-76.672112
 11
129.951355
 21
-72.308907
  0
LINE
  8
0
 62
     2
 10
142.556961
 20
-76.672081
 11
137.386154
 21
-72.308884
  0
LINE
  8
0
 10
-194.250000
 20
132.600006
 11
194.800003
 21
132.600006
  0
LINE
  8
0
 10
194.800003
 20
132.600006
 11
194.800003
 21
-133.500000
  0
LINE
  8
0
 10
-194.250000
 20
132.600006
 11
-194.250000
 21
-133.500000
  0
LINE
  8
0
 10
-194.250000
 20
-133.500000
 11
194.800003
 21
-133.500000
  0
LINE
  8
0
 10
109.800003
 20
-118.500000
 11
109.800003
 21
-133.500000
  0
LINE
  8
0
 10
109.800003
 20
-118.500000
 11
194.800003
 21
-118.500000
  0
LINE
  8
0
 10
109.800003
 20
132.600006
 11
109.800003
 21
117.600006
  0
LINE
  8
0
 10
109.800003
 20
117.600006
 11
194.800003
 21
117.600006
  0
LINE
  8
0
 10
-194.250000
 20
117.600006
 11
-104.250000
 21
117.600006
  0
LINE
  8
0
 10
-104.250000
 20
132.600006
 11
-104.250000
 21
117.600006
  0
LINE
  8
0
 10
-19.725006
 20
132.600006
 11
-19.725006
 21
-133.500000
  0
LINE
  8
0
 10
82.537491
 20
132.600006
 11
82.537491
 21
-133.500000
  0
LINE
  8
0
 10
-116.987503
 20
117.600006
 11
-116.987503
 21
-133.500000
  0
ARC
  8
0
 10
-155.618744
 20
35.827896
 40
20.000002
 50
288.194824
 51
251.805191
  0
CIRCLE
  8
0
 10
-155.618744
 20
35.827896
 40
9.499999
  0
CIRCLE
  8
0
 10
-155.618744
 20
35.827896
 40
16.500004
  0
CIRCLE
  8
0
 10
-155.618744
 20
35.827896
 40
17.500004
  0
ARC
  8
0
 10
-141.118744
 20
-75.172104
 40
2.000000
 50
270.000000
 51
0.000000
  0
ARC
  8
0
  6
DASHED
 62
     2
 10
-144.118744
 20
-75.172104
 40
2.000000
 50
180.000000
 51
270.000000
  0
ARC
  8
0
 10
-141.118744
 20
-43.172104
 40
2.000000
 50
0.000000
 51
90.000000
  0
ARC
  8
0
  6
DASHED
 62
     2
 10
-144.118744
 20
-43.172104
 40
2.000000
 50
90.000000
 51
180.000000
  0
ARC
  8
0
 10
-170.118744
 20
-75.172104
 40
2.000000
 50
180.000000
 51
270.000000
  0
ARC
  8
0
  6
DASHED
 62
     2
 10
-167.118744
 20
-75.172104
 40
2.000000
 50
270.000000
 51
0.000000
  0
ARC
  8
0
 10
-170.118744
 20
-43.172104
 40
2.000000
 50
90.000000
 51
180.000000
  0
ARC
  8
0
  6
DASHED
 62
     2
 10
-167.118744
 20
-43.172104
 40
2.000000
 50
0.000000
 51
90.000000
  0
CIRCLE
  8
0
 10
-155.618744
 20
-59.172104
 40
2.100006
  0
CIRCLE
  8
0
 62
     2
 10
-155.618744
 20
-59.172104
 40
2.500000
  0
ARC
  8
0
 10
-68.356262
 20
35.827896
 40
29.999998
 50
284.835114
 51
255.164886
  0
CIRCLE
  8
0
 10
-68.356262
 20
35.827896
 40
13.500000
  0
CIRCLE
  8
0
 10
-68.356262
 20
35.827896
 40
24.000000
  0
CIRCLE
  8
0
 10
-68.356262
 20
35.827896
 40
25.000000
  0
ARC
  8
0
 10
-46.356247
 20
-87.172104
 40
2.000000
 50
270.000000
 51
0.000000
  0
ARC
  8
0
  6
DASHED
 62
     2
 10
-52.856247
 20
-87.172104
 40
2.000000
 50
180.000000
 51
270.000000
  0
ARC
  8
0
 10
-90.356247
 20
-87.172104
 40
2.000000
 50
180.000000
 51
270.000000
  0
ARC
  8
0
  6
DASHED
 62
     2
 10
-83.856247
 20
-87.172104
 40
2.000000
 50
270.000000
 51
0.000000
  0
ARC
  8
0
 10
-90.356247
 20
-43.172104
 40
2.000000
 50
90.000000
 51
180.000000
  0
ARC
  8
0
  6
DASHED
 62
     2
 10
-83.856247
 20
-43.172104
 40
2.000000
 50
0.000000
 51
90.000000
  0
ARC
  8
0
  6
DASHED
 62
     2
 10
-52.856251
 20
-43.172104
 40
2.000000
 50
90.000000
 51
180.000000
  0
ARC
  8
0
 10
-46.356251
 20
-43.172104
 40
2.000000
 50
0.000000
 51
90.000000
  0
CIRCLE
  8
0
 62
     2
 10
-68.356247
 20
-65.172104
 40
3.000000
  0
CIRCLE
  8
0
 10
-68.356247
 20
-65.172104
 40
2.500000
  0
ARC
  8
0
 10
26.406235
 20
35.827896
 40
35.000000
 50
283.729156
 51
256.270844
  0
CIRCLE
  8
0
 10
26.406235
 20
35.827896
 40
18.500000
  0
CIRCLE
  8
0
 10
26.406235
 20
35.827896
 40
29.000000
  0
CIRCLE
  8
0
 10
26.406235
 20
35.827896
 40
30.000000
  0
CIRCLE
  8
0
 62
     2
 10
26.406242
 20
-67.172104
 40
3.000000
  0
ARC
  8
0
 10
52.406246
 20
-90.172104
 40
3.000000
 50
270.000000
 51
0.000000
  0
ARC
  8
0
  6
DASHED
 62
     2
 10
47.906246
 20
-90.172104
 40
3.000000
 50
180.000000
 51
270.000000
  0
ARC
  8
0
 10
0.406244
 20
-90.172104
 40
3.000000
 50
180.000000
 51
269.999939
  0
ARC
  8
0
  6
DASHED
 62
     2
 10
4.906244
 20
-90.172104
 40
3.000000
 50
269.999939
 51
0.000000
  0
ARC
  8
0
 10
0.406240
 20
-44.172104
 40
3.000000
 50
90.000053
 51
180.000000
  0
ARC
  8
0
  6
DASHED
 62
     2
 10
4.906240
 20
-44.172104
 40
3.000000
 50
0.000073
 51
90.000031
  0
ARC
  8
0
  6
DASHED
 62
     2
 10
47.906239
 20
-44.172104
 40
3.000000
 50
90.000000
 51
179.999924
  0
ARC
  8
0
 10
52.406239
 20
-44.172104
 40
3.000000
 50
0.000000
 51
90.000000
  0
CIRCLE
  8
0
 10
26.406242
 20
-67.172104
 40
2.500000
  0
ARC
  8
0
 10
133.668747
 20
35.827896
 40
40.000000
 50
282.838562
 51
257.161438
  0
CIRCLE
  8
0
 10
133.668747
 20
35.827896
 40
24.000000
  0
CIRCLE
  8
0
 10
133.668747
 20
35.827896
 40
34.500000
  0
CIRCLE
  8
0
 10
133.668747
 20
35.827896
 40
35.500000
  0
ARC
  8
0
 10
165.168747
 20
-94.172104
 40
3.000000
 50
270.000000
 51
0.000000
  0
ARC
  8
0
  6
DASHED
 62
     2
 10
160.668747
 20
-94.172104
 40
3.000000
 50
180.000000
 51
270.000000
  0
ARC
  8
0
 10
102.168755
 20
-94.172112
 40
3.000000
 50
180.000000
 51
270.000000
  0
ARC
  8
0
  6
DASHED
 62
     2
 10
106.668755
 20
-94.172112
 40
3.000000
 50
270.000000
 51
0.000000
  0
ARC
  8
0
 10
102.168747
 20
-44.172104
 40
3.000000
 50
90.000000
 51
179.999924
  0
ARC
  8
0
  6
DASHED
 62
     2
 10
106.668747
 20
-44.172104
 40
3.000000
 50
0.000000
 51
90.000000
  0
ARC
  8
0
  6
DASHED
 62
     2
 10
160.668747
 20
-44.172104
 40
3.000000
 50
90.000000
 51
179.999924
  0
ARC
  8
0
 10
165.168747
 20
-44.172104
 40
3.000000
 50
0.000000
 51
90.000000
  0
CIRCLE
  8
0
 62
     2
 10
133.668747
 20
-69.172104
 40
4.863999
  0
CIRCLE
  8
0
 10
133.668747
 20
-69.172104
 40
4.278000
  0
ARC
  8
0
 62
     2
 10
-141.587524
 20
-60.412617
 40
1.259490
 50
255.893173
 51
284.106140
  0
ARC
  8
0
 62
     2
 10
-141.708237
 20
-60.083355
 40
1.608661
 50
285.417847
 51
321.388641
  0
ARC
  8
0
 62
     2
 10
-143.039566
 20
-59.172104
 40
3.219801
 50
323.502197
 51
36.497795
  0
ARC
  8
0
 62
     2
 10
-141.708237
 20
-58.260853
 40
1.608662
 50
38.611343
 51
74.581612
  0
ARC
  8
0
 62
     2
 10
-141.587524
 20
-57.931591
 40
1.259490
 50
75.893173
 51
104.106155
  0
ARC
  8
0
 62
     2
 10
-141.466812
 20
-58.260853
 40
1.608661
 50
105.417862
 51
141.388657
  0
ARC
  8
0
 62
     2
 10
-140.135483
 20
-59.172104
 40
3.219801
 50
143.502213
 51
216.497787
  0
ARC
  8
0
 62
     2
 10
-141.466812
 20
-60.083355
 40
1.608662
 50
218.611343
 51
254.581619
  0
ARC
  8
0
 62
     2
 10
-169.649963
 20
-57.931591
 40
1.259490
 50
75.893173
 51
104.106155
  0
ARC
  8
0
 62
     2
 10
-169.529251
 20
-58.260853
 40
1.608661
 50
105.417862
 51
141.388657
  0
ARC
  8
0
 62
     2
 10
-168.197922
 20
-59.172104
 40
3.219801
 50
143.502213
 51
216.497787
  0
ARC
  8
0
 62
     2
 10
-169.529251
 20
-60.083355
 40
1.608662
 50
218.611343
 51
254.581619
  0
ARC
  8
0
 62
     2
 10
-169.649963
 20
-60.412617
 40
1.259490
 50
255.893173
 51
284.106140
  0
ARC
  8
0
 62
     2
 10
-169.770676
 20
-60.083355
 40
1.608661
 50
285.417847
 51
321.388641
  0
ARC
  8
0
 62
     2
 10
-171.102005
 20
-59.172104
 40
3.219801
 50
323.502197
 51
36.497795
  0
ARC
  8
0
 62
     2
 10
-169.770676
 20
-58.260853
 40
1.608662
 50
38.611343
 51
74.581612
  0
ARC
  8
0
 10
-169.682709
 20
-58.130062
 40
1.057960
 50
75.893105
 51
104.106895
  0
ARC
  8
0
 10
-169.581314
 20
-58.406643
 40
1.351267
 50
105.418289
 51
141.388901
  0
ARC
  8
0
 10
-168.462967
 20
-59.172104
 40
2.704652
 50
143.502548
 51
216.497452
  0
ARC
  8
0
 10
-169.581314
 20
-59.937565
 40
1.351265
 50
218.611099
 51
254.581711
  0
ARC
  8
0
 10
-169.682709
 20
-60.214146
 40
1.057960
 50
255.893112
 51
284.106903
  0
ARC
  8
0
 10
-169.784103
 20
-59.937565
 40
1.351267
 50
285.418304
 51
321.388885
  0
ARC
  8
0
 10
-170.902451
 20
-59.172104
 40
2.704652
 50
323.502533
 51
36.497452
  0
ARC
  8
0
 10
-169.784103
 20
-58.406643
 40
1.351265
 50
38.611107
 51
74.581711
  0
ARC
  8
0
 10
-141.554779
 20
-60.214146
 40
1.057960
 50
255.893112
 51
284.106079
  0
ARC
  8
0
 10
-141.656174
 20
-59.937565
 40
1.351262
 50
285.417664
 51
321.388885
  0
ARC
  8
0
 10
-142.774521
 20
-59.172104
 40
2.704652
 50
323.502533
 51
36.497452
  0
ARC
  8
0
 10
-141.656174
 20
-58.406643
 40
1.351265
 50
38.611107
 51
74.581711
  0
ARC
  8
0
 10
-141.554779
 20
-58.130062
 40
1.057960
 50
75.893105
 51
104.106094
  0
ARC
  8
0
 10
-141.453384
 20
-58.406643
 40
1.351262
 50
105.417664
 51
141.388901
  0
ARC
  8
0
 10
-140.335037
 20
-59.172104
 40
2.704652
 50
143.502548
 51
216.497452
  0
ARC
  8
0
 10
-141.453384
 20
-59.937565
 40
1.351265
 50
218.611099
 51
254.581711
  0
ARC
  8
0
 62
     2
 10
-47.249374
 20
-66.660713
 40
1.511390
 50
255.893402
 51
284.106476
  0
ARC
  8
0
 62
     2
 10
-47.394222
 20
-66.265594
 40
1.930402
 50
285.417877
 51
321.388397
  0
ARC
  8
0
 62
     2
 10
-48.991817
 20
-65.172104
 40
3.863761
 50
323.502197
 51
36.497768
  0
ARC
  8
0
 62
     2
 10
-47.394222
 20
-64.078613
 40
1.930404
 50
38.611534
 51
74.582024
  0
ARC
  8
0
 62
     2
 10
-47.249374
 20
-63.683495
 40
1.511390
 50
75.893402
 51
104.106461
  0
ARC
  8
0
 62
     2
 10
-47.104527
 20
-64.078613
 40
1.930402
 50
105.417870
 51
141.388397
  0
ARC
  8
0
 62
     2
 10
-45.506931
 20
-65.172104
 40
3.863761
 50
143.502197
 51
216.497772
  0
ARC
  8
0
 62
     2
 10
-47.104527
 20
-66.265594
 40
1.930404
 50
218.611542
 51
254.582031
  0
ARC
  8
0
 62
     2
 10
-89.459129
 20
-66.660706
 40
1.511390
 50
256.047363
 51
284.260376
  0
ARC
  8
0
 62
     2
 10
-89.605034
 20
-66.265984
 40
1.930398
 50
285.571686
 51
321.542389
  0
ARC
  8
0
 62
     2
 10
-91.205559
 20
-65.176781
 40
3.863763
 50
323.656036
 51
36.651478
  0
ARC
  8
0
 62
     2
 10
-89.610901
 20
-64.079002
 40
1.930404
 50
38.765144
 51
74.735817
  0
ARC
  8
0
 62
     2
 10
-89.467110
 20
-63.683502
 40
1.511394
 50
76.047409
 51
104.260330
  0
ARC
  8
0
 62
     2
 10
-89.321205
 20
-64.078224
 40
1.930401
 50
105.571671
 51
141.542282
  0
ARC
  8
0
 62
     2
 10
-87.720680
 20
-65.167427
 40
3.863765
 50
143.655991
 51
216.651428
  0
ARC
  8
0
 62
     2
 10
-89.315338
 20
-66.265205
 40
1.930402
 50
218.765060
 51
254.735779
  0
ARC
  8
0
 10
-47.216858
 20
-63.931602
 40
1.259501
 50
75.893471
 51
104.106361
  0
ARC
  8
0
 10
-47.096149
 20
-64.260864
 40
1.608673
 50
105.417885
 51
141.388428
  0
ARC
  8
0
 10
-45.764832
 20
-65.172104
 40
3.219795
 50
143.502121
 51
216.497818
  0
ARC
  8
0
 10
-47.096153
 20
-66.083344
 40
1.608667
 50
218.611557
 51
254.582123
  0
ARC
  8
0
 10
-47.216858
 20
-66.412605
 40
1.259501
 50
255.893463
 51
284.106354
  0
ARC
  8
0
 10
-47.337566
 20
-66.083344
 40
1.608673
 50
285.417877
 51
321.388306
  0
ARC
  8
0
 10
-48.668884
 20
-65.172104
 40
3.219797
 50
323.502075
 51
36.497875
  0
ARC
  8
0
 10
-47.337563
 20
-64.260864
 40
1.608669
 50
38.611664
 51
74.582115
  0
ARC
  8
0
 10
-89.495636
 20
-66.412605
 40
1.259500
 50
255.893631
 51
284.106354
  0
ARC
  8
0
 10
-89.616341
 20
-66.083344
 40
1.608672
 50
285.417755
 51
321.388245
  0
ARC
  8
0
 10
-90.947662
 20
-65.172104
 40
3.219797
 50
323.502075
 51
36.497875
  0
ARC
  8
0
 10
-89.616341
 20
-64.260864
 40
1.608669
 50
38.611664
 51
74.582245
  0
ARC
  8
0
 10
-89.495636
 20
-63.931602
 40
1.259500
 50
75.893639
 51
104.106361
  0
ARC
  8
0
 10
-89.374931
 20
-64.260864
 40
1.608672
 50
105.417755
 51
141.388336
  0
ARC
  8
0
 10
-88.043610
 20
-65.172104
 40
3.219795
 50
143.502121
 51
216.497818
  0
ARC
  8
0
 10
-89.374931
 20
-66.083344
 40
1.608667
 50
218.611557
 51
254.582245
  0
ARC
  8
0
 62
     2
 10
51.063900
 20
-68.660706
 40
1.511396
 50
255.893753
 51
284.106537
  0
ARC
  8
0
 62
     2
 10
50.919056
 20
-68.265594
 40
1.930402
 50
285.417877
 51
321.388458
  0
ARC
  8
0
 62
     2
 10
49.321472
 20
-67.172104
 40
3.863755
 50
323.502136
 51
36.497936
  0
ARC
  8
0
 62
     2
 10
50.919052
 20
-66.078613
 40
1.930401
 50
38.611607
 51
74.582245
  0
ARC
  8
0
 62
     2
 10
51.063900
 20
-65.683502
 40
1.511396
 50
75.893753
 51
104.106529
  0
ARC
  8
0
 62
     2
 10
51.208744
 20
-66.078613
 40
1.930402
 50
105.417870
 51
141.388458
  0
ARC
  8
0
 62
     2
 10
52.806328
 20
-67.172104
 40
3.863755
 50
143.502136
 51
216.497940
  0
ARC
  8
0
 62
     2
 10
51.208748
 20
-68.265594
 40
1.930401
 50
218.611603
 51
254.582245
  0
ARC
  8
0
 62
     2
 10
1.748582
 20
-65.683495
 40
1.511389
 50
75.893585
 51
104.106575
  0
ARC
  8
0
 62
     2
 10
1.893431
 20
-66.078613
 40
1.930403
 50
105.418007
 51
141.388489
  0
ARC
  8
0
 62
     2
 10
3.491029
 20
-67.172104
 40
3.863767
 50
143.502274
 51
216.497787
  0
ARC
  8
0
 62
     2
 10
1.893435
 20
-68.265594
 40
1.930402
 50
218.611572
 51
254.582138
  0
ARC
  8
0
 62
     2
 10
1.748586
 20
-68.660713
 40
1.511389
 50
255.893585
 51
284.106567
  0
ARC
  8
0
 62
     2
 10
1.603736
 20
-68.265594
 40
1.930403
 50
285.417999
 51
321.388489
  0
ARC
  8
0
 62
     2
 10
0.006139
 20
-67.172104
 40
3.863767
 50
323.502258
 51
36.497791
  0
ARC
  8
0
 62
     2
 10
1.603733
 20
-66.078613
 40
1.930402
 50
38.611572
 51
74.582138
  0
ARC
  8
0
 10
1.720687
 20
-68.412613
 40
1.259493
 50
255.893494
 51
284.106445
  0
ARC
  8
0
 10
1.599980
 20
-68.083351
 40
1.608666
 50
285.417908
 51
321.388458
  0
ARC
  8
0
 10
0.268652
 20
-67.172104
 40
3.219803
 50
323.502136
 51
36.497719
  0
ARC
  8
0
 10
1.599981
 20
-66.260857
 40
1.608664
 50
38.611301
 51
74.582016
  0
ARC
  8
0
 10
1.720689
 20
-65.931595
 40
1.259493
 50
75.893494
 51
104.106438
  0
ARC
  8
0
 10
1.841396
 20
-66.260857
 40
1.608666
 50
105.417908
 51
141.388458
  0
ARC
  8
0
 10
3.172724
 20
-67.172104
 40
3.219803
 50
143.502151
 51
216.497711
  0
ARC
  8
0
 10
1.841395
 20
-68.083351
 40
1.608664
 50
218.611298
 51
254.582016
  0
ARC
  8
0
 10
51.091793
 20
-68.412613
 40
1.259492
 50
255.893555
 51
284.106445
  0
ARC
  8
0
 10
50.971085
 20
-68.083351
 40
1.608666
 50
285.417969
 51
321.388641
  0
ARC
  8
0
 10
49.639748
 20
-67.172104
 40
3.219805
 50
323.502350
 51
36.497768
  0
ARC
  8
0
 10
50.971085
 20
-66.260857
 40
1.608667
 50
38.611557
 51
74.582047
  0
ARC
  8
0
 10
51.091793
 20
-65.931595
 40
1.259492
 50
75.893555
 51
104.106445
  0
ARC
  8
0
 10
51.212502
 20
-66.260857
 40
1.608666
 50
105.417953
 51
141.388657
  0
ARC
  8
0
 10
52.543839
 20
-67.172104
 40
3.219805
 50
143.502335
 51
216.497772
  0
ARC
  8
0
 10
51.212502
 20
-68.083351
 40
1.608667
 50
218.611557
 51
254.582047
  0
ARC
  8
0
 62
     2
 10
161.811249
 20
-71.156906
 40
2.015198
 50
255.893631
 51
284.106384
  0
ARC
  8
0
 62
     2
 10
161.618118
 20
-70.630089
 40
2.573874
 50
285.417847
 51
321.388489
  0
ARC
  8
0
 62
     2
 10
159.488007
 20
-69.172104
 40
5.151677
 50
323.502167
 51
36.497833
  0
ARC
  8
0
 62
     2
 10
161.618118
 20
-67.714119
 40
2.573877
 50
38.611507
 51
74.582161
  0
ARC
  8
0
 62
     2
 10
161.811249
 20
-67.187302
 40
2.015198
 50
75.893623
 51
104.106377
  0
ARC
  8
0
 62
     2
 10
162.004379
 20
-67.714119
 40
2.573874
 50
105.417839
 51
141.388489
  0
ARC
  8
0
 62
     2
 10
164.134491
 20
-69.172104
 40
5.151677
 50
143.502167
 51
216.497833
  0
ARC
  8
0
 62
     2
 10
162.004379
 20
-70.630089
 40
2.573877
 50
218.611511
 51
254.582169
  0
ARC
  8
0
 62
     2
 10
105.526245
 20
-71.156906
 40
2.015198
 50
255.893631
 51
284.106384
  0
ARC
  8
0
 62
     2
 10
105.333115
 20
-70.630089
 40
2.573874
 50
285.417847
 51
321.388489
  0
ARC
  8
0
 62
     2
 10
103.203003
 20
-69.172104
 40
5.151677
 50
323.502167
 51
36.497887
  0
ARC
  8
0
 62
     2
 10
105.333115
 20
-67.714119
 40
2.573871
 50
38.611614
 51
74.582161
  0
ARC
  8
0
 62
     2
 10
105.526245
 20
-67.187302
 40
2.015198
 50
75.893623
 51
104.106377
  0
ARC
  8
0
 62
     2
 10
105.719376
 20
-67.714119
 40
2.573874
 50
105.417839
 51
141.388489
  0
ARC
  8
0
 62
     2
 10
107.849487
 20
-69.172104
 40
5.151677
 50
143.502167
 51
216.497879
  0
ARC
  8
0
 62
     2
 10
105.719376
 20
-70.630089
 40
2.573871
 50
218.611618
 51
254.582169
  0
ARC
  8
0
 10
105.485336
 20
-70.846786
 40
1.700313
 50
255.893616
 51
284.106628
  0
ARC
  8
0
 10
105.322380
 20
-70.402283
 40
2.171700
 50
285.418091
 51
321.388641
  0
ARC
  8
0
 10
103.525085
 20
-69.172104
 40
4.346733
 50
323.502289
 51
36.497841
  0
ARC
  8
0
 10
105.322380
 20
-67.941925
 40
2.171700
 50
38.611649
 51
74.582092
  0
ARC
  8
0
 10
105.485336
 20
-67.497421
 40
1.700313
 50
75.893608
 51
104.106644
  0
ARC
  8
0
 10
105.648293
 20
-67.941925
 40
2.171700
 50
105.418098
 51
141.388641
  0
ARC
  8
0
 10
107.445587
 20
-69.172104
 40
4.346733
 50
143.502304
 51
216.497849
  0
ARC
  8
0
 10
105.648293
 20
-70.402283
 40
2.171700
 50
218.611649
 51
254.582092
  0
ARC
  8
0
 10
161.852158
 20
-70.846802
 40
1.700297
 50
255.893738
 51
284.106750
  0
ARC
  8
0
 10
161.689209
 20
-70.402290
 40
2.171691
 50
285.417969
 51
321.388550
  0
ARC
  8
0
 10
159.891891
 20
-69.172104
 40
4.346739
 50
323.502350
 51
36.497723
  0
ARC
  8
0
 10
161.689194
 20
-67.941917
 40
2.171702
 50
38.611366
 51
74.582039
  0
ARC
  8
0
 10
161.852158
 20
-67.497406
 40
1.700297
 50
75.893730
 51
104.106766
  0
ARC
  8
0
 10
162.015106
 20
-67.941917
 40
2.171691
 50
105.417961
 51
141.388535
  0
ARC
  8
0
 10
163.812424
 20
-69.172104
 40
4.346739
 50
143.502365
 51
216.497726
  0
ARC
  8
0
 10
162.015121
 20
-70.402290
 40
2.171702
 50
218.611359
 51
254.582047
  0
TEXT
  8
0
 10
133.907150
 20
122.050003
 40
4.500000
  1
Ver. 1.0
 50
0.000000
 41
1.052631
 51
0.000000
  7
STANDARD
  0
TEXT
  8
0
 10
113.700279
 20
-130.669998
 40
6.300000
  1
KOGANEI CORP.
 50
0.000000
 41
1.052632
 51
0.000000
  7
STANDARD
  0
TEXT
  8
0
 10
-174.392654
 20
122.050003
 40
4.500000
  1
RUBBER HAND
 50
0.000000
 41
1.052632
 51
0.000000
  7
STANDARD
  0
TEXT
  8
0
 10
89.894638
 20
104.550003
 40
4.500000
  1
MODEL:RBG050GCA
 50
0.000000
 41
1.052632
 51
0.000000
  7
STANDARD
  0
TEXT
  8
0
 10
-186.892853
 20
104.550003
 40
4.500000
  1
MODEL:RBG020GCA
 50
0.000000
 41
1.052632
 51
0.000000
  7
STANDARD
  0
TEXT
  8
0
 10
-109.630356
 20
104.550003
 40
4.500000
  1
MODEL:RBG030GCA
 50
0.000000
 41
1.052632
 51
0.000000
  7
STANDARD
  0
TEXT
  8
0
 10
-12.367863
 20
104.550003
 40
4.500000
  1
MODEL:RBG040GCA
 50
0.000000
 41
1.052632
 51
0.000000
  7
STANDARD
  0
ENDSEC
  0
EOF
