  0
SECTION
  2
HEADER
  0
ENDSEC
  0
SECTION
  2
TABLES
  0
TABLE
  2
LTYPE
 70
     4
  0
LTYPE
  2
CONTINUOUS
 70
    64
  3
Solid line
 72
    65
 73
     0
 40
0.000000
  0
LTYPE
  2
DASHED
 70
    64
  3
__ __ __ __ __ __ __ __ __ __ __ __ __ __ __
 72
    65
 73
     2
 40
3.500000
 49
2.000000
 49
-1.500000
  0
LTYPE
  2
CENTER
 70
    64
  3
____ _ ____ _ ____ _ ____ _ ____ _ ____ _ ____
 72
    65
 73
     4
 40
17.500000
 49
13.000000
 49
-1.500000
 49
1.500000
 49
-1.500000
  0
LTYPE
  2
PHANTOM
 70
    64
  3
_____ _ _ _____ _ _ _____ _ _ _____ _ _ ____  
 72
    65
 73
     6
 40
15.500000
 49
8.000000
 49
-1.500000
 49
1.500000
 49
-1.500000
 49
1.500000
 49
-1.500000
  0
LTYPE
  2
DASHED1
 70
    64
  3
__ __ __ __ __ __ __ __ __ __ __ __ __ __ __
 72
    65
 73
     2
 40
1.500000
 49
1.000000
 49
-0.500000
  0
LTYPE
  2
DASHED2
 70
    64
  3
__ __ __ __ __ __ __ __ __ __ __ __ __ __ __
 72
    65
 73
     2
 40
3.500000
 49
2.500000
 49
-1.000000
  0
LTYPE
  2
DASHED3
 70
    64
  3
__ __ __ __ __ __ __ __ __ __ __ __ __ __ __
 72
    65
 73
     2
 40
6.000000
 49
4.000000
 49
-2.000000
  0
LTYPE
  2
DASHED4
 70
    64
  3
__ __ __ __ __ __ __ __ __ __ __ __ __ __ __
 72
    65
 73
     2
 40
12.000000
 49
10.000000
 49
-2.000000
  0
LTYPE
  2
DASHED5
 70
    64
  3
__ __ __ __ __ __ __ __ __ __ __ __ __ __ __
 72
    65
 73
     2
 40
17.000000
 49
15.000000
 49
-2.000000
  0
LTYPE
  2
DASHED6
 70
    64
  3
__ __ __ __ __ __ __ __ __ __ __ __ __ __ __
 72
    65
 73
     2
 40
29.000000
 49
27.000000
 49
-2.000000
  0
LTYPE
  2
PHANTOM1
 70
    64
  3
_____ _ _ _____ _ _ _____ _ _ _____ _ _ ____  
 72
    65
 73
     6
 40
31.000000
 49
25.000000
 49
-1.500000
 49
1.000000
 49
-1.000000
 49
1.000000
 49
-1.500000
  0
LTYPE
  2
PHANTOM2
 70
    64
  3
_____ _ _ _____ _ _ _____ _ _ _____ _ _ ____  
 72
    65
 73
     6
 40
36.000000
 49
27.000000
 49
-1.500000
 49
2.500000
 49
-1.000000
 49
2.500000
 49
-1.500000
  0
LTYPE
  2
PHANTOM3
 70
    64
  3
_____ _ _ _____ _ _ _____ _ _ _____ _ _ ____  
 72
    65
 73
     6
 40
78.000000
 49
64.000000
 49
-2.000000
 49
4.000000
 49
-2.000000
 49
4.000000
 49
-2.000000
  0
LTYPE
  2
CENTER1
 70
    64
  3
____ _ ____ _ ____ _ ____ _ ____ _ ____ _ ____
 72
    65
 73
     4
 40
19.000000
 49
14.000000
 49
-1.000000
 49
3.000000
 49
-1.000000
  0
LTYPE
  2
CENTER2
 70
    64
  3
____ _ ____ _ ____ _ ____ _ ____ _ ____ _ ____
 72
    65
 73
     4
 40
28.500000
 49
25.000000
 49
-1.000000
 49
1.500000
 49
-1.000000
  0
LTYPE
  2
CENTER3
 70
    64
  3
____ _ ____ _ ____ _ ____ _ ____ _ ____ _ ____
 72
    65
 73
     4
 40
31.500000
 49
27.000000
 49
-1.000000
 49
2.500000
 49
-1.000000
  0
LTYPE
  2
CENTER4
 70
    64
  3
____ _ ____ _ ____ _ ____ _ ____ _ ____ _ ____
 72
    65
 73
     4
 40
50.000000
 49
45.000000
 49
-1.000000
 49
3.000000
 49
-1.000000
  0
LTYPE
  2
CENTER5
 70
    64
  3
____ _ ____ _ ____ _ ____ _ ____ _ ____ _ ____
 72
    65
 73
     4
 40
100.000000
 49
92.000000
 49
-2.000000
 49
4.000000
 49
-2.000000
  0
LTYPE
  2
SBK1
 70
    64
  3
______ _ _ _ ______ _ _ _ ______ _ _ _ _____  
 72
    65
 73
     8
 40
60.500000
 49
45.000000
 49
-2.000000
 49
2.500000
 49
-2.000000
 49
2.500000
 49
-2.000000
 49
2.500000
 49
-2.000000
  0
LTYPE
  2
SBK2
 70
    64
  3
______ _ _ _ ______ _ _ _ ______ _ _ _ _____  
 72
    65
 73
     8
 40
84.000000
 49
64.000000
 49
-2.000000
 49
4.000000
 49
-2.000000
 49
4.000000
 49
-2.000000
 49
4.000000
 49
-2.000000
  0
LTYPE
  2
STCH
 70
    64
  3
__ __ __ __ __ __ __ __ __ __ __ __ __ __ __
 72
    65
 73
     2
 40
3.000000
 49
1.000000
 49
-2.000000
  0
LTYPE
  2
MTCH
 70
    64
  3
_____ _ _ _____ _ _ _____ _ _ _____ _ _ ____  
 72
    65
 73
     6
 40
80.000000
 49
66.000000
 49
-2.000000
 49
4.000000
 49
-2.000000
 49
4.000000
 49
-2.000000
  0
ENDTAB
  0
TABLE
  2
LAYER
 70
     1
  0
LAYER
  2
0
 70
     0
 62
     7
  6
CONTINUOUS
  0
ENDTAB
  0
TABLE
  2
STYLE
 70
     1
  0
STYLE
  2
STANDARD
 70
     0
 40
0.000000
 41
1.000000
 50
0.000000
 71
     0
 42
0.200000
  3
txt
  4
BIGFONT
  0
ENDTAB
  0
TABLE
  2
VIEW
 70
     0
  0
ENDTAB
  0
ENDSEC
  0
SECTION
  2
BLOCKS
  0
ENDSEC
  0
SECTION
  2
ENTITIES
  0
POINT
  8
0
 10
-184.250000
 20
-123.500000
  0
LINE
  8
0
  6
CENTER
 62
     1
 10
-60.265488
 20
-51.542480
 11
-46.265488
 21
-51.542480
  0
LINE
  8
0
  6
CENTER
 62
     1
 10
-60.265488
 20
-21.542480
 11
-46.265488
 21
-21.542480
  0
LINE
  8
0
 62
     4
 10
-57.265488
 20
-27.742493
 11
-54.265484
 21
-16.542486
  0
LINE
  8
0
 62
     4
 10
-54.265488
 20
-16.542480
 11
-49.265488
 21
-16.542480
  0
LINE
  8
0
 62
     4
 10
-57.265488
 20
-56.542480
 11
-49.265488
 21
-56.542480
  0
LINE
  8
0
 62
     4
 10
-49.265488
 20
-16.542480
 11
-49.265488
 21
-56.542480
  0
LINE
  8
0
 62
     4
 10
-57.265488
 20
-27.742493
 11
-57.265488
 21
-56.542480
  0
LINE
  8
0
  6
CENTER
 62
     1
 10
-133.369995
 20
-21.542480
 11
-128.369995
 21
-21.542480
  0
LINE
  8
0
 62
     4
 10
-125.869995
 20
-16.542480
 11
-125.869995
 21
-56.542480
  0
LINE
  8
0
 62
     4
 10
-135.869995
 20
-16.542480
 11
-135.869995
 21
-56.542480
  0
LINE
  8
0
 62
     4
 10
-135.869995
 20
-16.542480
 11
-125.869995
 21
-16.542480
  0
LINE
  8
0
 62
     4
 10
-132.119995
 20
-52.272484
 11
-130.869995
 21
-52.992485
  0
LINE
  8
0
 62
     4
 10
-130.869995
 20
-50.102489
 11
-129.619995
 21
-50.822491
  0
LINE
  8
0
 62
     4
 10
-130.869995
 20
-52.992477
 11
-129.619995
 21
-52.272476
  0
LINE
  8
0
 62
     4
 10
-132.119995
 20
-50.822483
 11
-130.869995
 21
-50.102478
  0
LINE
  8
0
 62
     4
 10
-129.619995
 20
-50.822479
 11
-129.619995
 21
-52.272480
  0
LINE
  8
0
 62
     4
 10
-132.119995
 20
-50.822479
 11
-132.119995
 21
-52.272480
  0
LINE
  8
0
 62
     4
 10
-135.869995
 20
-27.742493
 11
-125.869995
 21
-27.742493
  0
LINE
  8
0
 62
     4
 10
-135.869995
 20
-56.542480
 11
-125.869995
 21
-56.542480
  0
LINE
  8
0
  6
CENTER
 62
     1
 10
-139.171036
 20
-51.542480
 11
-121.488441
 21
-51.542480
  0
LINE
  8
0
  6
CENTER
 62
     1
 10
-130.869995
 20
-13.542480
 11
-130.869995
 21
-61.355061
  0
LINE
  8
0
  6
CENTER
 62
     2
 10
98.979996
 20
44.399994
 11
126.979996
 21
44.399994
  0
LINE
  8
0
  6
CENTER
 62
     2
 10
112.979996
 20
58.399994
 11
112.979996
 21
30.399994
  0
LINE
  8
0
  6
CENTER
 62
     2
 10
109.479996
 20
38.899994
 11
116.479996
 21
38.899994
  0
LINE
  8
0
  6
CENTER
 62
     2
 10
109.479996
 20
49.899994
 11
116.479996
 21
49.899994
  0
LINE
  8
0
  6
CENTER
 62
     2
 10
118.479996
 20
46.899994
 11
118.479996
 21
41.899994
  0
LINE
  8
0
  6
CENTER
 62
     2
 10
107.479996
 20
46.899994
 11
107.479996
 21
41.899994
  0
LINE
  8
0
  6
CENTER
 62
     2
 10
-144.869995
 20
44.399994
 11
-116.869995
 21
44.399994
  0
LINE
  8
0
  6
CENTER
 62
     2
 10
-130.869995
 20
58.399994
 11
-130.869995
 21
30.399994
  0
LINE
  8
0
 10
-133.369995
 20
46.049995
 11
-133.369995
 21
42.739994
  0
LINE
  8
0
 10
-128.369995
 20
46.049995
 11
-128.369995
 21
42.739994
  0
LINE
  8
0
  6
CENTER
 62
     2
 10
-124.869995
 20
40.899994
 11
-124.869995
 21
35.899994
  0
LINE
  8
0
  6
CENTER
 62
     2
 10
-124.869995
 20
52.899994
 11
-124.869995
 21
47.899994
  0
LINE
  8
0
  6
CENTER
 62
     2
 10
-136.869995
 20
52.899994
 11
-136.869995
 21
47.899994
  0
LINE
  8
0
  6
CENTER
 62
     2
 10
-136.869995
 20
40.899994
 11
-136.869995
 21
35.899994
  0
LINE
  8
0
  6
CENTER
 62
     2
 10
-139.369995
 20
38.399994
 11
-134.369995
 21
38.399994
  0
LINE
  8
0
  6
CENTER
 62
     2
 10
-127.369995
 20
38.399994
 11
-122.369995
 21
38.399994
  0
LINE
  8
0
  6
CENTER
 62
     2
 10
-127.369995
 20
50.399994
 11
-122.369995
 21
50.399994
  0
LINE
  8
0
  6
CENTER
 62
     2
 10
-139.369995
 20
50.399994
 11
-134.369995
 21
50.399994
  0
LINE
  8
0
  6
CENTER
 62
     2
 10
-39.319992
 20
48.389992
 11
-39.319992
 21
40.959995
  0
LINE
  8
0
 62
     2
 10
-49.819992
 20
42.739990
 11
-54.819992
 21
46.049988
  0
LINE
  8
0
 62
     2
 10
-54.819992
 20
42.739998
 11
-49.819992
 21
46.049999
  0
LINE
  8
0
 10
-54.319992
 20
42.739994
 11
-54.319992
 21
41.399994
  0
LINE
  8
0
 10
-54.819992
 20
42.739994
 11
-49.819992
 21
42.739994
  0
LINE
  8
0
 10
-54.819992
 20
46.049995
 11
-49.819992
 21
46.049995
  0
LINE
  8
0
 10
-49.819992
 20
46.049995
 11
-49.819992
 21
42.739994
  0
LINE
  8
0
 10
-54.319992
 20
47.399994
 11
-54.319992
 21
46.049995
  0
LINE
  8
0
 10
-54.819992
 20
41.899994
 11
-54.319992
 21
41.399994
  0
LINE
  8
0
 10
-54.819992
 20
46.899994
 11
-54.319992
 21
47.399994
  0
LINE
  8
0
 10
-54.819992
 20
46.899994
 11
-54.819992
 21
41.899994
  0
LINE
  8
0
 10
-54.319992
 20
41.399994
 11
-44.319992
 21
41.399994
  0
LINE
  8
0
 10
-54.319992
 20
47.399994
 11
-44.319992
 21
47.399994
  0
LINE
  8
0
 10
-32.520004
 20
53.899994
 11
45.580002
 21
53.899994
  0
LINE
  8
0
 10
-33.919998
 20
53.899994
 11
-33.220001
 21
53.899994
  0
LINE
  8
0
 10
-32.520004
 20
34.899994
 11
45.580002
 21
34.899994
  0
LINE
  8
0
 10
-33.919998
 20
34.899994
 11
-33.220001
 21
34.899994
  0
LINE
  8
0
 10
-33.920002
 20
53.899986
 11
-34.619999
 21
53.199989
  0
LINE
  8
0
 10
-32.519993
 20
53.899994
 11
-33.220001
 21
53.199986
  0
LINE
  8
0
 10
-33.920002
 20
34.900002
 11
-34.619999
 21
35.599998
  0
LINE
  8
0
 10
-32.519993
 20
34.899994
 11
-33.220001
 21
35.600002
  0
LINE
  8
0
 10
-32.520004
 20
53.899994
 11
-32.520004
 21
34.899994
  0
LINE
  8
0
 10
-33.220001
 20
53.899994
 11
-33.220001
 21
34.899994
  0
LINE
  8
0
 10
-33.919998
 20
53.899994
 11
-33.919998
 21
34.899994
  0
LINE
  8
0
 10
-34.619995
 20
53.899994
 11
-34.619995
 21
34.899994
  0
LINE
  8
0
 10
47.680008
 20
53.899994
 11
53.680008
 21
53.899994
  0
LINE
  8
0
 10
46.279999
 20
53.899994
 11
46.979996
 21
53.899994
  0
LINE
  8
0
 10
47.680008
 20
34.899994
 11
53.680008
 21
34.899994
  0
LINE
  8
0
 10
46.279999
 20
34.899994
 11
46.979996
 21
34.899994
  0
LINE
  8
0
 10
45.579998
 20
34.899994
 11
46.279995
 21
35.599991
  0
LINE
  8
0
 10
46.979992
 20
34.899994
 11
47.680000
 21
35.600002
  0
LINE
  8
0
 10
45.579998
 20
53.899994
 11
46.279995
 21
53.199997
  0
LINE
  8
0
 10
46.979992
 20
53.899994
 11
47.680000
 21
53.199986
  0
LINE
  8
0
 10
45.580002
 20
53.899994
 11
45.580002
 21
34.899994
  0
LINE
  8
0
 10
46.279999
 20
53.899994
 11
46.279999
 21
34.899994
  0
LINE
  8
0
 10
46.979996
 20
53.899994
 11
46.979996
 21
34.899994
  0
LINE
  8
0
 10
-44.319992
 20
40.399994
 11
-43.319992
 21
40.399994
  0
LINE
  8
0
 10
-44.319992
 20
48.399994
 11
-43.319992
 21
48.399994
  0
LINE
  8
0
 10
-44.319992
 20
48.399994
 11
-44.319992
 21
40.399994
  0
LINE
  8
0
 10
47.680008
 20
53.899994
 11
47.680008
 21
34.899994
  0
LINE
  8
0
 10
-35.319992
 20
34.899994
 11
-34.619995
 21
34.899994
  0
LINE
  8
0
 10
-35.319992
 20
53.899994
 11
-34.619995
 21
53.899994
  0
LINE
  8
0
 10
-35.319992
 20
55.399994
 11
-35.319992
 21
33.399994
  0
LINE
  8
0
 10
-43.319992
 20
33.399994
 11
-35.319992
 21
33.399994
  0
LINE
  8
0
 10
-43.319992
 20
55.399994
 11
-35.319992
 21
55.399994
  0
LINE
  8
0
  6
CENTER
 62
     2
 10
-56.899994
 20
44.399994
 11
56.680008
 21
44.399994
  0
LINE
  8
0
 10
53.680008
 20
53.899994
 11
53.680008
 21
34.899994
  0
LINE
  8
0
 10
-43.319992
 20
55.399994
 11
-43.319992
 21
33.399994
  0
LINE
  8
0
  6
PHANTOM
 62
     3
 10
9.180008
 20
69.672806
 11
9.180008
 21
25.547180
  0
LINE
  8
0
 10
-159.250000
 20
-111.500000
 11
-159.250000
 21
-123.500000
  0
LINE
  8
0
 10
-147.250000
 20
-111.500000
 11
-147.250000
 21
-123.500000
  0
LINE
  8
0
 10
-135.250000
 20
-111.500000
 11
-135.250000
 21
-123.500000
  0
LINE
  8
0
 10
-184.250000
 20
-111.500000
 11
-135.250000
 21
-111.500000
  0
LINE
  8
0
 10
-184.250000
 20
-117.500000
 11
-135.250000
 21
-117.500000
  0
LINE
  8
0
 10
-184.250000
 20
-111.500000
 11
-184.250000
 21
-123.500000
  0
LINE
  8
0
 10
-184.250000
 20
-123.500000
 11
-135.250000
 21
-123.500000
  0
LINE
  8
0
 10
-194.250000
 20
132.600006
 11
194.800003
 21
132.600006
  0
LINE
  8
0
 10
194.800003
 20
132.600006
 11
194.800003
 21
-133.500000
  0
LINE
  8
0
 10
-194.250000
 20
132.600006
 11
-194.250000
 21
-133.500000
  0
LINE
  8
0
 10
-194.250000
 20
-133.500000
 11
194.800003
 21
-133.500000
  0
LINE
  8
0
 10
109.800003
 20
-118.500000
 11
109.800003
 21
-133.500000
  0
LINE
  8
0
 10
109.800003
 20
-118.500000
 11
194.800003
 21
-118.500000
  0
LINE
  8
0
 10
109.800003
 20
132.600006
 11
109.800003
 21
117.600006
  0
LINE
  8
0
 10
109.800003
 20
117.600006
 11
194.800003
 21
117.600006
  0
LINE
  8
0
 10
-194.250000
 20
117.600006
 11
-109.250000
 21
117.600006
  0
LINE
  8
0
 10
-109.250000
 20
132.600006
 11
-109.250000
 21
117.600006
  0
CIRCLE
  8
0
 62
     4
 10
-130.875366
 20
-21.542496
 40
1.229500
  0
CIRCLE
  8
0
 62
     1
 10
-130.875366
 20
-21.542496
 40
1.500000
  0
CIRCLE
  8
0
 62
     4
 10
-130.875366
 20
-51.542488
 40
1.443376
  0
CIRCLE
  8
0
 62
     4
 10
-130.875366
 20
-51.542488
 40
2.403589
  0
CIRCLE
  8
0
 62
     4
 10
-130.875366
 20
-51.542488
 40
2.750000
  0
CIRCLE
  8
0
 62
     4
 10
-130.875366
 20
-51.542488
 40
3.250000
  0
CIRCLE
  8
0
 10
112.979996
 20
49.899994
 40
2.099999
  0
CIRCLE
  8
0
 10
112.979996
 20
38.899994
 40
2.099999
  0
CIRCLE
  8
0
 62
     2
 10
112.979996
 20
38.899994
 40
2.500000
  0
CIRCLE
  8
0
 62
     2
 10
112.979996
 20
49.899994
 40
2.500000
  0
CIRCLE
  8
0
 10
107.479996
 20
44.399994
 40
1.250000
  0
CIRCLE
  8
0
 10
118.479996
 20
44.399994
 40
1.250000
  0
CIRCLE
  8
0
 62
     2
 10
118.479996
 20
44.399994
 40
1.500000
  0
CIRCLE
  8
0
 62
     2
 10
107.479996
 20
44.399994
 40
1.500000
  0
CIRCLE
  8
0
 10
112.979996
 20
44.399994
 40
9.500000
  0
CIRCLE
  8
0
 10
112.979996
 20
44.399994
 40
11.000000
  0
CIRCLE
  8
0
 10
-130.869995
 20
44.399994
 40
11.000000
  0
CIRCLE
  8
0
 10
-124.869995
 20
50.399994
 40
1.250000
  0
CIRCLE
  8
0
 10
-136.869995
 20
50.399994
 40
1.250000
  0
CIRCLE
  8
0
 10
-136.869995
 20
38.399994
 40
1.250000
  0
CIRCLE
  8
0
 10
-124.869995
 20
38.399994
 40
1.250000
  0
CIRCLE
  8
0
 62
     2
 10
-124.869995
 20
38.399994
 40
1.500000
  0
CIRCLE
  8
0
 62
     2
 10
-124.869995
 20
50.399994
 40
1.500000
  0
CIRCLE
  8
0
 62
     2
 10
-136.869995
 20
38.399994
 40
1.500000
  0
CIRCLE
  8
0
 62
     2
 10
-136.869995
 20
50.399994
 40
1.500000
  0
CIRCLE
  8
0
 10
-130.869995
 20
44.399994
 40
2.500000
  0
CIRCLE
  8
0
 10
-130.869995
 20
44.399994
 40
1.000000
  0
CIRCLE
  8
0
 62
     2
 10
-130.869995
 20
44.399994
 40
1.500000
  0
CIRCLE
  8
0
 10
-130.869995
 20
44.399994
 40
3.000000
  0
ARC
  8
0
 62
     2
 10
-130.868774
 20
44.400085
 40
2.498781
 50
188.517410
 51
359.997894
  0
CIRCLE
  8
0
 10
-130.869995
 20
44.399994
 40
4.000000
  0
CIRCLE
  8
0
 10
-39.319992
 20
44.399994
 40
1.300000
  0
ARC
  8
0
 10
-52.319981
 20
44.394993
 40
2.998160
 50
326.495331
 51
33.504662
  0
TEXT
  8
0
 10
-29.812166
 20
37.263466
 40
3.200000
  1
RHDA16
 50
0.000000
 41
1.052632
 51
0.000000
  7
STANDARD
  0
TEXT
  8
0
 10
-180.551483
 20
-116.376381
 40
3.200000
  1
STROKE
 50
0.000000
 41
1.052632
 51
0.000000
  7
STANDARD
  0
TEXT
  8
0
 10
-185.101776
 20
-108.750191
 40
3.200000
  1
STRETCH LIST
 50
0.000000
 41
1.052632
 51
0.000000
  7
STANDARD
  0
TEXT
  8
0
 10
-144.651474
 20
-116.376366
 40
3.200000
  1
30
 50
0.000000
 41
1.052632
 51
0.000000
  7
STANDARD
  0
TEXT
  8
0
 10
-156.651474
 20
-116.376366
 40
3.200000
  1
20
 50
0.000000
 41
1.052632
 51
0.000000
  7
STANDARD
  0
TEXT
  8
0
 10
-144.651474
 20
-122.386375
 40
3.200000
  1
10
 50
0.000000
 41
1.052632
 51
0.000000
  7
STANDARD
  0
TEXT
  8
0
 10
-155.051483
 20
-122.386375
 40
3.200000
  1
0
 50
0.000000
 41
1.052632
 51
0.000000
  7
STANDARD
  0
TEXT
  8
0
 10
-146.557404
 20
-108.307091
 40
3.200000
  1
（ｍｍ）
 50
0.000000
 41
0.833333
 51
0.000000
  7
STANDARD
  0
TEXT
  8
0
 10
-183.050003
 20
-122.379997
 40
3.200000
  1
STRETCH
 50
0.000000
 41
1.052632
 51
0.000000
  7
STANDARD
  0
TEXT
  8
0
 62
     3
 10
-9.405859
 20
74.281883
 40
3.200000
  1
STRETCH LINE
 50
0.000000
 41
1.052632
 51
0.000000
  7
STANDARD
  0
TEXT
  8
0
 10
-186.892654
 20
104.550003
 40
4.500000
  1
MODEL:RHDA16*ST(20)
 50
0.000000
 41
1.052632
 51
0.000000
  7
STANDARD
  0
TEXT
  8
0
 10
133.907150
 20
122.050003
 40
4.500000
  1
Ｖｅｒ．　１．０
 50
0.000000
 41
0.833333
 51
0.000000
  7
STANDARD
  0
TEXT
  8
0
 10
113.700302
 20
-130.669998
 40
6.299999
  1
KOGANEI CORP.
 50
0.000000
 41
1.052631
 51
0.000000
  7
STANDARD
  0
TEXT
  8
0
 10
-183.642654
 20
122.050003
 40
4.500000
  1
TWIST CYLINDER
 50
0.000000
 41
1.052632
 51
0.000000
  7
STANDARD
  0
ENDSEC
  0
EOF
