  0
SECTION
  2
HEADER
  0
ENDSEC
  0
SECTION
  2
TABLES
  0
TABLE
  2
LTYPE
 70
     4
  0
LTYPE
  2
CONTINUOUS
 70
    64
  3
Solid line
 72
    65
 73
     0
 40
0.000000
  0
LTYPE
  2
DASHED
 70
    64
  3
__ __ __ __ __ __ __ __ __ __ __ __ __ __ __
 72
    65
 73
     2
 40
3.500000
 49
2.000000
 49
-1.500000
  0
LTYPE
  2
CENTER
 70
    64
  3
____ _ ____ _ ____ _ ____ _ ____ _ ____ _ ____
 72
    65
 73
     4
 40
17.500000
 49
13.000000
 49
-1.500000
 49
1.500000
 49
-1.500000
  0
LTYPE
  2
PHANTOM
 70
    64
  3
_____ _ _ _____ _ _ _____ _ _ _____ _ _ ____  
 72
    65
 73
     6
 40
15.500000
 49
8.000000
 49
-1.500000
 49
1.500000
 49
-1.500000
 49
1.500000
 49
-1.500000
  0
LTYPE
  2
DASHED1
 70
    64
  3
__ __ __ __ __ __ __ __ __ __ __ __ __ __ __
 72
    65
 73
     2
 40
1.500000
 49
1.000000
 49
-0.500000
  0
LTYPE
  2
DASHED2
 70
    64
  3
__ __ __ __ __ __ __ __ __ __ __ __ __ __ __
 72
    65
 73
     2
 40
3.500000
 49
2.500000
 49
-1.000000
  0
LTYPE
  2
DASHED3
 70
    64
  3
__ __ __ __ __ __ __ __ __ __ __ __ __ __ __
 72
    65
 73
     2
 40
6.000000
 49
4.000000
 49
-2.000000
  0
LTYPE
  2
DASHED4
 70
    64
  3
__ __ __ __ __ __ __ __ __ __ __ __ __ __ __
 72
    65
 73
     2
 40
12.000000
 49
10.000000
 49
-2.000000
  0
LTYPE
  2
DASHED5
 70
    64
  3
__ __ __ __ __ __ __ __ __ __ __ __ __ __ __
 72
    65
 73
     2
 40
17.000000
 49
15.000000
 49
-2.000000
  0
LTYPE
  2
DASHED6
 70
    64
  3
__ __ __ __ __ __ __ __ __ __ __ __ __ __ __
 72
    65
 73
     2
 40
29.000000
 49
27.000000
 49
-2.000000
  0
LTYPE
  2
PHANTOM1
 70
    64
  3
_____ _ _ _____ _ _ _____ _ _ _____ _ _ ____  
 72
    65
 73
     6
 40
31.000000
 49
25.000000
 49
-1.500000
 49
1.000000
 49
-1.000000
 49
1.000000
 49
-1.500000
  0
LTYPE
  2
PHANTOM2
 70
    64
  3
_____ _ _ _____ _ _ _____ _ _ _____ _ _ ____  
 72
    65
 73
     6
 40
36.000000
 49
27.000000
 49
-1.500000
 49
2.500000
 49
-1.000000
 49
2.500000
 49
-1.500000
  0
LTYPE
  2
PHANTOM3
 70
    64
  3
_____ _ _ _____ _ _ _____ _ _ _____ _ _ ____  
 72
    65
 73
     6
 40
78.000000
 49
64.000000
 49
-2.000000
 49
4.000000
 49
-2.000000
 49
4.000000
 49
-2.000000
  0
LTYPE
  2
CENTER1
 70
    64
  3
____ _ ____ _ ____ _ ____ _ ____ _ ____ _ ____
 72
    65
 73
     4
 40
19.000000
 49
14.000000
 49
-1.000000
 49
3.000000
 49
-1.000000
  0
LTYPE
  2
CENTER2
 70
    64
  3
____ _ ____ _ ____ _ ____ _ ____ _ ____ _ ____
 72
    65
 73
     4
 40
28.500000
 49
25.000000
 49
-1.000000
 49
1.500000
 49
-1.000000
  0
LTYPE
  2
CENTER3
 70
    64
  3
____ _ ____ _ ____ _ ____ _ ____ _ ____ _ ____
 72
    65
 73
     4
 40
31.500000
 49
27.000000
 49
-1.000000
 49
2.500000
 49
-1.000000
  0
LTYPE
  2
CENTER4
 70
    64
  3
____ _ ____ _ ____ _ ____ _ ____ _ ____ _ ____
 72
    65
 73
     4
 40
50.000000
 49
45.000000
 49
-1.000000
 49
3.000000
 49
-1.000000
  0
LTYPE
  2
CENTER5
 70
    64
  3
____ _ ____ _ ____ _ ____ _ ____ _ ____ _ ____
 72
    65
 73
     4
 40
100.000000
 49
92.000000
 49
-2.000000
 49
4.000000
 49
-2.000000
  0
LTYPE
  2
SBK1
 70
    64
  3
______ _ _ _ ______ _ _ _ ______ _ _ _ _____  
 72
    65
 73
     8
 40
60.500000
 49
45.000000
 49
-2.000000
 49
2.500000
 49
-2.000000
 49
2.500000
 49
-2.000000
 49
2.500000
 49
-2.000000
  0
LTYPE
  2
SBK2
 70
    64
  3
______ _ _ _ ______ _ _ _ ______ _ _ _ _____  
 72
    65
 73
     8
 40
84.000000
 49
64.000000
 49
-2.000000
 49
4.000000
 49
-2.000000
 49
4.000000
 49
-2.000000
 49
4.000000
 49
-2.000000
  0
LTYPE
  2
STCH
 70
    64
  3
__ __ __ __ __ __ __ __ __ __ __ __ __ __ __
 72
    65
 73
     2
 40
3.000000
 49
1.000000
 49
-2.000000
  0
LTYPE
  2
MTCH
 70
    64
  3
_____ _ _ _____ _ _ _____ _ _ _____ _ _ ____  
 72
    65
 73
     6
 40
80.000000
 49
66.000000
 49
-2.000000
 49
4.000000
 49
-2.000000
 49
4.000000
 49
-2.000000
  0
ENDTAB
  0
TABLE
  2
LAYER
 70
     1
  0
LAYER
  2
0
 70
     0
 62
     7
  6
CONTINUOUS
  0
ENDTAB
  0
TABLE
  2
STYLE
 70
     1
  0
STYLE
  2
STANDARD
 70
     0
 40
0.000000
 41
1.000000
 50
0.000000
 71
     0
 42
0.200000
  3
txt
  4
BIGFONT
  0
ENDTAB
  0
TABLE
  2
VIEW
 70
     0
  0
ENDTAB
  0
ENDSEC
  0
SECTION
  2
BLOCKS
  0
ENDSEC
  0
SECTION
  2
ENTITIES
  0
LINE
  8
0
  6
CENTER
 62
     1
 10
-62.701691
 20
-46.402847
 11
-46.701691
 21
-46.402847
  0
LINE
  8
0
  6
CENTER
 62
     1
 10
-62.701691
 20
-11.402847
 11
-46.701691
 21
-11.402847
  0
LINE
  8
0
 62
     4
 10
-59.701683
 20
-15.062868
 11
-54.701679
 21
-6.402859
  0
LINE
  8
0
 62
     4
 10
-54.701691
 20
-6.402847
 11
-49.701691
 21
-6.402847
  0
LINE
  8
0
 62
     4
 10
-59.701691
 20
-56.402847
 11
-49.701691
 21
-56.402847
  0
LINE
  8
0
 62
     4
 10
-49.701691
 20
-6.402847
 11
-49.701691
 21
-56.402847
  0
LINE
  8
0
 62
     4
 10
-59.701691
 20
-15.062851
 11
-59.701691
 21
-56.402847
  0
LINE
  8
0
 62
     4
 10
-126.561699
 20
-47.562859
 11
-124.561691
 21
-48.712864
  0
LINE
  8
0
 62
     4
 10
-124.561699
 20
-44.102859
 11
-122.561691
 21
-45.252865
  0
LINE
  8
0
 62
     4
 10
-124.561699
 20
-48.712856
 11
-122.561699
 21
-47.562855
  0
LINE
  8
0
 62
     4
 10
-126.561691
 20
-45.252853
 11
-124.561691
 21
-44.102856
  0
LINE
  8
0
 62
     4
 10
-122.561691
 20
-45.252857
 11
-122.561691
 21
-47.562855
  0
LINE
  8
0
 62
     4
 10
-126.561691
 20
-45.252857
 11
-126.561691
 21
-47.562855
  0
LINE
  8
0
 62
     4
 10
-118.561691
 20
-6.402863
 11
-118.561691
 21
-56.402855
  0
LINE
  8
0
  6
CENTER
 62
     1
 10
-128.061691
 20
-11.402863
 11
-121.061691
 21
-11.402863
  0
LINE
  8
0
 62
     4
 10
-130.561691
 20
-6.402863
 11
-118.561691
 21
-6.402863
  0
LINE
  8
0
 62
     4
 10
-130.561691
 20
-6.402863
 11
-130.561691
 21
-56.402855
  0
LINE
  8
0
 62
     4
 10
-130.561691
 20
-15.062866
 11
-118.561691
 21
-15.062866
  0
LINE
  8
0
 62
     4
 10
-130.561691
 20
-56.402855
 11
-118.561691
 21
-56.402855
  0
LINE
  8
0
  6
CENTER
 62
     4
 10
-131.550980
 20
-46.402863
 11
-117.356903
 21
-46.402863
  0
LINE
  8
0
  6
CENTER
 62
     1
 10
-124.561691
 20
-3.402863
 11
-124.561691
 21
-60.629677
  0
LINE
  8
0
  6
CENTER
 62
     2
 10
100.000000
 20
44.399994
 11
138.000000
 21
44.399994
  0
LINE
  8
0
  6
CENTER
 62
     2
 10
119.000000
 20
63.399994
 11
119.000000
 21
25.399994
  0
LINE
  8
0
  6
CENTER
 62
     2
 10
113.000000
 20
36.899994
 11
125.000000
 21
36.899994
  0
LINE
  8
0
  6
CENTER
 62
     2
 10
113.000000
 20
51.899994
 11
125.000000
 21
51.899994
  0
LINE
  8
0
  6
CENTER
 62
     2
 10
126.500000
 20
47.899994
 11
126.500000
 21
40.899994
  0
LINE
  8
0
  6
CENTER
 62
     2
 10
111.500000
 20
47.899994
 11
111.500000
 21
40.899994
  0
LINE
  8
0
  6
CENTER
 62
     2
 10
-156.999985
 20
44.399994
 11
-118.999985
 21
44.399994
  0
LINE
  8
0
  6
CENTER
 62
     2
 10
-137.999985
 20
63.399994
 11
-137.999985
 21
25.399994
  0
LINE
  8
0
  6
CENTER
 62
     2
 10
-149.999985
 20
52.399994
 11
-141.999985
 21
52.399994
  0
LINE
  8
0
  6
CENTER
 62
     2
 10
-133.999985
 20
52.399994
 11
-125.999985
 21
52.399994
  0
LINE
  8
0
  6
CENTER
 62
     2
 10
-133.999985
 20
36.399994
 11
-125.999985
 21
36.399994
  0
LINE
  8
0
  6
CENTER
 62
     2
 10
-149.999985
 20
36.399994
 11
-141.999985
 21
36.399994
  0
LINE
  8
0
  6
CENTER
 62
     2
 10
-145.999985
 20
40.399994
 11
-145.999985
 21
32.399994
  0
LINE
  8
0
  6
CENTER
 62
     2
 10
-145.999985
 20
56.399994
 11
-145.999985
 21
48.399994
  0
LINE
  8
0
  6
CENTER
 62
     2
 10
-129.999985
 20
56.399994
 11
-129.999985
 21
48.399994
  0
LINE
  8
0
  6
CENTER
 62
     2
 10
-129.999985
 20
40.399994
 11
-129.999985
 21
32.399994
  0
LINE
  8
0
 10
-141.999985
 20
47.399994
 11
-141.999985
 21
41.399994
  0
LINE
  8
0
 10
-133.999985
 20
47.399994
 11
-133.999985
 21
41.399994
  0
LINE
  8
0
  6
CENTER
 62
     2
 10
-87.319984
 20
44.399994
 11
65.360016
 21
44.399994
  0
LINE
  8
0
  6
CENTER
 62
     2
 10
-62.639984
 20
49.909992
 11
-62.639984
 21
39.189995
  0
LINE
  8
0
 62
     2
 10
-76.139984
 20
41.399994
 11
-81.139984
 21
47.399994
  0
LINE
  8
0
 62
     2
 10
-81.139977
 20
41.399994
 11
-76.139977
 21
47.399994
  0
LINE
  8
0
 10
-80.639984
 20
41.399994
 11
-80.639984
 21
39.399994
  0
LINE
  8
0
 10
-76.139984
 20
47.399994
 11
-76.139984
 21
41.399994
  0
LINE
  8
0
 10
-81.139984
 20
41.399994
 11
-76.139984
 21
41.399994
  0
LINE
  8
0
 10
-81.139984
 20
47.399994
 11
-76.139984
 21
47.399994
  0
LINE
  8
0
 10
-80.639984
 20
49.399994
 11
-80.639984
 21
47.399994
  0
LINE
  8
0
 10
-80.639984
 20
39.399990
 11
-81.139984
 21
39.899990
  0
LINE
  8
0
 10
-80.639984
 20
49.399990
 11
-81.139984
 21
48.899994
  0
LINE
  8
0
 10
-81.139984
 20
48.899994
 11
-81.139984
 21
39.899994
  0
LINE
  8
0
 10
-80.639984
 20
49.399994
 11
-68.639984
 21
49.399994
  0
LINE
  8
0
 10
-80.639984
 20
39.399994
 11
-68.639984
 21
39.399994
  0
LINE
  8
0
 10
53.360016
 20
58.799995
 11
62.360016
 21
58.799995
  0
LINE
  8
0
 10
51.760010
 20
58.799995
 11
52.560013
 21
58.799995
  0
LINE
  8
0
 10
52.560005
 20
58.799992
 11
53.360001
 21
57.999996
  0
LINE
  8
0
 10
50.960007
 20
58.799999
 11
51.760010
 21
57.999996
  0
LINE
  8
0
 10
53.360016
 20
29.999994
 11
62.360016
 21
29.999994
  0
LINE
  8
0
 10
51.760010
 20
29.999994
 11
52.560013
 21
29.999994
  0
LINE
  8
0
 10
52.560005
 20
29.999998
 11
53.360001
 21
30.799992
  0
LINE
  8
0
 10
50.960007
 20
29.999985
 11
51.760010
 21
30.799992
  0
LINE
  8
0
 10
-54.439987
 20
58.799995
 11
50.960007
 21
58.799995
  0
LINE
  8
0
 10
-56.039993
 20
58.799995
 11
-55.239990
 21
58.799995
  0
LINE
  8
0
 10
-56.039986
 20
58.799984
 11
-56.839981
 21
57.999989
  0
LINE
  8
0
 10
-54.439980
 20
58.799992
 11
-55.239986
 21
57.999985
  0
LINE
  8
0
 10
-54.439987
 20
29.999994
 11
50.960007
 21
29.999994
  0
LINE
  8
0
 10
-56.039993
 20
29.999994
 11
-55.239990
 21
29.999994
  0
LINE
  8
0
 10
-56.039989
 20
30.000000
 11
-56.839985
 21
30.799994
  0
LINE
  8
0
 10
-54.439983
 20
29.999996
 11
-55.239990
 21
30.799999
  0
LINE
  8
0
 10
-54.439987
 20
58.799995
 11
-54.439987
 21
29.999994
  0
LINE
  8
0
 10
-55.239990
 20
58.799995
 11
-55.239990
 21
29.999994
  0
LINE
  8
0
 10
-56.039993
 20
58.799995
 11
-56.039993
 21
29.999994
  0
LINE
  8
0
 10
-56.839996
 20
58.799995
 11
-56.839996
 21
29.999994
  0
LINE
  8
0
 10
50.960007
 20
58.799995
 11
50.960007
 21
29.999994
  0
LINE
  8
0
 10
51.760010
 20
58.799995
 11
51.760010
 21
29.999994
  0
LINE
  8
0
 10
52.560013
 20
58.799995
 11
52.560013
 21
29.999994
  0
LINE
  8
0
 10
53.360016
 20
58.799995
 11
53.360016
 21
29.999994
  0
LINE
  8
0
 10
-57.639984
 20
29.999994
 11
-56.839996
 21
29.999994
  0
LINE
  8
0
 10
-57.639984
 20
58.799995
 11
-56.839996
 21
58.799995
  0
LINE
  8
0
 10
-68.639984
 20
38.399994
 11
-67.639984
 21
38.399994
  0
LINE
  8
0
 10
-68.639984
 20
50.399994
 11
-67.639984
 21
50.399994
  0
LINE
  8
0
 10
-68.639984
 20
50.399994
 11
-68.639984
 21
38.399994
  0
LINE
  8
0
 10
-57.639984
 20
60.399994
 11
-57.639984
 21
28.399994
  0
LINE
  8
0
 10
-67.639984
 20
60.399994
 11
-57.639984
 21
60.399994
  0
LINE
  8
0
 10
-67.639984
 20
28.399994
 11
-57.639984
 21
28.399994
  0
LINE
  8
0
 10
62.360016
 20
58.799995
 11
62.360016
 21
29.999994
  0
LINE
  8
0
 10
-67.639984
 20
60.399994
 11
-67.639984
 21
28.399994
  0
LINE
  8
0
  6
PHANTOM
 62
     3
 10
-2.639984
 20
74.584991
 11
-2.639984
 21
20.431305
  0
LINE
  8
0
 10
-184.250000
 20
-111.500000
 11
-184.250000
 21
-123.500000
  0
LINE
  8
0
 10
-184.250000
 20
-117.500000
 11
-135.250000
 21
-117.500000
  0
LINE
  8
0
 10
-184.250000
 20
-111.500000
 11
-135.250000
 21
-111.500000
  0
LINE
  8
0
 10
-135.250000
 20
-111.500000
 11
-135.250000
 21
-123.500000
  0
LINE
  8
0
 10
-147.250000
 20
-111.500000
 11
-147.250000
 21
-123.500000
  0
LINE
  8
0
 10
-159.250000
 20
-111.500000
 11
-159.250000
 21
-123.500000
  0
LINE
  8
0
 10
-184.250000
 20
-123.500000
 11
-135.250000
 21
-123.500000
  0
LINE
  8
0
 10
-194.250000
 20
132.600006
 11
194.800003
 21
132.600006
  0
LINE
  8
0
 10
194.800003
 20
132.600006
 11
194.800003
 21
-133.500000
  0
LINE
  8
0
 10
-194.250000
 20
132.600006
 11
-194.250000
 21
-133.500000
  0
LINE
  8
0
 10
-194.250000
 20
-133.500000
 11
194.800003
 21
-133.500000
  0
LINE
  8
0
 10
109.800003
 20
-118.500000
 11
109.800003
 21
-133.500000
  0
LINE
  8
0
 10
109.800003
 20
-118.500000
 11
194.800003
 21
-118.500000
  0
LINE
  8
0
 10
109.800003
 20
132.600006
 11
109.800003
 21
117.600006
  0
LINE
  8
0
 10
109.800003
 20
117.600006
 11
194.800003
 21
117.600006
  0
LINE
  8
0
 10
-194.250000
 20
117.600006
 11
-109.250000
 21
117.600006
  0
LINE
  8
0
 10
-109.250000
 20
132.600006
 11
-109.250000
 21
117.600006
  0
CIRCLE
  8
0
 62
     4
 10
-124.561691
 20
-46.402863
 40
2.309401
  0
CIRCLE
  8
0
 62
     4
 10
-124.561691
 20
-46.402863
 40
3.730385
  0
CIRCLE
  8
0
 62
     4
 10
-124.561691
 20
-46.402863
 40
4.250000
  0
CIRCLE
  8
0
 62
     4
 10
-124.561691
 20
-11.402863
 40
2.066999
  0
CIRCLE
  8
0
 62
     1
 10
-124.561691
 20
-11.402863
 40
2.500000
  0
CIRCLE
  8
0
 62
     4
 10
-124.561691
 20
-46.402863
 40
4.750000
  0
CIRCLE
  8
0
 10
118.999969
 20
51.899994
 40
4.250000
  0
CIRCLE
  8
0
 10
118.999969
 20
36.899994
 40
4.250000
  0
CIRCLE
  8
0
 10
118.999969
 20
36.899994
 40
5.000000
  0
CIRCLE
  8
0
 62
     2
 10
118.999969
 20
36.899994
 40
5.000000
  0
CIRCLE
  8
0
 62
     2
 10
118.999969
 20
51.899994
 40
5.000000
  0
CIRCLE
  8
0
 10
111.499969
 20
44.399994
 40
1.650000
  0
CIRCLE
  8
0
 10
126.499969
 20
44.399994
 40
1.650000
  0
CIRCLE
  8
0
 62
     2
 10
126.499969
 20
44.399994
 40
2.000000
  0
CIRCLE
  8
0
 62
     2
 10
111.499969
 20
44.399994
 40
2.000000
  0
CIRCLE
  8
0
 10
118.999969
 20
44.399994
 40
14.400000
  0
CIRCLE
  8
0
 10
118.999969
 20
44.399994
 40
16.000000
  0
CIRCLE
  8
0
 10
-137.999985
 20
44.399994
 40
16.000000
  0
CIRCLE
  8
0
 62
     2
 10
-145.999985
 20
36.399994
 40
2.500000
  0
CIRCLE
  8
0
 62
     2
 10
-145.999985
 20
52.399994
 40
2.500000
  0
CIRCLE
  8
0
 62
     2
 10
-129.999985
 20
52.399994
 40
2.500000
  0
CIRCLE
  8
0
 62
     2
 10
-129.999985
 20
36.399994
 40
2.500000
  0
CIRCLE
  8
0
 10
-129.999985
 20
52.399994
 40
2.099999
  0
CIRCLE
  8
0
 10
-129.999985
 20
36.399994
 40
2.099999
  0
CIRCLE
  8
0
 10
-137.999985
 20
44.399994
 40
2.000000
  0
CIRCLE
  8
0
 62
     2
 10
-137.999985
 20
44.399994
 40
2.500000
  0
ARC
  8
0
 10
-137.999985
 20
44.399994
 40
5.000002
 50
216.869934
 51
323.130096
  0
ARC
  8
0
 10
-137.999985
 20
44.399994
 40
4.503878
 50
207.361603
 51
332.638428
  0
ARC
  8
0
 10
-137.999985
 20
44.399994
 40
4.499290
 50
27.248484
 51
152.751511
  0
ARC
  8
0
 10
-137.999985
 20
44.399994
 40
5.000000
 50
36.869896
 51
143.130066
  0
CIRCLE
  8
0
 10
-137.999985
 20
44.399994
 40
6.000000
  0
CIRCLE
  8
0
 10
-145.999985
 20
52.399994
 40
2.099999
  0
CIRCLE
  8
0
 10
-145.999985
 20
36.399994
 40
2.099999
  0
CIRCLE
  8
0
 10
-62.639984
 20
44.399994
 40
1.300000
  0
ARC
  8
0
 10
-84.889984
 20
44.399994
 40
9.250000
 50
341.075348
 51
18.924644
  0
TEXT
  8
0
 10
-49.180252
 20
33.483143
 40
3.200000
  1
RHDA25
 50
0.000000
 41
1.052632
 51
0.000000
  7
STANDARD
  0
TEXT
  8
0
 10
-183.156998
 20
-122.379997
 40
3.200000
  1
STRETCH
 50
0.000000
 41
1.052632
 51
0.000000
  7
STANDARD
  0
TEXT
  8
0
 10
-146.557404
 20
-108.307091
 40
3.200000
  1
（ｍｍ）
 50
0.000000
 41
0.833333
 51
0.000000
  7
STANDARD
  0
TEXT
  8
0
 10
-155.051483
 20
-122.386375
 40
3.200000
  1
0
 50
0.000000
 41
1.052632
 51
0.000000
  7
STANDARD
  0
TEXT
  8
0
 10
-144.651474
 20
-122.386375
 40
3.200000
  1
20
 50
0.000000
 41
1.052632
 51
0.000000
  7
STANDARD
  0
TEXT
  8
0
 10
-156.651474
 20
-116.376366
 40
3.200000
  1
30
 50
0.000000
 41
1.052632
 51
0.000000
  7
STANDARD
  0
TEXT
  8
0
 10
-144.651474
 20
-116.376366
 40
3.200000
  1
50
 50
0.000000
 41
1.052632
 51
0.000000
  7
STANDARD
  0
TEXT
  8
0
 10
-185.101776
 20
-108.750191
 40
3.200000
  1
STRETCH LIST
 50
0.000000
 41
1.052632
 51
0.000000
  7
STANDARD
  0
TEXT
  8
0
 10
-180.551483
 20
-116.376381
 40
3.200000
  1
STROKE
 50
0.000000
 41
1.052632
 51
0.000000
  7
STANDARD
  0
TEXT
  8
0
 62
     3
 10
-19.095392
 20
80.047890
 40
3.200000
  1
STRETCH LINE
 50
0.000000
 41
1.052632
 51
0.000000
  7
STANDARD
  0
TEXT
  8
0
 10
-186.892654
 20
104.550003
 40
4.500000
  1
MODEL:RHDA25*ST(30)
 50
0.000000
 41
1.052632
 51
0.000000
  7
STANDARD
  0
TEXT
  8
0
 10
133.907150
 20
122.050003
 40
4.500000
  1
Ｖｅｒ．　１．０
 50
0.000000
 41
0.833333
 51
0.000000
  7
STANDARD
  0
TEXT
  8
0
 10
113.700302
 20
-130.669998
 40
6.299999
  1
KOGANEI CORP.
 50
0.000000
 41
1.052631
 51
0.000000
  7
STANDARD
  0
TEXT
  8
0
 10
-183.642654
 20
122.050003
 40
4.500000
  1
TWIST CYLINDER
 50
0.000000
 41
1.052632
 51
0.000000
  7
STANDARD
  0
ENDSEC
  0
EOF
