  0
SECTION
  2
HEADER
  9
$ACADVER
  1
AC1009
  9
$DWGCODEPAGE
  3
dos932
  9
$INSBASE
 10
0.0
 20
0.0
 30
0.0
  9
$EXTMIN
 10
-138.3999939
 20
-94.80000305
 30
0.0
  9
$EXTMAX
 10
138.3500061
 20
94.5
 30
0.0
  9
$LIMMIN
 10
-138.3999939
 20
-94.80000305
  9
$LIMMAX
 10
138.3500061
 20
94.5
  9
$ORTHOMODE
 70
       0
  9
$REGENMODE
 70
       1
  9
$FILLMODE
 70
       1
  9
$QTEXTMODE
 70
       0
  9
$MIRRTEXT
 70
       1
  9
$DRAGMODE
 70
       2
  9
$LTSCALE
 40
1.0
  9
$OSMODE
 70
       0
  9
$ATTMODE
 70
       1
  9
$TEXTSIZE
 40
3.20000005
  9
$TRACEWID
 40
0.05
  9
$TEXTSTYLE
  7
MX_NOTE_STANDARD
  9
$CLAYER
  8
0
  9
$CELTYPE
  6
CONTINUOUS
  9
$CECOLOR
 62
     256
  9
$DIMSCALE
 40
1.0
  9
$DIMASZ
 40
2.5
  9
$DIMEXO
 40
1.5
  9
$DIMDLI
 40
3.75
  9
$DIMRND
 40
0.0
  9
$DIMDLE
 40
0.0
  9
$DIMEXE
 40
1.5
  9
$DIMTP
 40
0.0
  9
$DIMTM
 40
0.0
  9
$DIMTXT
 40
3.20000005
  9
$DIMCEN
 40
2.5
  9
$DIMTSZ
 40
0.0
  9
$DIMTOL
 70
       0
  9
$DIMLIM
 70
       0
  9
$DIMTIH
 70
       0
  9
$DIMTOH
 70
       0
  9
$DIMSE1
 70
       0
  9
$DIMSE2
 70
       0
  9
$DIMTAD
 70
       1
  9
$DIMZIN
 70
       8
  9
$DIMBLK
  1

  9
$DIMASO
 70
       1
  9
$DIMSHO
 70
       1
  9
$DIMPOST
  1

  9
$DIMAPOST
  1

  9
$DIMALT
 70
       0
  9
$DIMALTD
 70
       4
  9
$DIMALTF
 40
0.03937008
  9
$DIMLFAC
 40
1.0
  9
$DIMTOFL
 70
       1
  9
$DIMTVP
 40
0.0
  9
$DIMTIX
 70
       0
  9
$DIMSOXD
 70
       0
  9
$DIMSAH
 70
       0
  9
$DIMBLK1
  1

  9
$DIMBLK2
  1

  9
$DIMSTYLE
  2
MXDIMSTYLE
  9
$DIMCLRD
 70
       0
  9
$DIMCLRE
 70
       0
  9
$DIMCLRT
 70
       0
  9
$DIMTFAC
 40
1.0
  9
$DIMGAP
 40
1.0
  9
$LUNITS
 70
       2
  9
$LUPREC
 70
       4
  9
$AXISMODE
 70
       0
  9
$AXISUNIT
 10
0.0
 20
0.0
  9
$SKETCHINC
 40
0.1
  9
$FILLETRAD
 40
0.0
  9
$AUNITS
 70
       0
  9
$AUPREC
 70
       0
  9
$MENU
  1
acad
  9
$ELEVATION
 40
0.0
  9
$PELEVATION
 40
0.0
  9
$THICKNESS
 40
0.0
  9
$LIMCHECK
 70
       0
  9
$BLIPMODE
 70
       1
  9
$CHAMFERA
 40
0.0
  9
$CHAMFERB
 40
0.0
  9
$SKPOLY
 70
       0
  9
$TDCREATE
 40
2453287.407719907
  9
$TDUPDATE
 40
2453287.407719907
  9
$TDINDWG
 40
0.0000000000
  9
$TDUSRTIMER
 40
0.0000000000
  9
$USRTIMER
 70
       1
  9
$ANGBASE
 50
0.0
  9
$ANGDIR
 70
       0
  9
$PDMODE
 70
       0
  9
$PDSIZE
 40
0.0
  9
$PLINEWID
 40
0.0
  9
$COORDS
 70
       1
  9
$SPLFRAME
 70
       0
  9
$SPLINETYPE
 70
       6
  9
$SPLINESEGS
 70
       8
  9
$ATTDIA
 70
       0
  9
$ATTREQ
 70
       1
  9
$HANDLING
 70
       1
  9
$HANDSEED
  5
3ED
  9
$SURFTAB1
 70
       6
  9
$SURFTAB2
 70
       6
  9
$SURFTYPE
 70
       6
  9
$SURFU
 70
       6
  9
$SURFV
 70
       6
  9
$UCSNAME
  2

  9
$UCSORG
 10
0.0
 20
0.0
 30
0.0
  9
$UCSXDIR
 10
1.0
 20
0.0
 30
0.0
  9
$UCSYDIR
 10
0.0
 20
1.0
 30
0.0
  9
$PUCSNAME
  2

  9
$PUCSORG
 10
0.0
 20
0.0
 30
0.0
  9
$PUCSXDIR
 10
1.0
 20
0.0
 30
0.0
  9
$PUCSYDIR
 10
0.0
 20
1.0
 30
0.0
  9
$USERI1
 70
       0
  9
$USERI2
 70
       0
  9
$USERI3
 70
       0
  9
$USERI4
 70
       0
  9
$USERI5
 70
       0
  9
$USERR1
 40
0.0
  9
$USERR2
 40
0.0
  9
$USERR3
 40
0.0
  9
$USERR4
 40
0.0
  9
$USERR5
 40
0.0
  9
$WORLDVIEW
 70
       1
  9
$SHADEDGE
 70
       3
  9
$SHADEDIF
 70
      70
  9
$TILEMODE
 70
       1
  9
$MAXACTVP
 70
      16
  9
$PINSBASE
 10
0.0
 20
0.0
 30
0.0
  9
$PLIMCHECK
 70
       0
  9
$PEXTMIN
 10
1.00000000E+20
 20
1.00000000E+20
 30
1.00000000E+20
  9
$PEXTMAX
 10
-1.00000000E+20
 20
-1.00000000E+20
 30
-1.00000000E+20
  9
$PLIMMIN
 10
0.0
 20
0.0
  9
$PLIMMAX
 10
12.0
 20
9.0
  9
$UNITMODE
 70
       0
  9
$VISRETAIN
 70
       0
  9
$PLINEGEN
 70
       1
  9
$PSLTSCALE
 70
       0
  9
$TREEDEPTH
 70
    3020
  9
$DWGCODEPAGE
  3
dos932
  0
ENDSEC
  0
SECTION
  2
TABLES
  0
TABLE
  2
VPORT
 70
       1
  0
VPORT
  2
*ACTIVE
 70
       0
 10
0.0
 20
0.0
 11
1.0
 21
1.0
 12
-0.0249939
 22
-0.15000153
 13
0.0
 23
0.0
 14
1.0
 24
1.0
 15
0.0
 25
0.0
 16
0.0
 26
0.0
 36
1.0
 17
0.0
 27
0.0
 37
0.0
 40
191.19300308
 41
1.73205081
 42
50.0
 43
0.0
 44
0.0
 50
0.0
 51
0.0
 71
       0
 72
     100
 73
       1
 74
       1
 75
       0
 76
       0
 77
       0
 78
       0
  0
ENDTAB
  0
TABLE
  2
LTYPE
 70
       2
  0
LTYPE
  2
CONTINUOUS
 70
      64
  3
Solid line
 72
      65
 73
       0
 40
0.0
  0
LTYPE
  2
DASHED
 70
      64
  3
Dashed __ __ __ __ __ __ __ __ __ __ __ __ __ _
 72
      65
 73
       2
 40
4.0
 49
2.0
 49
-2.0
  0
ENDTAB
  0
TABLE
  2
LAYER
 70
       2
  0
LAYER
  2
0
 70
       0
 62
       7
  6
CONTINUOUS
  0
LAYER
  2
DEFPOINTS
 70
       0
 62
       7
  6
CONTINUOUS
  0
ENDTAB
  0
TABLE
  2
STYLE
 70
       1
  0
STYLE
  2
MX_NOTE_STANDARD
 70
       0
 40
0.0
 41
1.0
 50
0.0
 71
       0
 42
3.20000005
  3
txt.shx
  4
extfont.shx
  0
ENDTAB
  0
TABLE
  2
VIEW
 70
       0
  0
ENDTAB
  0
TABLE
  2
UCS
 70
       0
  0
ENDTAB
  0
TABLE
  2
APPID
 70
       1
  0
APPID
  2
ACAD
 70
       0
  0
ENDTAB
  0
TABLE
  2
DIMSTYLE
 70
       1
  0
DIMSTYLE
  2
MXDIMSTYLE
 70
       0
  3

  4

  5

  6

  7

 40
1.0
 41
2.5
 42
1.5
 43
3.75
 44
1.5
 45
0.0
 46
0.0
 47
0.0
 48
0.0
 71
       0
 72
       0
 73
       0
 74
       0
 75
       0
 76
       0
 77
       1
 78
       8
140
3.20000005
141
2.5
142
0.0
143
0.03937008
144
1.0
145
0.0
146
1.0
147
1.0
170
       0
171
       4
172
       1
173
       0
174
       0
175
       0
176
       0
177
       0
178
       0
  0
ENDTAB
  0
ENDSEC
  0
SECTION
  2
BLOCKS
  0
ENDSEC
  0
SECTION
  2
ENTITIES
  0
LINE
  8
0
  6
CONTINUOUS
 62
       7
  5
1E
 10
10.57403048
 20
-7.8500015
 30
0.0
 11
10.57403048
 21
17.54999845
 31
0.0
  0
LINE
  8
0
  6
CONTINUOUS
 62
       7
  5
1F
 10
11.61825906
 20
20.43845447
 30
0.0
 11
43.5298019
 21
20.43845447
 31
0.0
  0
LINE
  8
0
  6
CONTINUOUS
 62
       7
  5
20
 10
11.61825906
 20
12.64422585
 30
0.0
 11
43.5298019
 21
12.64422585
 31
0.0
  0
LINE
  8
0
  6
CONTINUOUS
 62
       7
  5
21
 10
11.61825906
 20
-2.94422891
 30
0.0
 11
43.5298019
 21
-2.94422891
 31
0.0
  0
LINE
  8
0
  6
CONTINUOUS
 62
       7
  5
22
 10
11.61825906
 20
-10.73845752
 30
0.0
 11
43.5298019
 21
-10.73845752
 31
0.0
  0
LINE
  8
0
  6
CONTINUOUS
 62
       7
  5
23
 10
10.57403047
 20
16.54134031
 30
0.0
 11
11.61825905
 21
20.43845444
 31
0.0
  0
ARC
  8
0
  6
CONTINUOUS
 62
       7
  5
24
 10
18.36825944
 20
16.54134017
 30
0.0
 40
7.79422896
 50
180.0
 51
209.99999859
  0
ARC
  8
0
  6
CONTINUOUS
 62
       7
  5
25
 10
18.36825944
 20
-6.84134322
 30
0.0
 40
7.79422896
 50
150.00000141
 51
180.0
  0
LINE
  8
0
  6
CONTINUOUS
 62
       7
  5
26
 10
10.57403047
 20
-6.84134336
 30
0.0
 11
11.61825905
 21
-10.73845749
 31
0.0
  0
LINE
  8
0
  6
CONTINUOUS
 62
       7
  5
27
 10
44.57403048
 20
-6.85288738
 30
0.0
 11
44.57403048
 21
16.55288435
 31
0.0
  0
LINE
  8
0
  6
CONTINUOUS
 62
       7
  5
28
 10
44.57403048
 20
16.54134031
 30
0.0
 11
43.52980191
 21
20.43845444
 31
0.0
  0
ARC
  8
0
  6
CONTINUOUS
 62
       7
  5
29
 10
36.77980152
 20
16.54134017
 30
0.0
 40
7.79422896
 50
330.00000141
 51
0.0
  0
ARC
  8
0
  6
CONTINUOUS
 62
       7
  5
2A
 10
36.77980152
 20
-6.84134322
 30
0.0
 40
7.79422896
 50
0.0
 51
29.99999859
  0
LINE
  8
0
  6
CONTINUOUS
 62
       7
  5
2B
 10
44.57403048
 20
-6.84134336
 30
0.0
 11
43.52980191
 21
-10.73845749
 31
0.0
  0
LINE
  8
0
  6
CONTINUOUS
 62
       7
  5
2C
 10
8.05244484
 20
17.54999845
 30
0.0
 11
10.57403048
 21
17.54999845
 31
0.0
  0
LINE
  8
0
  6
CONTINUOUS
 62
       7
  5
2D
 10
8.05244484
 20
-7.8500015
 30
0.0
 11
10.57403048
 21
-7.8500015
 31
0.0
  0
LINE
  8
0
  6
CONTINUOUS
 62
       7
  5
2E
 10
7.57403048
 20
-6.06453477
 30
0.0
 11
7.57403048
 21
14.37457199
 31
0.0
  0
LINE
  8
0
  6
CONTINUOUS
 62
       7
  5
2F
 10
8.44674353
 20
11.19914554
 30
0.0
 11
10.57403048
 21
11.19914554
 31
0.0
  0
LINE
  8
0
  6
CONTINUOUS
 62
       7
  5
30
 10
8.44674353
 20
-1.49914859
 30
0.0
 11
10.57403048
 21
-1.49914859
 31
0.0
  0
LINE
  8
0
  6
CONTINUOUS
 62
       7
  5
31
 10
47.57403048
 20
-4.65000153
 30
0.0
 11
47.57403048
 21
14.34999847
 31
0.0
  0
LINE
  8
0
  6
CONTINUOUS
 62
       7
  5
32
 10
45.77403048
 20
14.84999847
 30
0.0
 11
47.07403048
 21
14.84999847
 31
0.0
  0
LINE
  8
0
  6
CONTINUOUS
 62
       7
  5
33
 10
45.77403048
 20
-5.15000153
 30
0.0
 11
47.07403048
 21
-5.15000153
 31
0.0
  0
LINE
  8
0
  6
CONTINUOUS
 62
       7
  5
34
 10
47.07403048
 20
14.84999847
 30
0.0
 11
47.57403048
 21
14.34999847
 31
0.0
  0
LINE
  8
0
  6
CONTINUOUS
 62
       7
  5
35
 10
47.57403048
 20
-4.65000153
 30
0.0
 11
47.07403048
 21
-5.15000153
 31
0.0
  0
LINE
  8
0
  6
CONTINUOUS
 62
       7
  5
36
 10
47.07403048
 20
14.84999847
 30
0.0
 11
47.07403048
 21
-5.15000153
 31
0.0
  0
LINE
  8
0
  6
CONTINUOUS
 62
       2
  5
37
 10
32.57403048
 20
-10.02388817
 30
0.0
 11
32.57403048
 21
19.86360766
 31
0.0
  0
LINE
  8
0
  6
CONTINUOUS
 62
       2
  5
38
 10
22.57403048
 20
-10.02388817
 30
0.0
 11
22.57403048
 21
19.86360766
 31
0.0
  0
CIRCLE
  8
0
  6
CONTINUOUS
 62
       7
  5
39
 10
32.57403048
 20
4.84999847
 30
0.0
 40
4.2
  0
CIRCLE
  8
0
  6
CONTINUOUS
 62
       7
  5
3A
 10
22.57403048
 20
4.84999847
 30
0.0
 40
4.2
  0
CIRCLE
  8
0
  6
CONTINUOUS
 62
       2
  5
3B
 10
32.57403048
 20
4.84999847
 30
0.0
 40
2.5
  0
CIRCLE
  8
0
  6
CONTINUOUS
 62
       2
  5
3C
 10
22.57403048
 20
4.84999847
 30
0.0
 40
2.5
  0
LINE
  8
0
  6
CONTINUOUS
 62
       2
  5
3D
 10
16.64426434
 20
16.54134035
 30
0.0
 11
38.57317254
 21
16.54134035
 31
0.0
  0
POLYLINE
  8
0
  6
CONTINUOUS
 62
       7
  5
3E
 66
       1
 10
0.0
 20
0.0
 30
0.0
 70
       1
  0
VERTEX
  8
0
  6
CONTINUOUS
 62
       7
  5
74
 10
28.37403048
 20
16.54134035
 30
0.0
  0
VERTEX
  8
0
  6
CONTINUOUS
 62
       7
  5
75
 10
28.39001275
 20
16.323451
 30
0.0
  0
VERTEX
  8
0
  6
CONTINUOUS
 62
       7
  5
76
 10
28.43783791
 20
16.10721991
 30
0.0
  0
VERTEX
  8
0
  6
CONTINUOUS
 62
       7
  5
77
 10
28.51714201
 20
15.89429274
 30
0.0
  0
VERTEX
  8
0
  6
CONTINUOUS
 62
       7
  5
78
 10
28.62732147
 20
15.68629
 30
0.0
  0
VERTEX
  8
0
  6
CONTINUOUS
 62
       7
  5
79
 10
28.76753777
 20
15.4847947
 30
0.0
  0
VERTEX
  8
0
  6
CONTINUOUS
 62
       7
  5
7A
 10
28.93672378
 20
15.29134035
 30
0.0
  0
VERTEX
  8
0
  6
CONTINUOUS
 62
       7
  5
7B
 10
29.13359189
 20
15.10739926
 30
0.0
  0
VERTEX
  8
0
  6
CONTINUOUS
 62
       7
  5
7C
 10
29.35664382
 20
14.93437133
 30
0.0
  0
VERTEX
  8
0
  6
CONTINUOUS
 62
       7
  5
7D
 10
29.604182
 20
14.7735734
 30
0.0
  0
VERTEX
  8
0
  6
CONTINUOUS
 62
       7
  5
7E
 10
29.87432252
 20
14.62622925
 30
0.0
  0
VERTEX
  8
0
  6
CONTINUOUS
 62
       7
  5
7F
 10
30.16500944
 20
14.49346024
 30
0.0
  0
VERTEX
  8
0
  6
CONTINUOUS
 62
       7
  5
80
 10
30.47403048
 20
14.37627685
 30
0.0
  0
VERTEX
  8
0
  6
CONTINUOUS
 62
       7
  5
81
 10
30.79903378
 20
14.27557089
 30
0.0
  0
VERTEX
  8
0
  6
CONTINUOUS
 62
       7
  5
82
 10
31.13754588
 20
14.1921088
 30
0.0
  0
VERTEX
  8
0
  6
CONTINUOUS
 62
       7
  5
83
 10
31.48699049
 20
14.12652579
 30
0.0
  0
VERTEX
  8
0
  6
CONTINUOUS
 62
       7
  5
84
 10
31.84470813
 20
14.07932097
 30
0.0
  0
VERTEX
  8
0
  6
CONTINUOUS
 62
       7
  5
85
 10
32.20797636
 20
14.05085361
 30
0.0
  0
VERTEX
  8
0
  6
CONTINUOUS
 62
       7
  5
86
 10
32.57403048
 20
14.04134035
 30
0.0
  0
VERTEX
  8
0
  6
CONTINUOUS
 62
       7
  5
87
 10
32.9400846
 20
14.05085361
 30
0.0
  0
VERTEX
  8
0
  6
CONTINUOUS
 62
       7
  5
88
 10
33.30335282
 20
14.07932097
 30
0.0
  0
VERTEX
  8
0
  6
CONTINUOUS
 62
       7
  5
89
 10
33.66107047
 20
14.12652579
 30
0.0
  0
VERTEX
  8
0
  6
CONTINUOUS
 62
       7
  5
8A
 10
34.01051508
 20
14.1921088
 30
0.0
  0
VERTEX
  8
0
  6
CONTINUOUS
 62
       7
  5
8B
 10
34.34902718
 20
14.27557089
 30
0.0
  0
VERTEX
  8
0
  6
CONTINUOUS
 62
       7
  5
8C
 10
34.67403048
 20
14.37627685
 30
0.0
  0
VERTEX
  8
0
  6
CONTINUOUS
 62
       7
  5
8D
 10
34.98305151
 20
14.49346024
 30
0.0
  0
VERTEX
  8
0
  6
CONTINUOUS
 62
       7
  5
8E
 10
35.27373844
 20
14.62622925
 30
0.0
  0
VERTEX
  8
0
  6
CONTINUOUS
 62
       7
  5
8F
 10
35.54387896
 20
14.7735734
 30
0.0
  0
VERTEX
  8
0
  6
CONTINUOUS
 62
       7
  5
90
 10
35.79141714
 20
14.93437133
 30
0.0
  0
VERTEX
  8
0
  6
CONTINUOUS
 62
       7
  5
91
 10
36.01446906
 20
15.10739926
 30
0.0
  0
VERTEX
  8
0
  6
CONTINUOUS
 62
       7
  5
92
 10
36.21133717
 20
15.29134035
 30
0.0
  0
VERTEX
  8
0
  6
CONTINUOUS
 62
       7
  5
93
 10
36.38052318
 20
15.4847947
 30
0.0
  0
VERTEX
  8
0
  6
CONTINUOUS
 62
       7
  5
94
 10
36.52073948
 20
15.68629
 30
0.0
  0
VERTEX
  8
0
  6
CONTINUOUS
 62
       7
  5
95
 10
36.63091895
 20
15.89429274
 30
0.0
  0
VERTEX
  8
0
  6
CONTINUOUS
 62
       7
  5
96
 10
36.71022304
 20
16.10721991
 30
0.0
  0
VERTEX
  8
0
  6
CONTINUOUS
 62
       7
  5
97
 10
36.75804821
 20
16.323451
 30
0.0
  0
VERTEX
  8
0
  6
CONTINUOUS
 62
       7
  5
98
 10
36.77403048
 20
16.54134035
 30
0.0
  0
VERTEX
  8
0
  6
CONTINUOUS
 62
       7
  5
99
 10
36.75804821
 20
16.75922971
 30
0.0
  0
VERTEX
  8
0
  6
CONTINUOUS
 62
       7
  5
9A
 10
36.71022304
 20
16.9754608
 30
0.0
  0
VERTEX
  8
0
  6
CONTINUOUS
 62
       7
  5
9B
 10
36.63091895
 20
17.18838797
 30
0.0
  0
VERTEX
  8
0
  6
CONTINUOUS
 62
       7
  5
9C
 10
36.52073948
 20
17.39639071
 30
0.0
  0
VERTEX
  8
0
  6
CONTINUOUS
 62
       7
  5
9D
 10
36.38052318
 20
17.59788601
 30
0.0
  0
VERTEX
  8
0
  6
CONTINUOUS
 62
       7
  5
9E
 10
36.21133717
 20
17.79134035
 30
0.0
  0
VERTEX
  8
0
  6
CONTINUOUS
 62
       7
  5
9F
 10
36.01446906
 20
17.97528145
 30
0.0
  0
VERTEX
  8
0
  6
CONTINUOUS
 62
       7
  5
A0
 10
35.79141714
 20
18.14830938
 30
0.0
  0
VERTEX
  8
0
  6
CONTINUOUS
 62
       7
  5
A1
 10
35.54387896
 20
18.30910731
 30
0.0
  0
VERTEX
  8
0
  6
CONTINUOUS
 62
       7
  5
A2
 10
35.27373844
 20
18.45645146
 30
0.0
  0
VERTEX
  8
0
  6
CONTINUOUS
 62
       7
  5
A3
 10
34.98305151
 20
18.58922047
 30
0.0
  0
VERTEX
  8
0
  6
CONTINUOUS
 62
       7
  5
A4
 10
34.67403048
 20
18.70640386
 30
0.0
  0
VERTEX
  8
0
  6
CONTINUOUS
 62
       7
  5
A5
 10
34.34902718
 20
18.80710982
 30
0.0
  0
VERTEX
  8
0
  6
CONTINUOUS
 62
       7
  5
A6
 10
34.01051508
 20
18.89057191
 30
0.0
  0
VERTEX
  8
0
  6
CONTINUOUS
 62
       7
  5
A7
 10
33.66107047
 20
18.95615492
 30
0.0
  0
VERTEX
  8
0
  6
CONTINUOUS
 62
       7
  5
A8
 10
33.30335282
 20
19.00335974
 30
0.0
  0
VERTEX
  8
0
  6
CONTINUOUS
 62
       7
  5
A9
 10
32.9400846
 20
19.0318271
 30
0.0
  0
VERTEX
  8
0
  6
CONTINUOUS
 62
       7
  5
AA
 10
32.57403048
 20
19.04134035
 30
0.0
  0
VERTEX
  8
0
  6
CONTINUOUS
 62
       7
  5
AB
 10
32.20797636
 20
19.0318271
 30
0.0
  0
VERTEX
  8
0
  6
CONTINUOUS
 62
       7
  5
AC
 10
31.84470813
 20
19.00335974
 30
0.0
  0
VERTEX
  8
0
  6
CONTINUOUS
 62
       7
  5
AD
 10
31.48699049
 20
18.95615492
 30
0.0
  0
VERTEX
  8
0
  6
CONTINUOUS
 62
       7
  5
AE
 10
31.13754588
 20
18.89057191
 30
0.0
  0
VERTEX
  8
0
  6
CONTINUOUS
 62
       7
  5
AF
 10
30.79903378
 20
18.80710982
 30
0.0
  0
VERTEX
  8
0
  6
CONTINUOUS
 62
       7
  5
B0
 10
30.47403048
 20
18.70640386
 30
0.0
  0
VERTEX
  8
0
  6
CONTINUOUS
 62
       7
  5
B1
 10
30.16500944
 20
18.58922047
 30
0.0
  0
VERTEX
  8
0
  6
CONTINUOUS
 62
       7
  5
B2
 10
29.87432252
 20
18.45645146
 30
0.0
  0
VERTEX
  8
0
  6
CONTINUOUS
 62
       7
  5
B3
 10
29.604182
 20
18.30910731
 30
0.0
  0
VERTEX
  8
0
  6
CONTINUOUS
 62
       7
  5
B4
 10
29.35664382
 20
18.14830938
 30
0.0
  0
VERTEX
  8
0
  6
CONTINUOUS
 62
       7
  5
B5
 10
29.13359189
 20
17.97528145
 30
0.0
  0
VERTEX
  8
0
  6
CONTINUOUS
 62
       7
  5
B6
 10
28.93672378
 20
17.79134035
 30
0.0
  0
VERTEX
  8
0
  6
CONTINUOUS
 62
       7
  5
B7
 10
28.76753777
 20
17.59788601
 30
0.0
  0
VERTEX
  8
0
  6
CONTINUOUS
 62
       7
  5
B8
 10
28.62732147
 20
17.39639071
 30
0.0
  0
VERTEX
  8
0
  6
CONTINUOUS
 62
       7
  5
B9
 10
28.51714201
 20
17.18838797
 30
0.0
  0
VERTEX
  8
0
  6
CONTINUOUS
 62
       7
  5
BA
 10
28.43783791
 20
16.9754608
 30
0.0
  0
VERTEX
  8
0
  6
CONTINUOUS
 62
       7
  5
BB
 10
28.39001275
 20
16.75922971
 30
0.0
  0
VERTEX
  8
0
  6
CONTINUOUS
 62
       7
  5
BC
 10
28.37403048
 20
16.54134035
 30
0.0
  0
SEQEND
  8
0
  6
CONTINUOUS
 62
       7
  5
BD
  0
POLYLINE
  8
0
  6
CONTINUOUS
 62
       7
  5
3F
 66
       1
 10
0.0
 20
0.0
 30
0.0
 70
       1
  0
VERTEX
  8
0
  6
CONTINUOUS
 62
       7
  5
BE
 10
18.37403048
 20
16.54134035
 30
0.0
  0
VERTEX
  8
0
  6
CONTINUOUS
 62
       7
  5
BF
 10
18.39001275
 20
16.323451
 30
0.0
  0
VERTEX
  8
0
  6
CONTINUOUS
 62
       7
  5
C0
 10
18.43783791
 20
16.10721991
 30
0.0
  0
VERTEX
  8
0
  6
CONTINUOUS
 62
       7
  5
C1
 10
18.51714201
 20
15.89429274
 30
0.0
  0
VERTEX
  8
0
  6
CONTINUOUS
 62
       7
  5
C2
 10
18.62732147
 20
15.68629
 30
0.0
  0
VERTEX
  8
0
  6
CONTINUOUS
 62
       7
  5
C3
 10
18.76753777
 20
15.4847947
 30
0.0
  0
VERTEX
  8
0
  6
CONTINUOUS
 62
       7
  5
C4
 10
18.93672378
 20
15.29134035
 30
0.0
  0
VERTEX
  8
0
  6
CONTINUOUS
 62
       7
  5
C5
 10
19.13359189
 20
15.10739926
 30
0.0
  0
VERTEX
  8
0
  6
CONTINUOUS
 62
       7
  5
C6
 10
19.35664382
 20
14.93437133
 30
0.0
  0
VERTEX
  8
0
  6
CONTINUOUS
 62
       7
  5
C7
 10
19.604182
 20
14.7735734
 30
0.0
  0
VERTEX
  8
0
  6
CONTINUOUS
 62
       7
  5
C8
 10
19.87432252
 20
14.62622925
 30
0.0
  0
VERTEX
  8
0
  6
CONTINUOUS
 62
       7
  5
C9
 10
20.16500944
 20
14.49346024
 30
0.0
  0
VERTEX
  8
0
  6
CONTINUOUS
 62
       7
  5
CA
 10
20.47403048
 20
14.37627685
 30
0.0
  0
VERTEX
  8
0
  6
CONTINUOUS
 62
       7
  5
CB
 10
20.79903378
 20
14.27557089
 30
0.0
  0
VERTEX
  8
0
  6
CONTINUOUS
 62
       7
  5
CC
 10
21.13754588
 20
14.1921088
 30
0.0
  0
VERTEX
  8
0
  6
CONTINUOUS
 62
       7
  5
CD
 10
21.48699049
 20
14.12652579
 30
0.0
  0
VERTEX
  8
0
  6
CONTINUOUS
 62
       7
  5
CE
 10
21.84470813
 20
14.07932097
 30
0.0
  0
VERTEX
  8
0
  6
CONTINUOUS
 62
       7
  5
CF
 10
22.20797636
 20
14.05085361
 30
0.0
  0
VERTEX
  8
0
  6
CONTINUOUS
 62
       7
  5
D0
 10
22.57403048
 20
14.04134035
 30
0.0
  0
VERTEX
  8
0
  6
CONTINUOUS
 62
       7
  5
D1
 10
22.9400846
 20
14.05085361
 30
0.0
  0
VERTEX
  8
0
  6
CONTINUOUS
 62
       7
  5
D2
 10
23.30335282
 20
14.07932097
 30
0.0
  0
VERTEX
  8
0
  6
CONTINUOUS
 62
       7
  5
D3
 10
23.66107047
 20
14.12652579
 30
0.0
  0
VERTEX
  8
0
  6
CONTINUOUS
 62
       7
  5
D4
 10
24.01051508
 20
14.1921088
 30
0.0
  0
VERTEX
  8
0
  6
CONTINUOUS
 62
       7
  5
D5
 10
24.34902718
 20
14.27557089
 30
0.0
  0
VERTEX
  8
0
  6
CONTINUOUS
 62
       7
  5
D6
 10
24.67403048
 20
14.37627685
 30
0.0
  0
VERTEX
  8
0
  6
CONTINUOUS
 62
       7
  5
D7
 10
24.98305151
 20
14.49346024
 30
0.0
  0
VERTEX
  8
0
  6
CONTINUOUS
 62
       7
  5
D8
 10
25.27373844
 20
14.62622925
 30
0.0
  0
VERTEX
  8
0
  6
CONTINUOUS
 62
       7
  5
D9
 10
25.54387896
 20
14.7735734
 30
0.0
  0
VERTEX
  8
0
  6
CONTINUOUS
 62
       7
  5
DA
 10
25.79141714
 20
14.93437133
 30
0.0
  0
VERTEX
  8
0
  6
CONTINUOUS
 62
       7
  5
DB
 10
26.01446906
 20
15.10739926
 30
0.0
  0
VERTEX
  8
0
  6
CONTINUOUS
 62
       7
  5
DC
 10
26.21133717
 20
15.29134035
 30
0.0
  0
VERTEX
  8
0
  6
CONTINUOUS
 62
       7
  5
DD
 10
26.38052318
 20
15.4847947
 30
0.0
  0
VERTEX
  8
0
  6
CONTINUOUS
 62
       7
  5
DE
 10
26.52073948
 20
15.68629
 30
0.0
  0
VERTEX
  8
0
  6
CONTINUOUS
 62
       7
  5
DF
 10
26.63091895
 20
15.89429274
 30
0.0
  0
VERTEX
  8
0
  6
CONTINUOUS
 62
       7
  5
E0
 10
26.71022304
 20
16.10721991
 30
0.0
  0
VERTEX
  8
0
  6
CONTINUOUS
 62
       7
  5
E1
 10
26.75804821
 20
16.323451
 30
0.0
  0
VERTEX
  8
0
  6
CONTINUOUS
 62
       7
  5
E2
 10
26.77403048
 20
16.54134035
 30
0.0
  0
VERTEX
  8
0
  6
CONTINUOUS
 62
       7
  5
E3
 10
26.75804821
 20
16.75922971
 30
0.0
  0
VERTEX
  8
0
  6
CONTINUOUS
 62
       7
  5
E4
 10
26.71022304
 20
16.9754608
 30
0.0
  0
VERTEX
  8
0
  6
CONTINUOUS
 62
       7
  5
E5
 10
26.63091895
 20
17.18838797
 30
0.0
  0
VERTEX
  8
0
  6
CONTINUOUS
 62
       7
  5
E6
 10
26.52073948
 20
17.39639071
 30
0.0
  0
VERTEX
  8
0
  6
CONTINUOUS
 62
       7
  5
E7
 10
26.38052318
 20
17.59788601
 30
0.0
  0
VERTEX
  8
0
  6
CONTINUOUS
 62
       7
  5
E8
 10
26.21133717
 20
17.79134035
 30
0.0
  0
VERTEX
  8
0
  6
CONTINUOUS
 62
       7
  5
E9
 10
26.01446906
 20
17.97528145
 30
0.0
  0
VERTEX
  8
0
  6
CONTINUOUS
 62
       7
  5
EA
 10
25.79141714
 20
18.14830938
 30
0.0
  0
VERTEX
  8
0
  6
CONTINUOUS
 62
       7
  5
EB
 10
25.54387896
 20
18.30910731
 30
0.0
  0
VERTEX
  8
0
  6
CONTINUOUS
 62
       7
  5
EC
 10
25.27373844
 20
18.45645146
 30
0.0
  0
VERTEX
  8
0
  6
CONTINUOUS
 62
       7
  5
ED
 10
24.98305151
 20
18.58922047
 30
0.0
  0
VERTEX
  8
0
  6
CONTINUOUS
 62
       7
  5
EE
 10
24.67403048
 20
18.70640386
 30
0.0
  0
VERTEX
  8
0
  6
CONTINUOUS
 62
       7
  5
EF
 10
24.34902718
 20
18.80710982
 30
0.0
  0
VERTEX
  8
0
  6
CONTINUOUS
 62
       7
  5
F0
 10
24.01051508
 20
18.89057191
 30
0.0
  0
VERTEX
  8
0
  6
CONTINUOUS
 62
       7
  5
F1
 10
23.66107047
 20
18.95615492
 30
0.0
  0
VERTEX
  8
0
  6
CONTINUOUS
 62
       7
  5
F2
 10
23.30335282
 20
19.00335974
 30
0.0
  0
VERTEX
  8
0
  6
CONTINUOUS
 62
       7
  5
F3
 10
22.9400846
 20
19.0318271
 30
0.0
  0
VERTEX
  8
0
  6
CONTINUOUS
 62
       7
  5
F4
 10
22.57403048
 20
19.04134035
 30
0.0
  0
VERTEX
  8
0
  6
CONTINUOUS
 62
       7
  5
F5
 10
22.20797636
 20
19.0318271
 30
0.0
  0
VERTEX
  8
0
  6
CONTINUOUS
 62
       7
  5
F6
 10
21.84470813
 20
19.00335974
 30
0.0
  0
VERTEX
  8
0
  6
CONTINUOUS
 62
       7
  5
F7
 10
21.48699049
 20
18.95615492
 30
0.0
  0
VERTEX
  8
0
  6
CONTINUOUS
 62
       7
  5
F8
 10
21.13754588
 20
18.89057191
 30
0.0
  0
VERTEX
  8
0
  6
CONTINUOUS
 62
       7
  5
F9
 10
20.79903378
 20
18.80710982
 30
0.0
  0
VERTEX
  8
0
  6
CONTINUOUS
 62
       7
  5
FA
 10
20.47403048
 20
18.70640386
 30
0.0
  0
VERTEX
  8
0
  6
CONTINUOUS
 62
       7
  5
FB
 10
20.16500944
 20
18.58922047
 30
0.0
  0
VERTEX
  8
0
  6
CONTINUOUS
 62
       7
  5
FC
 10
19.87432252
 20
18.45645146
 30
0.0
  0
VERTEX
  8
0
  6
CONTINUOUS
 62
       7
  5
FD
 10
19.604182
 20
18.30910731
 30
0.0
  0
VERTEX
  8
0
  6
CONTINUOUS
 62
       7
  5
FE
 10
19.35664382
 20
18.14830938
 30
0.0
  0
VERTEX
  8
0
  6
CONTINUOUS
 62
       7
  5
FF
 10
19.13359189
 20
17.97528145
 30
0.0
  0
VERTEX
  8
0
  6
CONTINUOUS
 62
       7
  5
100
 10
18.93672378
 20
17.79134035
 30
0.0
  0
VERTEX
  8
0
  6
CONTINUOUS
 62
       7
  5
101
 10
18.76753777
 20
17.59788601
 30
0.0
  0
VERTEX
  8
0
  6
CONTINUOUS
 62
       7
  5
102
 10
18.62732147
 20
17.39639071
 30
0.0
  0
VERTEX
  8
0
  6
CONTINUOUS
 62
       7
  5
103
 10
18.51714201
 20
17.18838797
 30
0.0
  0
VERTEX
  8
0
  6
CONTINUOUS
 62
       7
  5
104
 10
18.43783791
 20
16.9754608
 30
0.0
  0
VERTEX
  8
0
  6
CONTINUOUS
 62
       7
  5
105
 10
18.39001275
 20
16.75922971
 30
0.0
  0
VERTEX
  8
0
  6
CONTINUOUS
 62
       7
  5
106
 10
18.37403048
 20
16.54134035
 30
0.0
  0
SEQEND
  8
0
  6
CONTINUOUS
 62
       7
  5
107
  0
POLYLINE
  8
0
  6
CONTINUOUS
 62
       7
  5
40
 66
       1
 10
0.0
 20
0.0
 30
0.0
 70
       1
  0
VERTEX
  8
0
  6
CONTINUOUS
 62
       7
  5
108
 10
26.77403048
 20
-6.84134341
 30
0.0
  0
VERTEX
  8
0
  6
CONTINUOUS
 62
       7
  5
109
 10
26.75804821
 20
-6.62345405
 30
0.0
  0
VERTEX
  8
0
  6
CONTINUOUS
 62
       7
  5
10A
 10
26.71022304
 20
-6.40722296
 30
0.0
  0
VERTEX
  8
0
  6
CONTINUOUS
 62
       7
  5
10B
 10
26.63091895
 20
-6.19429579
 30
0.0
  0
VERTEX
  8
0
  6
CONTINUOUS
 62
       7
  5
10C
 10
26.52073948
 20
-5.98629305
 30
0.0
  0
VERTEX
  8
0
  6
CONTINUOUS
 62
       7
  5
10D
 10
26.38052318
 20
-5.78479775
 30
0.0
  0
VERTEX
  8
0
  6
CONTINUOUS
 62
       7
  5
10E
 10
26.21133717
 20
-5.59134341
 30
0.0
  0
VERTEX
  8
0
  6
CONTINUOUS
 62
       7
  5
10F
 10
26.01446906
 20
-5.40740232
 30
0.0
  0
VERTEX
  8
0
  6
CONTINUOUS
 62
       7
  5
110
 10
25.79141714
 20
-5.23437438
 30
0.0
  0
VERTEX
  8
0
  6
CONTINUOUS
 62
       7
  5
111
 10
25.54387896
 20
-5.07357645
 30
0.0
  0
VERTEX
  8
0
  6
CONTINUOUS
 62
       7
  5
112
 10
25.27373844
 20
-4.9262323
 30
0.0
  0
VERTEX
  8
0
  6
CONTINUOUS
 62
       7
  5
113
 10
24.98305151
 20
-4.7934633
 30
0.0
  0
VERTEX
  8
0
  6
CONTINUOUS
 62
       7
  5
114
 10
24.67403048
 20
-4.6762799
 30
0.0
  0
VERTEX
  8
0
  6
CONTINUOUS
 62
       7
  5
115
 10
24.34902718
 20
-4.57557394
 30
0.0
  0
VERTEX
  8
0
  6
CONTINUOUS
 62
       7
  5
116
 10
24.01051508
 20
-4.49211185
 30
0.0
  0
VERTEX
  8
0
  6
CONTINUOUS
 62
       7
  5
117
 10
23.66107047
 20
-4.42652884
 30
0.0
  0
VERTEX
  8
0
  6
CONTINUOUS
 62
       7
  5
118
 10
23.30335282
 20
-4.37932402
 30
0.0
  0
VERTEX
  8
0
  6
CONTINUOUS
 62
       7
  5
119
 10
22.9400846
 20
-4.35085666
 30
0.0
  0
VERTEX
  8
0
  6
CONTINUOUS
 62
       7
  5
11A
 10
22.57403048
 20
-4.34134341
 30
0.0
  0
VERTEX
  8
0
  6
CONTINUOUS
 62
       7
  5
11B
 10
22.20797636
 20
-4.35085666
 30
0.0
  0
VERTEX
  8
0
  6
CONTINUOUS
 62
       7
  5
11C
 10
21.84470813
 20
-4.37932402
 30
0.0
  0
VERTEX
  8
0
  6
CONTINUOUS
 62
       7
  5
11D
 10
21.48699049
 20
-4.42652884
 30
0.0
  0
VERTEX
  8
0
  6
CONTINUOUS
 62
       7
  5
11E
 10
21.13754588
 20
-4.49211185
 30
0.0
  0
VERTEX
  8
0
  6
CONTINUOUS
 62
       7
  5
11F
 10
20.79903378
 20
-4.57557394
 30
0.0
  0
VERTEX
  8
0
  6
CONTINUOUS
 62
       7
  5
120
 10
20.47403048
 20
-4.6762799
 30
0.0
  0
VERTEX
  8
0
  6
CONTINUOUS
 62
       7
  5
121
 10
20.16500944
 20
-4.7934633
 30
0.0
  0
VERTEX
  8
0
  6
CONTINUOUS
 62
       7
  5
122
 10
19.87432252
 20
-4.9262323
 30
0.0
  0
VERTEX
  8
0
  6
CONTINUOUS
 62
       7
  5
123
 10
19.604182
 20
-5.07357645
 30
0.0
  0
VERTEX
  8
0
  6
CONTINUOUS
 62
       7
  5
124
 10
19.35664382
 20
-5.23437438
 30
0.0
  0
VERTEX
  8
0
  6
CONTINUOUS
 62
       7
  5
125
 10
19.13359189
 20
-5.40740232
 30
0.0
  0
VERTEX
  8
0
  6
CONTINUOUS
 62
       7
  5
126
 10
18.93672378
 20
-5.59134341
 30
0.0
  0
VERTEX
  8
0
  6
CONTINUOUS
 62
       7
  5
127
 10
18.76753777
 20
-5.78479775
 30
0.0
  0
VERTEX
  8
0
  6
CONTINUOUS
 62
       7
  5
128
 10
18.62732147
 20
-5.98629305
 30
0.0
  0
VERTEX
  8
0
  6
CONTINUOUS
 62
       7
  5
129
 10
18.51714201
 20
-6.19429579
 30
0.0
  0
VERTEX
  8
0
  6
CONTINUOUS
 62
       7
  5
12A
 10
18.43783791
 20
-6.40722296
 30
0.0
  0
VERTEX
  8
0
  6
CONTINUOUS
 62
       7
  5
12B
 10
18.39001275
 20
-6.62345405
 30
0.0
  0
VERTEX
  8
0
  6
CONTINUOUS
 62
       7
  5
12C
 10
18.37403048
 20
-6.84134341
 30
0.0
  0
VERTEX
  8
0
  6
CONTINUOUS
 62
       7
  5
12D
 10
18.39001275
 20
-7.05923276
 30
0.0
  0
VERTEX
  8
0
  6
CONTINUOUS
 62
       7
  5
12E
 10
18.43783791
 20
-7.27546385
 30
0.0
  0
VERTEX
  8
0
  6
CONTINUOUS
 62
       7
  5
12F
 10
18.51714201
 20
-7.48839102
 30
0.0
  0
VERTEX
  8
0
  6
CONTINUOUS
 62
       7
  5
130
 10
18.62732147
 20
-7.69639376
 30
0.0
  0
VERTEX
  8
0
  6
CONTINUOUS
 62
       7
  5
131
 10
18.76753777
 20
-7.89788906
 30
0.0
  0
VERTEX
  8
0
  6
CONTINUOUS
 62
       7
  5
132
 10
18.93672378
 20
-8.09134341
 30
0.0
  0
VERTEX
  8
0
  6
CONTINUOUS
 62
       7
  5
133
 10
19.13359189
 20
-8.2752845
 30
0.0
  0
VERTEX
  8
0
  6
CONTINUOUS
 62
       7
  5
134
 10
19.35664382
 20
-8.44831243
 30
0.0
  0
VERTEX
  8
0
  6
CONTINUOUS
 62
       7
  5
135
 10
19.604182
 20
-8.60911036
 30
0.0
  0
VERTEX
  8
0
  6
CONTINUOUS
 62
       7
  5
136
 10
19.87432252
 20
-8.75645451
 30
0.0
  0
VERTEX
  8
0
  6
CONTINUOUS
 62
       7
  5
137
 10
20.16500944
 20
-8.88922352
 30
0.0
  0
VERTEX
  8
0
  6
CONTINUOUS
 62
       7
  5
138
 10
20.47403048
 20
-9.00640692
 30
0.0
  0
VERTEX
  8
0
  6
CONTINUOUS
 62
       7
  5
139
 10
20.79903378
 20
-9.10711287
 30
0.0
  0
VERTEX
  8
0
  6
CONTINUOUS
 62
       7
  5
13A
 10
21.13754588
 20
-9.19057496
 30
0.0
  0
VERTEX
  8
0
  6
CONTINUOUS
 62
       7
  5
13B
 10
21.48699049
 20
-9.25615797
 30
0.0
  0
VERTEX
  8
0
  6
CONTINUOUS
 62
       7
  5
13C
 10
21.84470813
 20
-9.30336279
 30
0.0
  0
VERTEX
  8
0
  6
CONTINUOUS
 62
       7
  5
13D
 10
22.20797636
 20
-9.33183015
 30
0.0
  0
VERTEX
  8
0
  6
CONTINUOUS
 62
       7
  5
13E
 10
22.57403048
 20
-9.34134341
 30
0.0
  0
VERTEX
  8
0
  6
CONTINUOUS
 62
       7
  5
13F
 10
22.9400846
 20
-9.33183015
 30
0.0
  0
VERTEX
  8
0
  6
CONTINUOUS
 62
       7
  5
140
 10
23.30335282
 20
-9.30336279
 30
0.0
  0
VERTEX
  8
0
  6
CONTINUOUS
 62
       7
  5
141
 10
23.66107047
 20
-9.25615797
 30
0.0
  0
VERTEX
  8
0
  6
CONTINUOUS
 62
       7
  5
142
 10
24.01051508
 20
-9.19057496
 30
0.0
  0
VERTEX
  8
0
  6
CONTINUOUS
 62
       7
  5
143
 10
24.34902718
 20
-9.10711287
 30
0.0
  0
VERTEX
  8
0
  6
CONTINUOUS
 62
       7
  5
144
 10
24.67403048
 20
-9.00640692
 30
0.0
  0
VERTEX
  8
0
  6
CONTINUOUS
 62
       7
  5
145
 10
24.98305151
 20
-8.88922352
 30
0.0
  0
VERTEX
  8
0
  6
CONTINUOUS
 62
       7
  5
146
 10
25.27373844
 20
-8.75645451
 30
0.0
  0
VERTEX
  8
0
  6
CONTINUOUS
 62
       7
  5
147
 10
25.54387896
 20
-8.60911036
 30
0.0
  0
VERTEX
  8
0
  6
CONTINUOUS
 62
       7
  5
148
 10
25.79141714
 20
-8.44831243
 30
0.0
  0
VERTEX
  8
0
  6
CONTINUOUS
 62
       7
  5
149
 10
26.01446906
 20
-8.2752845
 30
0.0
  0
VERTEX
  8
0
  6
CONTINUOUS
 62
       7
  5
14A
 10
26.21133717
 20
-8.09134341
 30
0.0
  0
VERTEX
  8
0
  6
CONTINUOUS
 62
       7
  5
14B
 10
26.38052318
 20
-7.89788906
 30
0.0
  0
VERTEX
  8
0
  6
CONTINUOUS
 62
       7
  5
14C
 10
26.52073948
 20
-7.69639376
 30
0.0
  0
VERTEX
  8
0
  6
CONTINUOUS
 62
       7
  5
14D
 10
26.63091895
 20
-7.48839102
 30
0.0
  0
VERTEX
  8
0
  6
CONTINUOUS
 62
       7
  5
14E
 10
26.71022304
 20
-7.27546385
 30
0.0
  0
VERTEX
  8
0
  6
CONTINUOUS
 62
       7
  5
14F
 10
26.75804821
 20
-7.05923276
 30
0.0
  0
VERTEX
  8
0
  6
CONTINUOUS
 62
       7
  5
150
 10
26.77403048
 20
-6.84134341
 30
0.0
  0
SEQEND
  8
0
  6
CONTINUOUS
 62
       7
  5
151
  0
POLYLINE
  8
0
  6
CONTINUOUS
 62
       7
  5
41
 66
       1
 10
0.0
 20
0.0
 30
0.0
 70
       1
  0
VERTEX
  8
0
  6
CONTINUOUS
 62
       7
  5
152
 10
36.77403048
 20
-6.84134341
 30
0.0
  0
VERTEX
  8
0
  6
CONTINUOUS
 62
       7
  5
153
 10
36.75804821
 20
-6.62345405
 30
0.0
  0
VERTEX
  8
0
  6
CONTINUOUS
 62
       7
  5
154
 10
36.71022304
 20
-6.40722296
 30
0.0
  0
VERTEX
  8
0
  6
CONTINUOUS
 62
       7
  5
155
 10
36.63091895
 20
-6.19429579
 30
0.0
  0
VERTEX
  8
0
  6
CONTINUOUS
 62
       7
  5
156
 10
36.52073948
 20
-5.98629305
 30
0.0
  0
VERTEX
  8
0
  6
CONTINUOUS
 62
       7
  5
157
 10
36.38052318
 20
-5.78479775
 30
0.0
  0
VERTEX
  8
0
  6
CONTINUOUS
 62
       7
  5
158
 10
36.21133717
 20
-5.59134341
 30
0.0
  0
VERTEX
  8
0
  6
CONTINUOUS
 62
       7
  5
159
 10
36.01446906
 20
-5.40740232
 30
0.0
  0
VERTEX
  8
0
  6
CONTINUOUS
 62
       7
  5
15A
 10
35.79141714
 20
-5.23437438
 30
0.0
  0
VERTEX
  8
0
  6
CONTINUOUS
 62
       7
  5
15B
 10
35.54387896
 20
-5.07357645
 30
0.0
  0
VERTEX
  8
0
  6
CONTINUOUS
 62
       7
  5
15C
 10
35.27373844
 20
-4.9262323
 30
0.0
  0
VERTEX
  8
0
  6
CONTINUOUS
 62
       7
  5
15D
 10
34.98305151
 20
-4.7934633
 30
0.0
  0
VERTEX
  8
0
  6
CONTINUOUS
 62
       7
  5
15E
 10
34.67403048
 20
-4.6762799
 30
0.0
  0
VERTEX
  8
0
  6
CONTINUOUS
 62
       7
  5
15F
 10
34.34902718
 20
-4.57557394
 30
0.0
  0
VERTEX
  8
0
  6
CONTINUOUS
 62
       7
  5
160
 10
34.01051508
 20
-4.49211185
 30
0.0
  0
VERTEX
  8
0
  6
CONTINUOUS
 62
       7
  5
161
 10
33.66107047
 20
-4.42652884
 30
0.0
  0
VERTEX
  8
0
  6
CONTINUOUS
 62
       7
  5
162
 10
33.30335282
 20
-4.37932402
 30
0.0
  0
VERTEX
  8
0
  6
CONTINUOUS
 62
       7
  5
163
 10
32.9400846
 20
-4.35085666
 30
0.0
  0
VERTEX
  8
0
  6
CONTINUOUS
 62
       7
  5
164
 10
32.57403048
 20
-4.34134341
 30
0.0
  0
VERTEX
  8
0
  6
CONTINUOUS
 62
       7
  5
165
 10
32.20797636
 20
-4.35085666
 30
0.0
  0
VERTEX
  8
0
  6
CONTINUOUS
 62
       7
  5
166
 10
31.84470813
 20
-4.37932402
 30
0.0
  0
VERTEX
  8
0
  6
CONTINUOUS
 62
       7
  5
167
 10
31.48699049
 20
-4.42652884
 30
0.0
  0
VERTEX
  8
0
  6
CONTINUOUS
 62
       7
  5
168
 10
31.13754588
 20
-4.49211185
 30
0.0
  0
VERTEX
  8
0
  6
CONTINUOUS
 62
       7
  5
169
 10
30.79903378
 20
-4.57557394
 30
0.0
  0
VERTEX
  8
0
  6
CONTINUOUS
 62
       7
  5
16A
 10
30.47403048
 20
-4.6762799
 30
0.0
  0
VERTEX
  8
0
  6
CONTINUOUS
 62
       7
  5
16B
 10
30.16500944
 20
-4.7934633
 30
0.0
  0
VERTEX
  8
0
  6
CONTINUOUS
 62
       7
  5
16C
 10
29.87432252
 20
-4.9262323
 30
0.0
  0
VERTEX
  8
0
  6
CONTINUOUS
 62
       7
  5
16D
 10
29.604182
 20
-5.07357645
 30
0.0
  0
VERTEX
  8
0
  6
CONTINUOUS
 62
       7
  5
16E
 10
29.35664382
 20
-5.23437438
 30
0.0
  0
VERTEX
  8
0
  6
CONTINUOUS
 62
       7
  5
16F
 10
29.13359189
 20
-5.40740232
 30
0.0
  0
VERTEX
  8
0
  6
CONTINUOUS
 62
       7
  5
170
 10
28.93672378
 20
-5.59134341
 30
0.0
  0
VERTEX
  8
0
  6
CONTINUOUS
 62
       7
  5
171
 10
28.76753777
 20
-5.78479775
 30
0.0
  0
VERTEX
  8
0
  6
CONTINUOUS
 62
       7
  5
172
 10
28.62732147
 20
-5.98629305
 30
0.0
  0
VERTEX
  8
0
  6
CONTINUOUS
 62
       7
  5
173
 10
28.51714201
 20
-6.19429579
 30
0.0
  0
VERTEX
  8
0
  6
CONTINUOUS
 62
       7
  5
174
 10
28.43783791
 20
-6.40722296
 30
0.0
  0
VERTEX
  8
0
  6
CONTINUOUS
 62
       7
  5
175
 10
28.39001275
 20
-6.62345405
 30
0.0
  0
VERTEX
  8
0
  6
CONTINUOUS
 62
       7
  5
176
 10
28.37403048
 20
-6.84134341
 30
0.0
  0
VERTEX
  8
0
  6
CONTINUOUS
 62
       7
  5
177
 10
28.39001275
 20
-7.05923276
 30
0.0
  0
VERTEX
  8
0
  6
CONTINUOUS
 62
       7
  5
178
 10
28.43783791
 20
-7.27546385
 30
0.0
  0
VERTEX
  8
0
  6
CONTINUOUS
 62
       7
  5
179
 10
28.51714201
 20
-7.48839102
 30
0.0
  0
VERTEX
  8
0
  6
CONTINUOUS
 62
       7
  5
17A
 10
28.62732147
 20
-7.69639376
 30
0.0
  0
VERTEX
  8
0
  6
CONTINUOUS
 62
       7
  5
17B
 10
28.76753777
 20
-7.89788906
 30
0.0
  0
VERTEX
  8
0
  6
CONTINUOUS
 62
       7
  5
17C
 10
28.93672378
 20
-8.09134341
 30
0.0
  0
VERTEX
  8
0
  6
CONTINUOUS
 62
       7
  5
17D
 10
29.13359189
 20
-8.2752845
 30
0.0
  0
VERTEX
  8
0
  6
CONTINUOUS
 62
       7
  5
17E
 10
29.35664382
 20
-8.44831243
 30
0.0
  0
VERTEX
  8
0
  6
CONTINUOUS
 62
       7
  5
17F
 10
29.604182
 20
-8.60911036
 30
0.0
  0
VERTEX
  8
0
  6
CONTINUOUS
 62
       7
  5
180
 10
29.87432252
 20
-8.75645451
 30
0.0
  0
VERTEX
  8
0
  6
CONTINUOUS
 62
       7
  5
181
 10
30.16500944
 20
-8.88922352
 30
0.0
  0
VERTEX
  8
0
  6
CONTINUOUS
 62
       7
  5
182
 10
30.47403048
 20
-9.00640692
 30
0.0
  0
VERTEX
  8
0
  6
CONTINUOUS
 62
       7
  5
183
 10
30.79903378
 20
-9.10711287
 30
0.0
  0
VERTEX
  8
0
  6
CONTINUOUS
 62
       7
  5
184
 10
31.13754588
 20
-9.19057496
 30
0.0
  0
VERTEX
  8
0
  6
CONTINUOUS
 62
       7
  5
185
 10
31.48699049
 20
-9.25615797
 30
0.0
  0
VERTEX
  8
0
  6
CONTINUOUS
 62
       7
  5
186
 10
31.84470813
 20
-9.30336279
 30
0.0
  0
VERTEX
  8
0
  6
CONTINUOUS
 62
       7
  5
187
 10
32.20797636
 20
-9.33183015
 30
0.0
  0
VERTEX
  8
0
  6
CONTINUOUS
 62
       7
  5
188
 10
32.57403048
 20
-9.34134341
 30
0.0
  0
VERTEX
  8
0
  6
CONTINUOUS
 62
       7
  5
189
 10
32.9400846
 20
-9.33183015
 30
0.0
  0
VERTEX
  8
0
  6
CONTINUOUS
 62
       7
  5
18A
 10
33.30335282
 20
-9.30336279
 30
0.0
  0
VERTEX
  8
0
  6
CONTINUOUS
 62
       7
  5
18B
 10
33.66107047
 20
-9.25615797
 30
0.0
  0
VERTEX
  8
0
  6
CONTINUOUS
 62
       7
  5
18C
 10
34.01051508
 20
-9.19057496
 30
0.0
  0
VERTEX
  8
0
  6
CONTINUOUS
 62
       7
  5
18D
 10
34.34902718
 20
-9.10711287
 30
0.0
  0
VERTEX
  8
0
  6
CONTINUOUS
 62
       7
  5
18E
 10
34.67403048
 20
-9.00640692
 30
0.0
  0
VERTEX
  8
0
  6
CONTINUOUS
 62
       7
  5
18F
 10
34.98305151
 20
-8.88922352
 30
0.0
  0
VERTEX
  8
0
  6
CONTINUOUS
 62
       7
  5
190
 10
35.27373844
 20
-8.75645451
 30
0.0
  0
VERTEX
  8
0
  6
CONTINUOUS
 62
       7
  5
191
 10
35.54387896
 20
-8.60911036
 30
0.0
  0
VERTEX
  8
0
  6
CONTINUOUS
 62
       7
  5
192
 10
35.79141714
 20
-8.44831243
 30
0.0
  0
VERTEX
  8
0
  6
CONTINUOUS
 62
       7
  5
193
 10
36.01446906
 20
-8.2752845
 30
0.0
  0
VERTEX
  8
0
  6
CONTINUOUS
 62
       7
  5
194
 10
36.21133717
 20
-8.09134341
 30
0.0
  0
VERTEX
  8
0
  6
CONTINUOUS
 62
       7
  5
195
 10
36.38052318
 20
-7.89788906
 30
0.0
  0
VERTEX
  8
0
  6
CONTINUOUS
 62
       7
  5
196
 10
36.52073948
 20
-7.69639376
 30
0.0
  0
VERTEX
  8
0
  6
CONTINUOUS
 62
       7
  5
197
 10
36.63091895
 20
-7.48839102
 30
0.0
  0
VERTEX
  8
0
  6
CONTINUOUS
 62
       7
  5
198
 10
36.71022304
 20
-7.27546385
 30
0.0
  0
VERTEX
  8
0
  6
CONTINUOUS
 62
       7
  5
199
 10
36.75804821
 20
-7.05923276
 30
0.0
  0
VERTEX
  8
0
  6
CONTINUOUS
 62
       7
  5
19A
 10
36.77403048
 20
-6.84134341
 30
0.0
  0
SEQEND
  8
0
  6
CONTINUOUS
 62
       7
  5
19B
  0
LINE
  8
0
  6
CONTINUOUS
 62
       2
  5
42
 10
16.64426434
 20
-6.84134341
 30
0.0
 11
38.57317254
 21
-6.84134341
 31
0.0
  0
ARC
  8
0
  6
CONTINUOUS
 62
       7
  5
43
 10
31.10599006
 20
4.84999847
 30
0.0
 40
23.53195958
 50
164.34706664
 51
195.65293336
  0
CIRCLE
  8
0
  6
CONTINUOUS
 62
       7
  5
44
 10
22.57403048
 20
4.84999847
 30
0.0
 40
2.1
  0
CIRCLE
  8
0
  6
CONTINUOUS
 62
       7
  5
45
 10
32.57403048
 20
4.84999847
 30
0.0
 40
2.1
  0
POLYLINE
  8
0
  6
CONTINUOUS
 62
       2
  5
46
 66
       1
 10
0.0
 20
0.0
 30
0.0
 70
       1
  0
VERTEX
  8
0
  6
CONTINUOUS
 62
       2
  5
19C
 10
20.07403048
 20
16.54134035
 30
0.0
  0
VERTEX
  8
0
  6
CONTINUOUS
 62
       2
  5
19D
 10
20.08354373
 20
16.41060674
 30
0.0
  0
VERTEX
  8
0
  6
CONTINUOUS
 62
       2
  5
19E
 10
20.11201109
 20
16.28086809
 30
0.0
  0
VERTEX
  8
0
  6
CONTINUOUS
 62
       2
  5
19F
 10
20.15921591
 20
16.15311179
 30
0.0
  0
VERTEX
  8
0
  6
CONTINUOUS
 62
       2
  5
1A0
 10
20.22479893
 20
16.02831014
 30
0.0
  0
VERTEX
  8
0
  6
CONTINUOUS
 62
       2
  5
1A1
 10
20.30826101
 20
15.90741296
 30
0.0
  0
VERTEX
  8
0
  6
CONTINUOUS
 62
       2
  5
1A2
 10
20.40896697
 20
15.79134035
 30
0.0
  0
VERTEX
  8
0
  6
CONTINUOUS
 62
       2
  5
1A3
 10
20.52615037
 20
15.6809757
 30
0.0
  0
VERTEX
  8
0
  6
CONTINUOUS
 62
       2
  5
1A4
 10
20.65891937
 20
15.57715894
 30
0.0
  0
VERTEX
  8
0
  6
CONTINUOUS
 62
       2
  5
1A5
 10
20.80626352
 20
15.48068018
 30
0.0
  0
VERTEX
  8
0
  6
CONTINUOUS
 62
       2
  5
1A6
 10
20.96706145
 20
15.39227369
 30
0.0
  0
VERTEX
  8
0
  6
CONTINUOUS
 62
       2
  5
1A7
 10
21.14008939
 20
15.31261229
 30
0.0
  0
VERTEX
  8
0
  6
CONTINUOUS
 62
       2
  5
1A8
 10
21.32403048
 20
15.24230225
 30
0.0
  0
VERTEX
  8
0
  6
CONTINUOUS
 62
       2
  5
1A9
 10
21.51748482
 20
15.18187867
 30
0.0
  0
VERTEX
  8
0
  6
CONTINUOUS
 62
       2
  5
1AA
 10
21.71898012
 20
15.13180142
 30
0.0
  0
VERTEX
  8
0
  6
CONTINUOUS
 62
       2
  5
1AB
 10
21.92698286
 20
15.09245162
 30
0.0
  0
VERTEX
  8
0
  6
CONTINUOUS
 62
       2
  5
1AC
 10
22.13991003
 20
15.06412873
 30
0.0
  0
VERTEX
  8
0
  6
CONTINUOUS
 62
       2
  5
1AD
 10
22.35614112
 20
15.04704831
 30
0.0
  0
VERTEX
  8
0
  6
CONTINUOUS
 62
       2
  5
1AE
 10
22.57403048
 20
15.04134035
 30
0.0
  0
VERTEX
  8
0
  6
CONTINUOUS
 62
       2
  5
1AF
 10
22.79191983
 20
15.04704831
 30
0.0
  0
VERTEX
  8
0
  6
CONTINUOUS
 62
       2
  5
1B0
 10
23.00815092
 20
15.06412873
 30
0.0
  0
VERTEX
  8
0
  6
CONTINUOUS
 62
       2
  5
1B1
 10
23.22107809
 20
15.09245162
 30
0.0
  0
VERTEX
  8
0
  6
CONTINUOUS
 62
       2
  5
1B2
 10
23.42908084
 20
15.13180142
 30
0.0
  0
VERTEX
  8
0
  6
CONTINUOUS
 62
       2
  5
1B3
 10
23.63057613
 20
15.18187867
 30
0.0
  0
VERTEX
  8
0
  6
CONTINUOUS
 62
       2
  5
1B4
 10
23.82403048
 20
15.24230225
 30
0.0
  0
VERTEX
  8
0
  6
CONTINUOUS
 62
       2
  5
1B5
 10
24.00797157
 20
15.31261229
 30
0.0
  0
VERTEX
  8
0
  6
CONTINUOUS
 62
       2
  5
1B6
 10
24.1809995
 20
15.39227369
 30
0.0
  0
VERTEX
  8
0
  6
CONTINUOUS
 62
       2
  5
1B7
 10
24.34179743
 20
15.48068018
 30
0.0
  0
VERTEX
  8
0
  6
CONTINUOUS
 62
       2
  5
1B8
 10
24.48914159
 20
15.57715894
 30
0.0
  0
VERTEX
  8
0
  6
CONTINUOUS
 62
       2
  5
1B9
 10
24.62191059
 20
15.6809757
 30
0.0
  0
VERTEX
  8
0
  6
CONTINUOUS
 62
       2
  5
1BA
 10
24.73909399
 20
15.79134035
 30
0.0
  0
VERTEX
  8
0
  6
CONTINUOUS
 62
       2
  5
1BB
 10
24.83979995
 20
15.90741296
 30
0.0
  0
VERTEX
  8
0
  6
CONTINUOUS
 62
       2
  5
1BC
 10
24.92326203
 20
16.02831014
 30
0.0
  0
VERTEX
  8
0
  6
CONTINUOUS
 62
       2
  5
1BD
 10
24.98884504
 20
16.15311179
 30
0.0
  0
VERTEX
  8
0
  6
CONTINUOUS
 62
       2
  5
1BE
 10
25.03604986
 20
16.28086809
 30
0.0
  0
VERTEX
  8
0
  6
CONTINUOUS
 62
       2
  5
1BF
 10
25.06451722
 20
16.41060674
 30
0.0
  0
VERTEX
  8
0
  6
CONTINUOUS
 62
       2
  5
1C0
 10
25.07403048
 20
16.54134035
 30
0.0
  0
VERTEX
  8
0
  6
CONTINUOUS
 62
       2
  5
1C1
 10
25.06451722
 20
16.67207397
 30
0.0
  0
VERTEX
  8
0
  6
CONTINUOUS
 62
       2
  5
1C2
 10
25.03604986
 20
16.80181262
 30
0.0
  0
VERTEX
  8
0
  6
CONTINUOUS
 62
       2
  5
1C3
 10
24.98884504
 20
16.92956892
 30
0.0
  0
VERTEX
  8
0
  6
CONTINUOUS
 62
       2
  5
1C4
 10
24.92326203
 20
17.05437057
 30
0.0
  0
VERTEX
  8
0
  6
CONTINUOUS
 62
       2
  5
1C5
 10
24.83979995
 20
17.17526775
 30
0.0
  0
VERTEX
  8
0
  6
CONTINUOUS
 62
       2
  5
1C6
 10
24.73909399
 20
17.29134035
 30
0.0
  0
VERTEX
  8
0
  6
CONTINUOUS
 62
       2
  5
1C7
 10
24.62191059
 20
17.40170501
 30
0.0
  0
VERTEX
  8
0
  6
CONTINUOUS
 62
       2
  5
1C8
 10
24.48914159
 20
17.50552177
 30
0.0
  0
VERTEX
  8
0
  6
CONTINUOUS
 62
       2
  5
1C9
 10
24.34179743
 20
17.60200053
 30
0.0
  0
VERTEX
  8
0
  6
CONTINUOUS
 62
       2
  5
1CA
 10
24.1809995
 20
17.69040702
 30
0.0
  0
VERTEX
  8
0
  6
CONTINUOUS
 62
       2
  5
1CB
 10
24.00797157
 20
17.77006842
 30
0.0
  0
VERTEX
  8
0
  6
CONTINUOUS
 62
       2
  5
1CC
 10
23.82403048
 20
17.84037846
 30
0.0
  0
VERTEX
  8
0
  6
CONTINUOUS
 62
       2
  5
1CD
 10
23.63057613
 20
17.90080204
 30
0.0
  0
VERTEX
  8
0
  6
CONTINUOUS
 62
       2
  5
1CE
 10
23.42908084
 20
17.95087929
 30
0.0
  0
VERTEX
  8
0
  6
CONTINUOUS
 62
       2
  5
1CF
 10
23.22107809
 20
17.99022909
 30
0.0
  0
VERTEX
  8
0
  6
CONTINUOUS
 62
       2
  5
1D0
 10
23.00815092
 20
18.01855198
 30
0.0
  0
VERTEX
  8
0
  6
CONTINUOUS
 62
       2
  5
1D1
 10
22.79191983
 20
18.0356324
 30
0.0
  0
VERTEX
  8
0
  6
CONTINUOUS
 62
       2
  5
1D2
 10
22.57403048
 20
18.04134035
 30
0.0
  0
VERTEX
  8
0
  6
CONTINUOUS
 62
       2
  5
1D3
 10
22.35614112
 20
18.0356324
 30
0.0
  0
VERTEX
  8
0
  6
CONTINUOUS
 62
       2
  5
1D4
 10
22.13991003
 20
18.01855198
 30
0.0
  0
VERTEX
  8
0
  6
CONTINUOUS
 62
       2
  5
1D5
 10
21.92698286
 20
17.99022909
 30
0.0
  0
VERTEX
  8
0
  6
CONTINUOUS
 62
       2
  5
1D6
 10
21.71898012
 20
17.95087929
 30
0.0
  0
VERTEX
  8
0
  6
CONTINUOUS
 62
       2
  5
1D7
 10
21.51748482
 20
17.90080204
 30
0.0
  0
VERTEX
  8
0
  6
CONTINUOUS
 62
       2
  5
1D8
 10
21.32403048
 20
17.84037846
 30
0.0
  0
VERTEX
  8
0
  6
CONTINUOUS
 62
       2
  5
1D9
 10
21.14008939
 20
17.77006842
 30
0.0
  0
VERTEX
  8
0
  6
CONTINUOUS
 62
       2
  5
1DA
 10
20.96706145
 20
17.69040702
 30
0.0
  0
VERTEX
  8
0
  6
CONTINUOUS
 62
       2
  5
1DB
 10
20.80626352
 20
17.60200053
 30
0.0
  0
VERTEX
  8
0
  6
CONTINUOUS
 62
       2
  5
1DC
 10
20.65891937
 20
17.50552177
 30
0.0
  0
VERTEX
  8
0
  6
CONTINUOUS
 62
       2
  5
1DD
 10
20.52615037
 20
17.40170501
 30
0.0
  0
VERTEX
  8
0
  6
CONTINUOUS
 62
       2
  5
1DE
 10
20.40896697
 20
17.29134035
 30
0.0
  0
VERTEX
  8
0
  6
CONTINUOUS
 62
       2
  5
1DF
 10
20.30826101
 20
17.17526775
 30
0.0
  0
VERTEX
  8
0
  6
CONTINUOUS
 62
       2
  5
1E0
 10
20.22479893
 20
17.05437057
 30
0.0
  0
VERTEX
  8
0
  6
CONTINUOUS
 62
       2
  5
1E1
 10
20.15921591
 20
16.92956892
 30
0.0
  0
VERTEX
  8
0
  6
CONTINUOUS
 62
       2
  5
1E2
 10
20.11201109
 20
16.80181262
 30
0.0
  0
VERTEX
  8
0
  6
CONTINUOUS
 62
       2
  5
1E3
 10
20.08354373
 20
16.67207397
 30
0.0
  0
VERTEX
  8
0
  6
CONTINUOUS
 62
       2
  5
1E4
 10
20.07403048
 20
16.54134035
 30
0.0
  0
SEQEND
  8
0
  6
CONTINUOUS
 62
       2
  5
1E5
  0
POLYLINE
  8
0
  6
CONTINUOUS
 62
       7
  5
47
 66
       1
 10
0.0
 20
0.0
 30
0.0
 70
       1
  0
VERTEX
  8
0
  6
CONTINUOUS
 62
       7
  5
1E6
 10
20.47403048
 20
16.54134035
 30
0.0
  0
VERTEX
  8
0
  6
CONTINUOUS
 62
       7
  5
1E7
 10
20.48202161
 20
16.43675346
 30
0.0
  0
VERTEX
  8
0
  6
CONTINUOUS
 62
       7
  5
1E8
 10
20.5059342
 20
16.33296254
 30
0.0
  0
VERTEX
  8
0
  6
CONTINUOUS
 62
       7
  5
1E9
 10
20.54558624
 20
16.2307575
 30
0.0
  0
VERTEX
  8
0
  6
CONTINUOUS
 62
       7
  5
1EA
 10
20.60067597
 20
16.13091618
 30
0.0
  0
VERTEX
  8
0
  6
CONTINUOUS
 62
       7
  5
1EB
 10
20.67078412
 20
16.03419844
 30
0.0
  0
VERTEX
  8
0
  6
CONTINUOUS
 62
       7
  5
1EC
 10
20.75537713
 20
15.94134035
 30
0.0
  0
VERTEX
  8
0
  6
CONTINUOUS
 62
       7
  5
1ED
 10
20.85381118
 20
15.85304863
 30
0.0
  0
VERTEX
  8
0
  6
CONTINUOUS
 62
       7
  5
1EE
 10
20.96533715
 20
15.76999522
 30
0.0
  0
VERTEX
  8
0
  6
CONTINUOUS
 62
       7
  5
1EF
 10
21.08910624
 20
15.69281222
 30
0.0
  0
VERTEX
  8
0
  6
CONTINUOUS
 62
       7
  5
1F0
 10
21.2241765
 20
15.62208702
 30
0.0
  0
VERTEX
  8
0
  6
CONTINUOUS
 62
       7
  5
1F1
 10
21.36951996
 20
15.5583579
 30
0.0
  0
VERTEX
  8
0
  6
CONTINUOUS
 62
       7
  5
1F2
 10
21.52403048
 20
15.50210987
 30
0.0
  0
VERTEX
  8
0
  6
CONTINUOUS
 62
       7
  5
1F3
 10
21.68653213
 20
15.45377101
 30
0.0
  0
VERTEX
  8
0
  6
CONTINUOUS
 62
       7
  5
1F4
 10
21.85578818
 20
15.41370921
 30
0.0
  0
VERTEX
  8
0
  6
CONTINUOUS
 62
       7
  5
1F5
 10
22.03051048
 20
15.38222936
 30
0.0
  0
VERTEX
  8
0
  6
CONTINUOUS
 62
       7
  5
1F6
 10
22.2093693
 20
15.35957105
 30
0.0
  0
VERTEX
  8
0
  6
CONTINUOUS
 62
       7
  5
1F7
 10
22.39100342
 20
15.34590672
 30
0.0
  0
VERTEX
  8
0
  6
CONTINUOUS
 62
       7
  5
1F8
 10
22.57403048
 20
15.34134035
 30
0.0
  0
VERTEX
  8
0
  6
CONTINUOUS
 62
       7
  5
1F9
 10
22.75705754
 20
15.34590672
 30
0.0
  0
VERTEX
  8
0
  6
CONTINUOUS
 62
       7
  5
1FA
 10
22.93869165
 20
15.35957105
 30
0.0
  0
VERTEX
  8
0
  6
CONTINUOUS
 62
       7
  5
1FB
 10
23.11755047
 20
15.38222936
 30
0.0
  0
VERTEX
  8
0
  6
CONTINUOUS
 62
       7
  5
1FC
 10
23.29227278
 20
15.41370921
 30
0.0
  0
VERTEX
  8
0
  6
CONTINUOUS
 62
       7
  5
1FD
 10
23.46152883
 20
15.45377101
 30
0.0
  0
VERTEX
  8
0
  6
CONTINUOUS
 62
       7
  5
1FE
 10
23.62403048
 20
15.50210987
 30
0.0
  0
VERTEX
  8
0
  6
CONTINUOUS
 62
       7
  5
1FF
 10
23.77854099
 20
15.5583579
 30
0.0
  0
VERTEX
  8
0
  6
CONTINUOUS
 62
       7
  5
200
 10
23.92388446
 20
15.62208702
 30
0.0
  0
VERTEX
  8
0
  6
CONTINUOUS
 62
       7
  5
201
 10
24.05895472
 20
15.69281222
 30
0.0
  0
VERTEX
  8
0
  6
CONTINUOUS
 62
       7
  5
202
 10
24.18272381
 20
15.76999522
 30
0.0
  0
VERTEX
  8
0
  6
CONTINUOUS
 62
       7
  5
203
 10
24.29424977
 20
15.85304863
 30
0.0
  0
VERTEX
  8
0
  6
CONTINUOUS
 62
       7
  5
204
 10
24.39268383
 20
15.94134035
 30
0.0
  0
VERTEX
  8
0
  6
CONTINUOUS
 62
       7
  5
205
 10
24.47727683
 20
16.03419844
 30
0.0
  0
VERTEX
  8
0
  6
CONTINUOUS
 62
       7
  5
206
 10
24.54738498
 20
16.13091618
 30
0.0
  0
VERTEX
  8
0
  6
CONTINUOUS
 62
       7
  5
207
 10
24.60247471
 20
16.2307575
 30
0.0
  0
VERTEX
  8
0
  6
CONTINUOUS
 62
       7
  5
208
 10
24.64212676
 20
16.33296254
 30
0.0
  0
VERTEX
  8
0
  6
CONTINUOUS
 62
       7
  5
209
 10
24.66603934
 20
16.43675346
 30
0.0
  0
VERTEX
  8
0
  6
CONTINUOUS
 62
       7
  5
20A
 10
24.67403048
 20
16.54134035
 30
0.0
  0
VERTEX
  8
0
  6
CONTINUOUS
 62
       7
  5
20B
 10
24.66603934
 20
16.64592725
 30
0.0
  0
VERTEX
  8
0
  6
CONTINUOUS
 62
       7
  5
20C
 10
24.64212676
 20
16.74971817
 30
0.0
  0
VERTEX
  8
0
  6
CONTINUOUS
 62
       7
  5
20D
 10
24.60247471
 20
16.85192321
 30
0.0
  0
VERTEX
  8
0
  6
CONTINUOUS
 62
       7
  5
20E
 10
24.54738498
 20
16.95176453
 30
0.0
  0
VERTEX
  8
0
  6
CONTINUOUS
 62
       7
  5
20F
 10
24.47727683
 20
17.04848227
 30
0.0
  0
VERTEX
  8
0
  6
CONTINUOUS
 62
       7
  5
210
 10
24.39268383
 20
17.14134035
 30
0.0
  0
VERTEX
  8
0
  6
CONTINUOUS
 62
       7
  5
211
 10
24.29424977
 20
17.22963208
 30
0.0
  0
VERTEX
  8
0
  6
CONTINUOUS
 62
       7
  5
212
 10
24.18272381
 20
17.31268549
 30
0.0
  0
VERTEX
  8
0
  6
CONTINUOUS
 62
       7
  5
213
 10
24.05895472
 20
17.38986849
 30
0.0
  0
VERTEX
  8
0
  6
CONTINUOUS
 62
       7
  5
214
 10
23.92388446
 20
17.46059369
 30
0.0
  0
VERTEX
  8
0
  6
CONTINUOUS
 62
       7
  5
215
 10
23.77854099
 20
17.52432281
 30
0.0
  0
VERTEX
  8
0
  6
CONTINUOUS
 62
       7
  5
216
 10
23.62403048
 20
17.58057084
 30
0.0
  0
VERTEX
  8
0
  6
CONTINUOUS
 62
       7
  5
217
 10
23.46152883
 20
17.6289097
 30
0.0
  0
VERTEX
  8
0
  6
CONTINUOUS
 62
       7
  5
218
 10
23.29227278
 20
17.6689715
 30
0.0
  0
VERTEX
  8
0
  6
CONTINUOUS
 62
       7
  5
219
 10
23.11755047
 20
17.70045135
 30
0.0
  0
VERTEX
  8
0
  6
CONTINUOUS
 62
       7
  5
21A
 10
22.93869165
 20
17.72310966
 30
0.0
  0
VERTEX
  8
0
  6
CONTINUOUS
 62
       7
  5
21B
 10
22.75705754
 20
17.73677399
 30
0.0
  0
VERTEX
  8
0
  6
CONTINUOUS
 62
       7
  5
21C
 10
22.57403048
 20
17.74134035
 30
0.0
  0
VERTEX
  8
0
  6
CONTINUOUS
 62
       7
  5
21D
 10
22.39100342
 20
17.73677399
 30
0.0
  0
VERTEX
  8
0
  6
CONTINUOUS
 62
       7
  5
21E
 10
22.2093693
 20
17.72310966
 30
0.0
  0
VERTEX
  8
0
  6
CONTINUOUS
 62
       7
  5
21F
 10
22.03051048
 20
17.70045135
 30
0.0
  0
VERTEX
  8
0
  6
CONTINUOUS
 62
       7
  5
220
 10
21.85578818
 20
17.6689715
 30
0.0
  0
VERTEX
  8
0
  6
CONTINUOUS
 62
       7
  5
221
 10
21.68653213
 20
17.6289097
 30
0.0
  0
VERTEX
  8
0
  6
CONTINUOUS
 62
       7
  5
222
 10
21.52403048
 20
17.58057084
 30
0.0
  0
VERTEX
  8
0
  6
CONTINUOUS
 62
       7
  5
223
 10
21.36951996
 20
17.52432281
 30
0.0
  0
VERTEX
  8
0
  6
CONTINUOUS
 62
       7
  5
224
 10
21.2241765
 20
17.46059369
 30
0.0
  0
VERTEX
  8
0
  6
CONTINUOUS
 62
       7
  5
225
 10
21.08910624
 20
17.38986849
 30
0.0
  0
VERTEX
  8
0
  6
CONTINUOUS
 62
       7
  5
226
 10
20.96533715
 20
17.31268549
 30
0.0
  0
VERTEX
  8
0
  6
CONTINUOUS
 62
       7
  5
227
 10
20.85381118
 20
17.22963208
 30
0.0
  0
VERTEX
  8
0
  6
CONTINUOUS
 62
       7
  5
228
 10
20.75537713
 20
17.14134035
 30
0.0
  0
VERTEX
  8
0
  6
CONTINUOUS
 62
       7
  5
229
 10
20.67078412
 20
17.04848227
 30
0.0
  0
VERTEX
  8
0
  6
CONTINUOUS
 62
       7
  5
22A
 10
20.60067597
 20
16.95176453
 30
0.0
  0
VERTEX
  8
0
  6
CONTINUOUS
 62
       7
  5
22B
 10
20.54558624
 20
16.85192321
 30
0.0
  0
VERTEX
  8
0
  6
CONTINUOUS
 62
       7
  5
22C
 10
20.5059342
 20
16.74971817
 30
0.0
  0
VERTEX
  8
0
  6
CONTINUOUS
 62
       7
  5
22D
 10
20.48202161
 20
16.64592725
 30
0.0
  0
VERTEX
  8
0
  6
CONTINUOUS
 62
       7
  5
22E
 10
20.47403048
 20
16.54134035
 30
0.0
  0
SEQEND
  8
0
  6
CONTINUOUS
 62
       7
  5
22F
  0
POLYLINE
  8
0
  6
CONTINUOUS
 62
       2
  5
48
 66
       1
 10
0.0
 20
0.0
 30
0.0
 70
       1
  0
VERTEX
  8
0
  6
CONTINUOUS
 62
       2
  5
230
 10
30.07403048
 20
16.54134035
 30
0.0
  0
VERTEX
  8
0
  6
CONTINUOUS
 62
       2
  5
231
 10
30.08354373
 20
16.41060674
 30
0.0
  0
VERTEX
  8
0
  6
CONTINUOUS
 62
       2
  5
232
 10
30.11201109
 20
16.28086809
 30
0.0
  0
VERTEX
  8
0
  6
CONTINUOUS
 62
       2
  5
233
 10
30.15921591
 20
16.15311179
 30
0.0
  0
VERTEX
  8
0
  6
CONTINUOUS
 62
       2
  5
234
 10
30.22479893
 20
16.02831014
 30
0.0
  0
VERTEX
  8
0
  6
CONTINUOUS
 62
       2
  5
235
 10
30.30826101
 20
15.90741296
 30
0.0
  0
VERTEX
  8
0
  6
CONTINUOUS
 62
       2
  5
236
 10
30.40896697
 20
15.79134035
 30
0.0
  0
VERTEX
  8
0
  6
CONTINUOUS
 62
       2
  5
237
 10
30.52615037
 20
15.6809757
 30
0.0
  0
VERTEX
  8
0
  6
CONTINUOUS
 62
       2
  5
238
 10
30.65891937
 20
15.57715894
 30
0.0
  0
VERTEX
  8
0
  6
CONTINUOUS
 62
       2
  5
239
 10
30.80626352
 20
15.48068018
 30
0.0
  0
VERTEX
  8
0
  6
CONTINUOUS
 62
       2
  5
23A
 10
30.96706145
 20
15.39227369
 30
0.0
  0
VERTEX
  8
0
  6
CONTINUOUS
 62
       2
  5
23B
 10
31.14008939
 20
15.31261229
 30
0.0
  0
VERTEX
  8
0
  6
CONTINUOUS
 62
       2
  5
23C
 10
31.32403048
 20
15.24230225
 30
0.0
  0
VERTEX
  8
0
  6
CONTINUOUS
 62
       2
  5
23D
 10
31.51748482
 20
15.18187867
 30
0.0
  0
VERTEX
  8
0
  6
CONTINUOUS
 62
       2
  5
23E
 10
31.71898012
 20
15.13180142
 30
0.0
  0
VERTEX
  8
0
  6
CONTINUOUS
 62
       2
  5
23F
 10
31.92698286
 20
15.09245162
 30
0.0
  0
VERTEX
  8
0
  6
CONTINUOUS
 62
       2
  5
240
 10
32.13991003
 20
15.06412873
 30
0.0
  0
VERTEX
  8
0
  6
CONTINUOUS
 62
       2
  5
241
 10
32.35614112
 20
15.04704831
 30
0.0
  0
VERTEX
  8
0
  6
CONTINUOUS
 62
       2
  5
242
 10
32.57403048
 20
15.04134035
 30
0.0
  0
VERTEX
  8
0
  6
CONTINUOUS
 62
       2
  5
243
 10
32.79191983
 20
15.04704831
 30
0.0
  0
VERTEX
  8
0
  6
CONTINUOUS
 62
       2
  5
244
 10
33.00815092
 20
15.06412873
 30
0.0
  0
VERTEX
  8
0
  6
CONTINUOUS
 62
       2
  5
245
 10
33.22107809
 20
15.09245162
 30
0.0
  0
VERTEX
  8
0
  6
CONTINUOUS
 62
       2
  5
246
 10
33.42908084
 20
15.13180142
 30
0.0
  0
VERTEX
  8
0
  6
CONTINUOUS
 62
       2
  5
247
 10
33.63057613
 20
15.18187867
 30
0.0
  0
VERTEX
  8
0
  6
CONTINUOUS
 62
       2
  5
248
 10
33.82403048
 20
15.24230225
 30
0.0
  0
VERTEX
  8
0
  6
CONTINUOUS
 62
       2
  5
249
 10
34.00797157
 20
15.31261229
 30
0.0
  0
VERTEX
  8
0
  6
CONTINUOUS
 62
       2
  5
24A
 10
34.1809995
 20
15.39227369
 30
0.0
  0
VERTEX
  8
0
  6
CONTINUOUS
 62
       2
  5
24B
 10
34.34179743
 20
15.48068018
 30
0.0
  0
VERTEX
  8
0
  6
CONTINUOUS
 62
       2
  5
24C
 10
34.48914159
 20
15.57715894
 30
0.0
  0
VERTEX
  8
0
  6
CONTINUOUS
 62
       2
  5
24D
 10
34.62191059
 20
15.6809757
 30
0.0
  0
VERTEX
  8
0
  6
CONTINUOUS
 62
       2
  5
24E
 10
34.73909399
 20
15.79134035
 30
0.0
  0
VERTEX
  8
0
  6
CONTINUOUS
 62
       2
  5
24F
 10
34.83979995
 20
15.90741296
 30
0.0
  0
VERTEX
  8
0
  6
CONTINUOUS
 62
       2
  5
250
 10
34.92326203
 20
16.02831014
 30
0.0
  0
VERTEX
  8
0
  6
CONTINUOUS
 62
       2
  5
251
 10
34.98884504
 20
16.15311179
 30
0.0
  0
VERTEX
  8
0
  6
CONTINUOUS
 62
       2
  5
252
 10
35.03604986
 20
16.28086809
 30
0.0
  0
VERTEX
  8
0
  6
CONTINUOUS
 62
       2
  5
253
 10
35.06451722
 20
16.41060674
 30
0.0
  0
VERTEX
  8
0
  6
CONTINUOUS
 62
       2
  5
254
 10
35.07403048
 20
16.54134035
 30
0.0
  0
VERTEX
  8
0
  6
CONTINUOUS
 62
       2
  5
255
 10
35.06451722
 20
16.67207397
 30
0.0
  0
VERTEX
  8
0
  6
CONTINUOUS
 62
       2
  5
256
 10
35.03604986
 20
16.80181262
 30
0.0
  0
VERTEX
  8
0
  6
CONTINUOUS
 62
       2
  5
257
 10
34.98884504
 20
16.92956892
 30
0.0
  0
VERTEX
  8
0
  6
CONTINUOUS
 62
       2
  5
258
 10
34.92326203
 20
17.05437057
 30
0.0
  0
VERTEX
  8
0
  6
CONTINUOUS
 62
       2
  5
259
 10
34.83979995
 20
17.17526775
 30
0.0
  0
VERTEX
  8
0
  6
CONTINUOUS
 62
       2
  5
25A
 10
34.73909399
 20
17.29134035
 30
0.0
  0
VERTEX
  8
0
  6
CONTINUOUS
 62
       2
  5
25B
 10
34.62191059
 20
17.40170501
 30
0.0
  0
VERTEX
  8
0
  6
CONTINUOUS
 62
       2
  5
25C
 10
34.48914159
 20
17.50552177
 30
0.0
  0
VERTEX
  8
0
  6
CONTINUOUS
 62
       2
  5
25D
 10
34.34179743
 20
17.60200053
 30
0.0
  0
VERTEX
  8
0
  6
CONTINUOUS
 62
       2
  5
25E
 10
34.1809995
 20
17.69040702
 30
0.0
  0
VERTEX
  8
0
  6
CONTINUOUS
 62
       2
  5
25F
 10
34.00797157
 20
17.77006842
 30
0.0
  0
VERTEX
  8
0
  6
CONTINUOUS
 62
       2
  5
260
 10
33.82403048
 20
17.84037846
 30
0.0
  0
VERTEX
  8
0
  6
CONTINUOUS
 62
       2
  5
261
 10
33.63057613
 20
17.90080204
 30
0.0
  0
VERTEX
  8
0
  6
CONTINUOUS
 62
       2
  5
262
 10
33.42908084
 20
17.95087929
 30
0.0
  0
VERTEX
  8
0
  6
CONTINUOUS
 62
       2
  5
263
 10
33.22107809
 20
17.99022909
 30
0.0
  0
VERTEX
  8
0
  6
CONTINUOUS
 62
       2
  5
264
 10
33.00815092
 20
18.01855198
 30
0.0
  0
VERTEX
  8
0
  6
CONTINUOUS
 62
       2
  5
265
 10
32.79191983
 20
18.0356324
 30
0.0
  0
VERTEX
  8
0
  6
CONTINUOUS
 62
       2
  5
266
 10
32.57403048
 20
18.04134035
 30
0.0
  0
VERTEX
  8
0
  6
CONTINUOUS
 62
       2
  5
267
 10
32.35614112
 20
18.0356324
 30
0.0
  0
VERTEX
  8
0
  6
CONTINUOUS
 62
       2
  5
268
 10
32.13991003
 20
18.01855198
 30
0.0
  0
VERTEX
  8
0
  6
CONTINUOUS
 62
       2
  5
269
 10
31.92698286
 20
17.99022909
 30
0.0
  0
VERTEX
  8
0
  6
CONTINUOUS
 62
       2
  5
26A
 10
31.71898012
 20
17.95087929
 30
0.0
  0
VERTEX
  8
0
  6
CONTINUOUS
 62
       2
  5
26B
 10
31.51748482
 20
17.90080204
 30
0.0
  0
VERTEX
  8
0
  6
CONTINUOUS
 62
       2
  5
26C
 10
31.32403048
 20
17.84037846
 30
0.0
  0
VERTEX
  8
0
  6
CONTINUOUS
 62
       2
  5
26D
 10
31.14008939
 20
17.77006842
 30
0.0
  0
VERTEX
  8
0
  6
CONTINUOUS
 62
       2
  5
26E
 10
30.96706145
 20
17.69040702
 30
0.0
  0
VERTEX
  8
0
  6
CONTINUOUS
 62
       2
  5
26F
 10
30.80626352
 20
17.60200053
 30
0.0
  0
VERTEX
  8
0
  6
CONTINUOUS
 62
       2
  5
270
 10
30.65891937
 20
17.50552177
 30
0.0
  0
VERTEX
  8
0
  6
CONTINUOUS
 62
       2
  5
271
 10
30.52615037
 20
17.40170501
 30
0.0
  0
VERTEX
  8
0
  6
CONTINUOUS
 62
       2
  5
272
 10
30.40896697
 20
17.29134035
 30
0.0
  0
VERTEX
  8
0
  6
CONTINUOUS
 62
       2
  5
273
 10
30.30826101
 20
17.17526775
 30
0.0
  0
VERTEX
  8
0
  6
CONTINUOUS
 62
       2
  5
274
 10
30.22479893
 20
17.05437057
 30
0.0
  0
VERTEX
  8
0
  6
CONTINUOUS
 62
       2
  5
275
 10
30.15921591
 20
16.92956892
 30
0.0
  0
VERTEX
  8
0
  6
CONTINUOUS
 62
       2
  5
276
 10
30.11201109
 20
16.80181262
 30
0.0
  0
VERTEX
  8
0
  6
CONTINUOUS
 62
       2
  5
277
 10
30.08354373
 20
16.67207397
 30
0.0
  0
VERTEX
  8
0
  6
CONTINUOUS
 62
       2
  5
278
 10
30.07403048
 20
16.54134035
 30
0.0
  0
SEQEND
  8
0
  6
CONTINUOUS
 62
       2
  5
279
  0
POLYLINE
  8
0
  6
CONTINUOUS
 62
       7
  5
49
 66
       1
 10
0.0
 20
0.0
 30
0.0
 70
       1
  0
VERTEX
  8
0
  6
CONTINUOUS
 62
       7
  5
27A
 10
30.47403048
 20
16.54134035
 30
0.0
  0
VERTEX
  8
0
  6
CONTINUOUS
 62
       7
  5
27B
 10
30.48202161
 20
16.43675346
 30
0.0
  0
VERTEX
  8
0
  6
CONTINUOUS
 62
       7
  5
27C
 10
30.5059342
 20
16.33296254
 30
0.0
  0
VERTEX
  8
0
  6
CONTINUOUS
 62
       7
  5
27D
 10
30.54558624
 20
16.2307575
 30
0.0
  0
VERTEX
  8
0
  6
CONTINUOUS
 62
       7
  5
27E
 10
30.60067597
 20
16.13091618
 30
0.0
  0
VERTEX
  8
0
  6
CONTINUOUS
 62
       7
  5
27F
 10
30.67078412
 20
16.03419844
 30
0.0
  0
VERTEX
  8
0
  6
CONTINUOUS
 62
       7
  5
280
 10
30.75537713
 20
15.94134035
 30
0.0
  0
VERTEX
  8
0
  6
CONTINUOUS
 62
       7
  5
281
 10
30.85381118
 20
15.85304863
 30
0.0
  0
VERTEX
  8
0
  6
CONTINUOUS
 62
       7
  5
282
 10
30.96533715
 20
15.76999522
 30
0.0
  0
VERTEX
  8
0
  6
CONTINUOUS
 62
       7
  5
283
 10
31.08910624
 20
15.69281222
 30
0.0
  0
VERTEX
  8
0
  6
CONTINUOUS
 62
       7
  5
284
 10
31.2241765
 20
15.62208702
 30
0.0
  0
VERTEX
  8
0
  6
CONTINUOUS
 62
       7
  5
285
 10
31.36951996
 20
15.5583579
 30
0.0
  0
VERTEX
  8
0
  6
CONTINUOUS
 62
       7
  5
286
 10
31.52403048
 20
15.50210987
 30
0.0
  0
VERTEX
  8
0
  6
CONTINUOUS
 62
       7
  5
287
 10
31.68653213
 20
15.45377101
 30
0.0
  0
VERTEX
  8
0
  6
CONTINUOUS
 62
       7
  5
288
 10
31.85578818
 20
15.41370921
 30
0.0
  0
VERTEX
  8
0
  6
CONTINUOUS
 62
       7
  5
289
 10
32.03051048
 20
15.38222936
 30
0.0
  0
VERTEX
  8
0
  6
CONTINUOUS
 62
       7
  5
28A
 10
32.2093693
 20
15.35957105
 30
0.0
  0
VERTEX
  8
0
  6
CONTINUOUS
 62
       7
  5
28B
 10
32.39100342
 20
15.34590672
 30
0.0
  0
VERTEX
  8
0
  6
CONTINUOUS
 62
       7
  5
28C
 10
32.57403048
 20
15.34134035
 30
0.0
  0
VERTEX
  8
0
  6
CONTINUOUS
 62
       7
  5
28D
 10
32.75705754
 20
15.34590672
 30
0.0
  0
VERTEX
  8
0
  6
CONTINUOUS
 62
       7
  5
28E
 10
32.93869165
 20
15.35957105
 30
0.0
  0
VERTEX
  8
0
  6
CONTINUOUS
 62
       7
  5
28F
 10
33.11755047
 20
15.38222936
 30
0.0
  0
VERTEX
  8
0
  6
CONTINUOUS
 62
       7
  5
290
 10
33.29227278
 20
15.41370921
 30
0.0
  0
VERTEX
  8
0
  6
CONTINUOUS
 62
       7
  5
291
 10
33.46152883
 20
15.45377101
 30
0.0
  0
VERTEX
  8
0
  6
CONTINUOUS
 62
       7
  5
292
 10
33.62403048
 20
15.50210987
 30
0.0
  0
VERTEX
  8
0
  6
CONTINUOUS
 62
       7
  5
293
 10
33.77854099
 20
15.5583579
 30
0.0
  0
VERTEX
  8
0
  6
CONTINUOUS
 62
       7
  5
294
 10
33.92388446
 20
15.62208702
 30
0.0
  0
VERTEX
  8
0
  6
CONTINUOUS
 62
       7
  5
295
 10
34.05895472
 20
15.69281222
 30
0.0
  0
VERTEX
  8
0
  6
CONTINUOUS
 62
       7
  5
296
 10
34.18272381
 20
15.76999522
 30
0.0
  0
VERTEX
  8
0
  6
CONTINUOUS
 62
       7
  5
297
 10
34.29424977
 20
15.85304863
 30
0.0
  0
VERTEX
  8
0
  6
CONTINUOUS
 62
       7
  5
298
 10
34.39268383
 20
15.94134035
 30
0.0
  0
VERTEX
  8
0
  6
CONTINUOUS
 62
       7
  5
299
 10
34.47727683
 20
16.03419844
 30
0.0
  0
VERTEX
  8
0
  6
CONTINUOUS
 62
       7
  5
29A
 10
34.54738498
 20
16.13091618
 30
0.0
  0
VERTEX
  8
0
  6
CONTINUOUS
 62
       7
  5
29B
 10
34.60247471
 20
16.2307575
 30
0.0
  0
VERTEX
  8
0
  6
CONTINUOUS
 62
       7
  5
29C
 10
34.64212676
 20
16.33296254
 30
0.0
  0
VERTEX
  8
0
  6
CONTINUOUS
 62
       7
  5
29D
 10
34.66603934
 20
16.43675346
 30
0.0
  0
VERTEX
  8
0
  6
CONTINUOUS
 62
       7
  5
29E
 10
34.67403048
 20
16.54134035
 30
0.0
  0
VERTEX
  8
0
  6
CONTINUOUS
 62
       7
  5
29F
 10
34.66603934
 20
16.64592725
 30
0.0
  0
VERTEX
  8
0
  6
CONTINUOUS
 62
       7
  5
2A0
 10
34.64212676
 20
16.74971817
 30
0.0
  0
VERTEX
  8
0
  6
CONTINUOUS
 62
       7
  5
2A1
 10
34.60247471
 20
16.85192321
 30
0.0
  0
VERTEX
  8
0
  6
CONTINUOUS
 62
       7
  5
2A2
 10
34.54738498
 20
16.95176453
 30
0.0
  0
VERTEX
  8
0
  6
CONTINUOUS
 62
       7
  5
2A3
 10
34.47727683
 20
17.04848227
 30
0.0
  0
VERTEX
  8
0
  6
CONTINUOUS
 62
       7
  5
2A4
 10
34.39268383
 20
17.14134035
 30
0.0
  0
VERTEX
  8
0
  6
CONTINUOUS
 62
       7
  5
2A5
 10
34.29424977
 20
17.22963208
 30
0.0
  0
VERTEX
  8
0
  6
CONTINUOUS
 62
       7
  5
2A6
 10
34.18272381
 20
17.31268549
 30
0.0
  0
VERTEX
  8
0
  6
CONTINUOUS
 62
       7
  5
2A7
 10
34.05895472
 20
17.38986849
 30
0.0
  0
VERTEX
  8
0
  6
CONTINUOUS
 62
       7
  5
2A8
 10
33.92388446
 20
17.46059369
 30
0.0
  0
VERTEX
  8
0
  6
CONTINUOUS
 62
       7
  5
2A9
 10
33.77854099
 20
17.52432281
 30
0.0
  0
VERTEX
  8
0
  6
CONTINUOUS
 62
       7
  5
2AA
 10
33.62403048
 20
17.58057084
 30
0.0
  0
VERTEX
  8
0
  6
CONTINUOUS
 62
       7
  5
2AB
 10
33.46152883
 20
17.6289097
 30
0.0
  0
VERTEX
  8
0
  6
CONTINUOUS
 62
       7
  5
2AC
 10
33.29227278
 20
17.6689715
 30
0.0
  0
VERTEX
  8
0
  6
CONTINUOUS
 62
       7
  5
2AD
 10
33.11755047
 20
17.70045135
 30
0.0
  0
VERTEX
  8
0
  6
CONTINUOUS
 62
       7
  5
2AE
 10
32.93869165
 20
17.72310966
 30
0.0
  0
VERTEX
  8
0
  6
CONTINUOUS
 62
       7
  5
2AF
 10
32.75705754
 20
17.73677399
 30
0.0
  0
VERTEX
  8
0
  6
CONTINUOUS
 62
       7
  5
2B0
 10
32.57403048
 20
17.74134035
 30
0.0
  0
VERTEX
  8
0
  6
CONTINUOUS
 62
       7
  5
2B1
 10
32.39100342
 20
17.73677399
 30
0.0
  0
VERTEX
  8
0
  6
CONTINUOUS
 62
       7
  5
2B2
 10
32.2093693
 20
17.72310966
 30
0.0
  0
VERTEX
  8
0
  6
CONTINUOUS
 62
       7
  5
2B3
 10
32.03051048
 20
17.70045135
 30
0.0
  0
VERTEX
  8
0
  6
CONTINUOUS
 62
       7
  5
2B4
 10
31.85578818
 20
17.6689715
 30
0.0
  0
VERTEX
  8
0
  6
CONTINUOUS
 62
       7
  5
2B5
 10
31.68653213
 20
17.6289097
 30
0.0
  0
VERTEX
  8
0
  6
CONTINUOUS
 62
       7
  5
2B6
 10
31.52403048
 20
17.58057084
 30
0.0
  0
VERTEX
  8
0
  6
CONTINUOUS
 62
       7
  5
2B7
 10
31.36951996
 20
17.52432281
 30
0.0
  0
VERTEX
  8
0
  6
CONTINUOUS
 62
       7
  5
2B8
 10
31.2241765
 20
17.46059369
 30
0.0
  0
VERTEX
  8
0
  6
CONTINUOUS
 62
       7
  5
2B9
 10
31.08910624
 20
17.38986849
 30
0.0
  0
VERTEX
  8
0
  6
CONTINUOUS
 62
       7
  5
2BA
 10
30.96533715
 20
17.31268549
 30
0.0
  0
VERTEX
  8
0
  6
CONTINUOUS
 62
       7
  5
2BB
 10
30.85381118
 20
17.22963208
 30
0.0
  0
VERTEX
  8
0
  6
CONTINUOUS
 62
       7
  5
2BC
 10
30.75537713
 20
17.14134035
 30
0.0
  0
VERTEX
  8
0
  6
CONTINUOUS
 62
       7
  5
2BD
 10
30.67078412
 20
17.04848227
 30
0.0
  0
VERTEX
  8
0
  6
CONTINUOUS
 62
       7
  5
2BE
 10
30.60067597
 20
16.95176453
 30
0.0
  0
VERTEX
  8
0
  6
CONTINUOUS
 62
       7
  5
2BF
 10
30.54558624
 20
16.85192321
 30
0.0
  0
VERTEX
  8
0
  6
CONTINUOUS
 62
       7
  5
2C0
 10
30.5059342
 20
16.74971817
 30
0.0
  0
VERTEX
  8
0
  6
CONTINUOUS
 62
       7
  5
2C1
 10
30.48202161
 20
16.64592725
 30
0.0
  0
VERTEX
  8
0
  6
CONTINUOUS
 62
       7
  5
2C2
 10
30.47403048
 20
16.54134035
 30
0.0
  0
SEQEND
  8
0
  6
CONTINUOUS
 62
       7
  5
2C3
  0
POLYLINE
  8
0
  6
CONTINUOUS
 62
       2
  5
4A
 66
       1
 10
0.0
 20
0.0
 30
0.0
 70
       1
  0
VERTEX
  8
0
  6
CONTINUOUS
 62
       2
  5
2C4
 10
35.07403048
 20
-6.84134341
 30
0.0
  0
VERTEX
  8
0
  6
CONTINUOUS
 62
       2
  5
2C5
 10
35.06451722
 20
-6.71060979
 30
0.0
  0
VERTEX
  8
0
  6
CONTINUOUS
 62
       2
  5
2C6
 10
35.03604986
 20
-6.58087114
 30
0.0
  0
VERTEX
  8
0
  6
CONTINUOUS
 62
       2
  5
2C7
 10
34.98884504
 20
-6.45311484
 30
0.0
  0
VERTEX
  8
0
  6
CONTINUOUS
 62
       2
  5
2C8
 10
34.92326203
 20
-6.32831319
 30
0.0
  0
VERTEX
  8
0
  6
CONTINUOUS
 62
       2
  5
2C9
 10
34.83979995
 20
-6.20741601
 30
0.0
  0
VERTEX
  8
0
  6
CONTINUOUS
 62
       2
  5
2CA
 10
34.73909399
 20
-6.09134341
 30
0.0
  0
VERTEX
  8
0
  6
CONTINUOUS
 62
       2
  5
2CB
 10
34.62191059
 20
-5.98097875
 30
0.0
  0
VERTEX
  8
0
  6
CONTINUOUS
 62
       2
  5
2CC
 10
34.48914159
 20
-5.87716199
 30
0.0
  0
VERTEX
  8
0
  6
CONTINUOUS
 62
       2
  5
2CD
 10
34.34179743
 20
-5.78068323
 30
0.0
  0
VERTEX
  8
0
  6
CONTINUOUS
 62
       2
  5
2CE
 10
34.1809995
 20
-5.69227674
 30
0.0
  0
VERTEX
  8
0
  6
CONTINUOUS
 62
       2
  5
2CF
 10
34.00797157
 20
-5.61261534
 30
0.0
  0
VERTEX
  8
0
  6
CONTINUOUS
 62
       2
  5
2D0
 10
33.82403048
 20
-5.5423053
 30
0.0
  0
VERTEX
  8
0
  6
CONTINUOUS
 62
       2
  5
2D1
 10
33.63057613
 20
-5.48188173
 30
0.0
  0
VERTEX
  8
0
  6
CONTINUOUS
 62
       2
  5
2D2
 10
33.42908084
 20
-5.43180448
 30
0.0
  0
VERTEX
  8
0
  6
CONTINUOUS
 62
       2
  5
2D3
 10
33.22107809
 20
-5.39245467
 30
0.0
  0
VERTEX
  8
0
  6
CONTINUOUS
 62
       2
  5
2D4
 10
33.00815092
 20
-5.36413178
 30
0.0
  0
VERTEX
  8
0
  6
CONTINUOUS
 62
       2
  5
2D5
 10
32.79191983
 20
-5.34705136
 30
0.0
  0
VERTEX
  8
0
  6
CONTINUOUS
 62
       2
  5
2D6
 10
32.57403048
 20
-5.34134341
 30
0.0
  0
VERTEX
  8
0
  6
CONTINUOUS
 62
       2
  5
2D7
 10
32.35614112
 20
-5.34705136
 30
0.0
  0
VERTEX
  8
0
  6
CONTINUOUS
 62
       2
  5
2D8
 10
32.13991003
 20
-5.36413178
 30
0.0
  0
VERTEX
  8
0
  6
CONTINUOUS
 62
       2
  5
2D9
 10
31.92698286
 20
-5.39245467
 30
0.0
  0
VERTEX
  8
0
  6
CONTINUOUS
 62
       2
  5
2DA
 10
31.71898012
 20
-5.43180448
 30
0.0
  0
VERTEX
  8
0
  6
CONTINUOUS
 62
       2
  5
2DB
 10
31.51748482
 20
-5.48188173
 30
0.0
  0
VERTEX
  8
0
  6
CONTINUOUS
 62
       2
  5
2DC
 10
31.32403048
 20
-5.5423053
 30
0.0
  0
VERTEX
  8
0
  6
CONTINUOUS
 62
       2
  5
2DD
 10
31.14008939
 20
-5.61261534
 30
0.0
  0
VERTEX
  8
0
  6
CONTINUOUS
 62
       2
  5
2DE
 10
30.96706145
 20
-5.69227674
 30
0.0
  0
VERTEX
  8
0
  6
CONTINUOUS
 62
       2
  5
2DF
 10
30.80626352
 20
-5.78068323
 30
0.0
  0
VERTEX
  8
0
  6
CONTINUOUS
 62
       2
  5
2E0
 10
30.65891937
 20
-5.87716199
 30
0.0
  0
VERTEX
  8
0
  6
CONTINUOUS
 62
       2
  5
2E1
 10
30.52615037
 20
-5.98097875
 30
0.0
  0
VERTEX
  8
0
  6
CONTINUOUS
 62
       2
  5
2E2
 10
30.40896697
 20
-6.09134341
 30
0.0
  0
VERTEX
  8
0
  6
CONTINUOUS
 62
       2
  5
2E3
 10
30.30826101
 20
-6.20741601
 30
0.0
  0
VERTEX
  8
0
  6
CONTINUOUS
 62
       2
  5
2E4
 10
30.22479893
 20
-6.32831319
 30
0.0
  0
VERTEX
  8
0
  6
CONTINUOUS
 62
       2
  5
2E5
 10
30.15921591
 20
-6.45311484
 30
0.0
  0
VERTEX
  8
0
  6
CONTINUOUS
 62
       2
  5
2E6
 10
30.11201109
 20
-6.58087114
 30
0.0
  0
VERTEX
  8
0
  6
CONTINUOUS
 62
       2
  5
2E7
 10
30.08354373
 20
-6.71060979
 30
0.0
  0
VERTEX
  8
0
  6
CONTINUOUS
 62
       2
  5
2E8
 10
30.07403048
 20
-6.84134341
 30
0.0
  0
VERTEX
  8
0
  6
CONTINUOUS
 62
       2
  5
2E9
 10
30.08354373
 20
-6.97207702
 30
0.0
  0
VERTEX
  8
0
  6
CONTINUOUS
 62
       2
  5
2EA
 10
30.11201109
 20
-7.10181567
 30
0.0
  0
VERTEX
  8
0
  6
CONTINUOUS
 62
       2
  5
2EB
 10
30.15921591
 20
-7.22957197
 30
0.0
  0
VERTEX
  8
0
  6
CONTINUOUS
 62
       2
  5
2EC
 10
30.22479893
 20
-7.35437362
 30
0.0
  0
VERTEX
  8
0
  6
CONTINUOUS
 62
       2
  5
2ED
 10
30.30826101
 20
-7.4752708
 30
0.0
  0
VERTEX
  8
0
  6
CONTINUOUS
 62
       2
  5
2EE
 10
30.40896697
 20
-7.59134341
 30
0.0
  0
VERTEX
  8
0
  6
CONTINUOUS
 62
       2
  5
2EF
 10
30.52615037
 20
-7.70170806
 30
0.0
  0
VERTEX
  8
0
  6
CONTINUOUS
 62
       2
  5
2F0
 10
30.65891937
 20
-7.80552482
 30
0.0
  0
VERTEX
  8
0
  6
CONTINUOUS
 62
       2
  5
2F1
 10
30.80626352
 20
-7.90200358
 30
0.0
  0
VERTEX
  8
0
  6
CONTINUOUS
 62
       2
  5
2F2
 10
30.96706145
 20
-7.99041007
 30
0.0
  0
VERTEX
  8
0
  6
CONTINUOUS
 62
       2
  5
2F3
 10
31.14008939
 20
-8.07007147
 30
0.0
  0
VERTEX
  8
0
  6
CONTINUOUS
 62
       2
  5
2F4
 10
31.32403048
 20
-8.14038151
 30
0.0
  0
VERTEX
  8
0
  6
CONTINUOUS
 62
       2
  5
2F5
 10
31.51748482
 20
-8.20080509
 30
0.0
  0
VERTEX
  8
0
  6
CONTINUOUS
 62
       2
  5
2F6
 10
31.71898012
 20
-8.25088234
 30
0.0
  0
VERTEX
  8
0
  6
CONTINUOUS
 62
       2
  5
2F7
 10
31.92698286
 20
-8.29023215
 30
0.0
  0
VERTEX
  8
0
  6
CONTINUOUS
 62
       2
  5
2F8
 10
32.13991003
 20
-8.31855504
 30
0.0
  0
VERTEX
  8
0
  6
CONTINUOUS
 62
       2
  5
2F9
 10
32.35614112
 20
-8.33563545
 30
0.0
  0
VERTEX
  8
0
  6
CONTINUOUS
 62
       2
  5
2FA
 10
32.57403048
 20
-8.34134341
 30
0.0
  0
VERTEX
  8
0
  6
CONTINUOUS
 62
       2
  5
2FB
 10
32.79191983
 20
-8.33563545
 30
0.0
  0
VERTEX
  8
0
  6
CONTINUOUS
 62
       2
  5
2FC
 10
33.00815092
 20
-8.31855504
 30
0.0
  0
VERTEX
  8
0
  6
CONTINUOUS
 62
       2
  5
2FD
 10
33.22107809
 20
-8.29023215
 30
0.0
  0
VERTEX
  8
0
  6
CONTINUOUS
 62
       2
  5
2FE
 10
33.42908084
 20
-8.25088234
 30
0.0
  0
VERTEX
  8
0
  6
CONTINUOUS
 62
       2
  5
2FF
 10
33.63057613
 20
-8.20080509
 30
0.0
  0
VERTEX
  8
0
  6
CONTINUOUS
 62
       2
  5
300
 10
33.82403048
 20
-8.14038151
 30
0.0
  0
VERTEX
  8
0
  6
CONTINUOUS
 62
       2
  5
301
 10
34.00797157
 20
-8.07007147
 30
0.0
  0
VERTEX
  8
0
  6
CONTINUOUS
 62
       2
  5
302
 10
34.1809995
 20
-7.99041007
 30
0.0
  0
VERTEX
  8
0
  6
CONTINUOUS
 62
       2
  5
303
 10
34.34179743
 20
-7.90200358
 30
0.0
  0
VERTEX
  8
0
  6
CONTINUOUS
 62
       2
  5
304
 10
34.48914159
 20
-7.80552482
 30
0.0
  0
VERTEX
  8
0
  6
CONTINUOUS
 62
       2
  5
305
 10
34.62191059
 20
-7.70170806
 30
0.0
  0
VERTEX
  8
0
  6
CONTINUOUS
 62
       2
  5
306
 10
34.73909399
 20
-7.59134341
 30
0.0
  0
VERTEX
  8
0
  6
CONTINUOUS
 62
       2
  5
307
 10
34.83979995
 20
-7.4752708
 30
0.0
  0
VERTEX
  8
0
  6
CONTINUOUS
 62
       2
  5
308
 10
34.92326203
 20
-7.35437362
 30
0.0
  0
VERTEX
  8
0
  6
CONTINUOUS
 62
       2
  5
309
 10
34.98884504
 20
-7.22957197
 30
0.0
  0
VERTEX
  8
0
  6
CONTINUOUS
 62
       2
  5
30A
 10
35.03604986
 20
-7.10181567
 30
0.0
  0
VERTEX
  8
0
  6
CONTINUOUS
 62
       2
  5
30B
 10
35.06451722
 20
-6.97207702
 30
0.0
  0
VERTEX
  8
0
  6
CONTINUOUS
 62
       2
  5
30C
 10
35.07403048
 20
-6.84134341
 30
0.0
  0
SEQEND
  8
0
  6
CONTINUOUS
 62
       2
  5
30D
  0
POLYLINE
  8
0
  6
CONTINUOUS
 62
       7
  5
4B
 66
       1
 10
0.0
 20
0.0
 30
0.0
 70
       1
  0
VERTEX
  8
0
  6
CONTINUOUS
 62
       7
  5
30E
 10
34.67403048
 20
-6.84134341
 30
0.0
  0
VERTEX
  8
0
  6
CONTINUOUS
 62
       7
  5
30F
 10
34.66603934
 20
-6.73675652
 30
0.0
  0
VERTEX
  8
0
  6
CONTINUOUS
 62
       7
  5
310
 10
34.64212676
 20
-6.63296559
 30
0.0
  0
VERTEX
  8
0
  6
CONTINUOUS
 62
       7
  5
311
 10
34.60247471
 20
-6.53076055
 30
0.0
  0
VERTEX
  8
0
  6
CONTINUOUS
 62
       7
  5
312
 10
34.54738498
 20
-6.43091923
 30
0.0
  0
VERTEX
  8
0
  6
CONTINUOUS
 62
       7
  5
313
 10
34.47727683
 20
-6.33420149
 30
0.0
  0
VERTEX
  8
0
  6
CONTINUOUS
 62
       7
  5
314
 10
34.39268383
 20
-6.24134341
 30
0.0
  0
VERTEX
  8
0
  6
CONTINUOUS
 62
       7
  5
315
 10
34.29424977
 20
-6.15305168
 30
0.0
  0
VERTEX
  8
0
  6
CONTINUOUS
 62
       7
  5
316
 10
34.18272381
 20
-6.06999827
 30
0.0
  0
VERTEX
  8
0
  6
CONTINUOUS
 62
       7
  5
317
 10
34.05895472
 20
-5.99281527
 30
0.0
  0
VERTEX
  8
0
  6
CONTINUOUS
 62
       7
  5
318
 10
33.92388446
 20
-5.92209007
 30
0.0
  0
VERTEX
  8
0
  6
CONTINUOUS
 62
       7
  5
319
 10
33.77854099
 20
-5.85836095
 30
0.0
  0
VERTEX
  8
0
  6
CONTINUOUS
 62
       7
  5
31A
 10
33.62403048
 20
-5.80211292
 30
0.0
  0
VERTEX
  8
0
  6
CONTINUOUS
 62
       7
  5
31B
 10
33.46152883
 20
-5.75377406
 30
0.0
  0
VERTEX
  8
0
  6
CONTINUOUS
 62
       7
  5
31C
 10
33.29227278
 20
-5.71371226
 30
0.0
  0
VERTEX
  8
0
  6
CONTINUOUS
 62
       7
  5
31D
 10
33.11755047
 20
-5.68223241
 30
0.0
  0
VERTEX
  8
0
  6
CONTINUOUS
 62
       7
  5
31E
 10
32.93869165
 20
-5.6595741
 30
0.0
  0
VERTEX
  8
0
  6
CONTINUOUS
 62
       7
  5
31F
 10
32.75705754
 20
-5.64590977
 30
0.0
  0
VERTEX
  8
0
  6
CONTINUOUS
 62
       7
  5
320
 10
32.57403048
 20
-5.64134341
 30
0.0
  0
VERTEX
  8
0
  6
CONTINUOUS
 62
       7
  5
321
 10
32.39100342
 20
-5.64590977
 30
0.0
  0
VERTEX
  8
0
  6
CONTINUOUS
 62
       7
  5
322
 10
32.2093693
 20
-5.6595741
 30
0.0
  0
VERTEX
  8
0
  6
CONTINUOUS
 62
       7
  5
323
 10
32.03051048
 20
-5.68223241
 30
0.0
  0
VERTEX
  8
0
  6
CONTINUOUS
 62
       7
  5
324
 10
31.85578818
 20
-5.71371226
 30
0.0
  0
VERTEX
  8
0
  6
CONTINUOUS
 62
       7
  5
325
 10
31.68653213
 20
-5.75377406
 30
0.0
  0
VERTEX
  8
0
  6
CONTINUOUS
 62
       7
  5
326
 10
31.52403048
 20
-5.80211292
 30
0.0
  0
VERTEX
  8
0
  6
CONTINUOUS
 62
       7
  5
327
 10
31.36951996
 20
-5.85836095
 30
0.0
  0
VERTEX
  8
0
  6
CONTINUOUS
 62
       7
  5
328
 10
31.2241765
 20
-5.92209007
 30
0.0
  0
VERTEX
  8
0
  6
CONTINUOUS
 62
       7
  5
329
 10
31.08910624
 20
-5.99281527
 30
0.0
  0
VERTEX
  8
0
  6
CONTINUOUS
 62
       7
  5
32A
 10
30.96533715
 20
-6.06999827
 30
0.0
  0
VERTEX
  8
0
  6
CONTINUOUS
 62
       7
  5
32B
 10
30.85381118
 20
-6.15305168
 30
0.0
  0
VERTEX
  8
0
  6
CONTINUOUS
 62
       7
  5
32C
 10
30.75537713
 20
-6.24134341
 30
0.0
  0
VERTEX
  8
0
  6
CONTINUOUS
 62
       7
  5
32D
 10
30.67078412
 20
-6.33420149
 30
0.0
  0
VERTEX
  8
0
  6
CONTINUOUS
 62
       7
  5
32E
 10
30.60067597
 20
-6.43091923
 30
0.0
  0
VERTEX
  8
0
  6
CONTINUOUS
 62
       7
  5
32F
 10
30.54558624
 20
-6.53076055
 30
0.0
  0
VERTEX
  8
0
  6
CONTINUOUS
 62
       7
  5
330
 10
30.5059342
 20
-6.63296559
 30
0.0
  0
VERTEX
  8
0
  6
CONTINUOUS
 62
       7
  5
331
 10
30.48202161
 20
-6.73675652
 30
0.0
  0
VERTEX
  8
0
  6
CONTINUOUS
 62
       7
  5
332
 10
30.47403048
 20
-6.84134341
 30
0.0
  0
VERTEX
  8
0
  6
CONTINUOUS
 62
       7
  5
333
 10
30.48202161
 20
-6.9459303
 30
0.0
  0
VERTEX
  8
0
  6
CONTINUOUS
 62
       7
  5
334
 10
30.5059342
 20
-7.04972122
 30
0.0
  0
VERTEX
  8
0
  6
CONTINUOUS
 62
       7
  5
335
 10
30.54558624
 20
-7.15192626
 30
0.0
  0
VERTEX
  8
0
  6
CONTINUOUS
 62
       7
  5
336
 10
30.60067597
 20
-7.25176758
 30
0.0
  0
VERTEX
  8
0
  6
CONTINUOUS
 62
       7
  5
337
 10
30.67078412
 20
-7.34848532
 30
0.0
  0
VERTEX
  8
0
  6
CONTINUOUS
 62
       7
  5
338
 10
30.75537713
 20
-7.44134341
 30
0.0
  0
VERTEX
  8
0
  6
CONTINUOUS
 62
       7
  5
339
 10
30.85381118
 20
-7.52963513
 30
0.0
  0
VERTEX
  8
0
  6
CONTINUOUS
 62
       7
  5
33A
 10
30.96533715
 20
-7.61268854
 30
0.0
  0
VERTEX
  8
0
  6
CONTINUOUS
 62
       7
  5
33B
 10
31.08910624
 20
-7.68987154
 30
0.0
  0
VERTEX
  8
0
  6
CONTINUOUS
 62
       7
  5
33C
 10
31.2241765
 20
-7.76059674
 30
0.0
  0
VERTEX
  8
0
  6
CONTINUOUS
 62
       7
  5
33D
 10
31.36951996
 20
-7.82432586
 30
0.0
  0
VERTEX
  8
0
  6
CONTINUOUS
 62
       7
  5
33E
 10
31.52403048
 20
-7.88057389
 30
0.0
  0
VERTEX
  8
0
  6
CONTINUOUS
 62
       7
  5
33F
 10
31.68653213
 20
-7.92891275
 30
0.0
  0
VERTEX
  8
0
  6
CONTINUOUS
 62
       7
  5
340
 10
31.85578818
 20
-7.96897455
 30
0.0
  0
VERTEX
  8
0
  6
CONTINUOUS
 62
       7
  5
341
 10
32.03051048
 20
-8.0004544
 30
0.0
  0
VERTEX
  8
0
  6
CONTINUOUS
 62
       7
  5
342
 10
32.2093693
 20
-8.02311271
 30
0.0
  0
VERTEX
  8
0
  6
CONTINUOUS
 62
       7
  5
343
 10
32.39100342
 20
-8.03677704
 30
0.0
  0
VERTEX
  8
0
  6
CONTINUOUS
 62
       7
  5
344
 10
32.57403048
 20
-8.04134341
 30
0.0
  0
VERTEX
  8
0
  6
CONTINUOUS
 62
       7
  5
345
 10
32.75705754
 20
-8.03677704
 30
0.0
  0
VERTEX
  8
0
  6
CONTINUOUS
 62
       7
  5
346
 10
32.93869165
 20
-8.02311271
 30
0.0
  0
VERTEX
  8
0
  6
CONTINUOUS
 62
       7
  5
347
 10
33.11755047
 20
-8.0004544
 30
0.0
  0
VERTEX
  8
0
  6
CONTINUOUS
 62
       7
  5
348
 10
33.29227278
 20
-7.96897455
 30
0.0
  0
VERTEX
  8
0
  6
CONTINUOUS
 62
       7
  5
349
 10
33.46152883
 20
-7.92891275
 30
0.0
  0
VERTEX
  8
0
  6
CONTINUOUS
 62
       7
  5
34A
 10
33.62403048
 20
-7.88057389
 30
0.0
  0
VERTEX
  8
0
  6
CONTINUOUS
 62
       7
  5
34B
 10
33.77854099
 20
-7.82432586
 30
0.0
  0
VERTEX
  8
0
  6
CONTINUOUS
 62
       7
  5
34C
 10
33.92388446
 20
-7.76059674
 30
0.0
  0
VERTEX
  8
0
  6
CONTINUOUS
 62
       7
  5
34D
 10
34.05895472
 20
-7.68987154
 30
0.0
  0
VERTEX
  8
0
  6
CONTINUOUS
 62
       7
  5
34E
 10
34.18272381
 20
-7.61268854
 30
0.0
  0
VERTEX
  8
0
  6
CONTINUOUS
 62
       7
  5
34F
 10
34.29424977
 20
-7.52963513
 30
0.0
  0
VERTEX
  8
0
  6
CONTINUOUS
 62
       7
  5
350
 10
34.39268383
 20
-7.44134341
 30
0.0
  0
VERTEX
  8
0
  6
CONTINUOUS
 62
       7
  5
351
 10
34.47727683
 20
-7.34848532
 30
0.0
  0
VERTEX
  8
0
  6
CONTINUOUS
 62
       7
  5
352
 10
34.54738498
 20
-7.25176758
 30
0.0
  0
VERTEX
  8
0
  6
CONTINUOUS
 62
       7
  5
353
 10
34.60247471
 20
-7.15192626
 30
0.0
  0
VERTEX
  8
0
  6
CONTINUOUS
 62
       7
  5
354
 10
34.64212676
 20
-7.04972122
 30
0.0
  0
VERTEX
  8
0
  6
CONTINUOUS
 62
       7
  5
355
 10
34.66603934
 20
-6.9459303
 30
0.0
  0
VERTEX
  8
0
  6
CONTINUOUS
 62
       7
  5
356
 10
34.67403048
 20
-6.84134341
 30
0.0
  0
SEQEND
  8
0
  6
CONTINUOUS
 62
       7
  5
357
  0
POLYLINE
  8
0
  6
CONTINUOUS
 62
       2
  5
4C
 66
       1
 10
0.0
 20
0.0
 30
0.0
 70
       1
  0
VERTEX
  8
0
  6
CONTINUOUS
 62
       2
  5
358
 10
25.07403048
 20
-6.84134341
 30
0.0
  0
VERTEX
  8
0
  6
CONTINUOUS
 62
       2
  5
359
 10
25.06451722
 20
-6.71060979
 30
0.0
  0
VERTEX
  8
0
  6
CONTINUOUS
 62
       2
  5
35A
 10
25.03604986
 20
-6.58087114
 30
0.0
  0
VERTEX
  8
0
  6
CONTINUOUS
 62
       2
  5
35B
 10
24.98884504
 20
-6.45311484
 30
0.0
  0
VERTEX
  8
0
  6
CONTINUOUS
 62
       2
  5
35C
 10
24.92326203
 20
-6.32831319
 30
0.0
  0
VERTEX
  8
0
  6
CONTINUOUS
 62
       2
  5
35D
 10
24.83979995
 20
-6.20741601
 30
0.0
  0
VERTEX
  8
0
  6
CONTINUOUS
 62
       2
  5
35E
 10
24.73909399
 20
-6.09134341
 30
0.0
  0
VERTEX
  8
0
  6
CONTINUOUS
 62
       2
  5
35F
 10
24.62191059
 20
-5.98097875
 30
0.0
  0
VERTEX
  8
0
  6
CONTINUOUS
 62
       2
  5
360
 10
24.48914159
 20
-5.87716199
 30
0.0
  0
VERTEX
  8
0
  6
CONTINUOUS
 62
       2
  5
361
 10
24.34179743
 20
-5.78068323
 30
0.0
  0
VERTEX
  8
0
  6
CONTINUOUS
 62
       2
  5
362
 10
24.1809995
 20
-5.69227674
 30
0.0
  0
VERTEX
  8
0
  6
CONTINUOUS
 62
       2
  5
363
 10
24.00797157
 20
-5.61261534
 30
0.0
  0
VERTEX
  8
0
  6
CONTINUOUS
 62
       2
  5
364
 10
23.82403048
 20
-5.5423053
 30
0.0
  0
VERTEX
  8
0
  6
CONTINUOUS
 62
       2
  5
365
 10
23.63057613
 20
-5.48188173
 30
0.0
  0
VERTEX
  8
0
  6
CONTINUOUS
 62
       2
  5
366
 10
23.42908084
 20
-5.43180448
 30
0.0
  0
VERTEX
  8
0
  6
CONTINUOUS
 62
       2
  5
367
 10
23.22107809
 20
-5.39245467
 30
0.0
  0
VERTEX
  8
0
  6
CONTINUOUS
 62
       2
  5
368
 10
23.00815092
 20
-5.36413178
 30
0.0
  0
VERTEX
  8
0
  6
CONTINUOUS
 62
       2
  5
369
 10
22.79191983
 20
-5.34705136
 30
0.0
  0
VERTEX
  8
0
  6
CONTINUOUS
 62
       2
  5
36A
 10
22.57403048
 20
-5.34134341
 30
0.0
  0
VERTEX
  8
0
  6
CONTINUOUS
 62
       2
  5
36B
 10
22.35614112
 20
-5.34705136
 30
0.0
  0
VERTEX
  8
0
  6
CONTINUOUS
 62
       2
  5
36C
 10
22.13991003
 20
-5.36413178
 30
0.0
  0
VERTEX
  8
0
  6
CONTINUOUS
 62
       2
  5
36D
 10
21.92698286
 20
-5.39245467
 30
0.0
  0
VERTEX
  8
0
  6
CONTINUOUS
 62
       2
  5
36E
 10
21.71898012
 20
-5.43180448
 30
0.0
  0
VERTEX
  8
0
  6
CONTINUOUS
 62
       2
  5
36F
 10
21.51748482
 20
-5.48188173
 30
0.0
  0
VERTEX
  8
0
  6
CONTINUOUS
 62
       2
  5
370
 10
21.32403048
 20
-5.5423053
 30
0.0
  0
VERTEX
  8
0
  6
CONTINUOUS
 62
       2
  5
371
 10
21.14008939
 20
-5.61261534
 30
0.0
  0
VERTEX
  8
0
  6
CONTINUOUS
 62
       2
  5
372
 10
20.96706145
 20
-5.69227674
 30
0.0
  0
VERTEX
  8
0
  6
CONTINUOUS
 62
       2
  5
373
 10
20.80626352
 20
-5.78068323
 30
0.0
  0
VERTEX
  8
0
  6
CONTINUOUS
 62
       2
  5
374
 10
20.65891937
 20
-5.87716199
 30
0.0
  0
VERTEX
  8
0
  6
CONTINUOUS
 62
       2
  5
375
 10
20.52615037
 20
-5.98097875
 30
0.0
  0
VERTEX
  8
0
  6
CONTINUOUS
 62
       2
  5
376
 10
20.40896697
 20
-6.09134341
 30
0.0
  0
VERTEX
  8
0
  6
CONTINUOUS
 62
       2
  5
377
 10
20.30826101
 20
-6.20741601
 30
0.0
  0
VERTEX
  8
0
  6
CONTINUOUS
 62
       2
  5
378
 10
20.22479893
 20
-6.32831319
 30
0.0
  0
VERTEX
  8
0
  6
CONTINUOUS
 62
       2
  5
379
 10
20.15921591
 20
-6.45311484
 30
0.0
  0
VERTEX
  8
0
  6
CONTINUOUS
 62
       2
  5
37A
 10
20.11201109
 20
-6.58087114
 30
0.0
  0
VERTEX
  8
0
  6
CONTINUOUS
 62
       2
  5
37B
 10
20.08354373
 20
-6.71060979
 30
0.0
  0
VERTEX
  8
0
  6
CONTINUOUS
 62
       2
  5
37C
 10
20.07403048
 20
-6.84134341
 30
0.0
  0
VERTEX
  8
0
  6
CONTINUOUS
 62
       2
  5
37D
 10
20.08354373
 20
-6.97207702
 30
0.0
  0
VERTEX
  8
0
  6
CONTINUOUS
 62
       2
  5
37E
 10
20.11201109
 20
-7.10181567
 30
0.0
  0
VERTEX
  8
0
  6
CONTINUOUS
 62
       2
  5
37F
 10
20.15921591
 20
-7.22957197
 30
0.0
  0
VERTEX
  8
0
  6
CONTINUOUS
 62
       2
  5
380
 10
20.22479893
 20
-7.35437362
 30
0.0
  0
VERTEX
  8
0
  6
CONTINUOUS
 62
       2
  5
381
 10
20.30826101
 20
-7.4752708
 30
0.0
  0
VERTEX
  8
0
  6
CONTINUOUS
 62
       2
  5
382
 10
20.40896697
 20
-7.59134341
 30
0.0
  0
VERTEX
  8
0
  6
CONTINUOUS
 62
       2
  5
383
 10
20.52615037
 20
-7.70170806
 30
0.0
  0
VERTEX
  8
0
  6
CONTINUOUS
 62
       2
  5
384
 10
20.65891937
 20
-7.80552482
 30
0.0
  0
VERTEX
  8
0
  6
CONTINUOUS
 62
       2
  5
385
 10
20.80626352
 20
-7.90200358
 30
0.0
  0
VERTEX
  8
0
  6
CONTINUOUS
 62
       2
  5
386
 10
20.96706145
 20
-7.99041007
 30
0.0
  0
VERTEX
  8
0
  6
CONTINUOUS
 62
       2
  5
387
 10
21.14008939
 20
-8.07007147
 30
0.0
  0
VERTEX
  8
0
  6
CONTINUOUS
 62
       2
  5
388
 10
21.32403048
 20
-8.14038151
 30
0.0
  0
VERTEX
  8
0
  6
CONTINUOUS
 62
       2
  5
389
 10
21.51748482
 20
-8.20080509
 30
0.0
  0
VERTEX
  8
0
  6
CONTINUOUS
 62
       2
  5
38A
 10
21.71898012
 20
-8.25088234
 30
0.0
  0
VERTEX
  8
0
  6
CONTINUOUS
 62
       2
  5
38B
 10
21.92698286
 20
-8.29023215
 30
0.0
  0
VERTEX
  8
0
  6
CONTINUOUS
 62
       2
  5
38C
 10
22.13991003
 20
-8.31855504
 30
0.0
  0
VERTEX
  8
0
  6
CONTINUOUS
 62
       2
  5
38D
 10
22.35614112
 20
-8.33563545
 30
0.0
  0
VERTEX
  8
0
  6
CONTINUOUS
 62
       2
  5
38E
 10
22.57403048
 20
-8.34134341
 30
0.0
  0
VERTEX
  8
0
  6
CONTINUOUS
 62
       2
  5
38F
 10
22.79191983
 20
-8.33563545
 30
0.0
  0
VERTEX
  8
0
  6
CONTINUOUS
 62
       2
  5
390
 10
23.00815092
 20
-8.31855504
 30
0.0
  0
VERTEX
  8
0
  6
CONTINUOUS
 62
       2
  5
391
 10
23.22107809
 20
-8.29023215
 30
0.0
  0
VERTEX
  8
0
  6
CONTINUOUS
 62
       2
  5
392
 10
23.42908084
 20
-8.25088234
 30
0.0
  0
VERTEX
  8
0
  6
CONTINUOUS
 62
       2
  5
393
 10
23.63057613
 20
-8.20080509
 30
0.0
  0
VERTEX
  8
0
  6
CONTINUOUS
 62
       2
  5
394
 10
23.82403048
 20
-8.14038151
 30
0.0
  0
VERTEX
  8
0
  6
CONTINUOUS
 62
       2
  5
395
 10
24.00797157
 20
-8.07007147
 30
0.0
  0
VERTEX
  8
0
  6
CONTINUOUS
 62
       2
  5
396
 10
24.1809995
 20
-7.99041007
 30
0.0
  0
VERTEX
  8
0
  6
CONTINUOUS
 62
       2
  5
397
 10
24.34179743
 20
-7.90200358
 30
0.0
  0
VERTEX
  8
0
  6
CONTINUOUS
 62
       2
  5
398
 10
24.48914159
 20
-7.80552482
 30
0.0
  0
VERTEX
  8
0
  6
CONTINUOUS
 62
       2
  5
399
 10
24.62191059
 20
-7.70170806
 30
0.0
  0
VERTEX
  8
0
  6
CONTINUOUS
 62
       2
  5
39A
 10
24.73909399
 20
-7.59134341
 30
0.0
  0
VERTEX
  8
0
  6
CONTINUOUS
 62
       2
  5
39B
 10
24.83979995
 20
-7.4752708
 30
0.0
  0
VERTEX
  8
0
  6
CONTINUOUS
 62
       2
  5
39C
 10
24.92326203
 20
-7.35437362
 30
0.0
  0
VERTEX
  8
0
  6
CONTINUOUS
 62
       2
  5
39D
 10
24.98884504
 20
-7.22957197
 30
0.0
  0
VERTEX
  8
0
  6
CONTINUOUS
 62
       2
  5
39E
 10
25.03604986
 20
-7.10181567
 30
0.0
  0
VERTEX
  8
0
  6
CONTINUOUS
 62
       2
  5
39F
 10
25.06451722
 20
-6.97207702
 30
0.0
  0
VERTEX
  8
0
  6
CONTINUOUS
 62
       2
  5
3A0
 10
25.07403048
 20
-6.84134341
 30
0.0
  0
SEQEND
  8
0
  6
CONTINUOUS
 62
       2
  5
3A1
  0
POLYLINE
  8
0
  6
CONTINUOUS
 62
       7
  5
4D
 66
       1
 10
0.0
 20
0.0
 30
0.0
 70
       1
  0
VERTEX
  8
0
  6
CONTINUOUS
 62
       7
  5
3A2
 10
24.67403048
 20
-6.84134341
 30
0.0
  0
VERTEX
  8
0
  6
CONTINUOUS
 62
       7
  5
3A3
 10
24.66603934
 20
-6.73675652
 30
0.0
  0
VERTEX
  8
0
  6
CONTINUOUS
 62
       7
  5
3A4
 10
24.64212676
 20
-6.63296559
 30
0.0
  0
VERTEX
  8
0
  6
CONTINUOUS
 62
       7
  5
3A5
 10
24.60247471
 20
-6.53076055
 30
0.0
  0
VERTEX
  8
0
  6
CONTINUOUS
 62
       7
  5
3A6
 10
24.54738498
 20
-6.43091923
 30
0.0
  0
VERTEX
  8
0
  6
CONTINUOUS
 62
       7
  5
3A7
 10
24.47727683
 20
-6.33420149
 30
0.0
  0
VERTEX
  8
0
  6
CONTINUOUS
 62
       7
  5
3A8
 10
24.39268383
 20
-6.24134341
 30
0.0
  0
VERTEX
  8
0
  6
CONTINUOUS
 62
       7
  5
3A9
 10
24.29424977
 20
-6.15305168
 30
0.0
  0
VERTEX
  8
0
  6
CONTINUOUS
 62
       7
  5
3AA
 10
24.18272381
 20
-6.06999827
 30
0.0
  0
VERTEX
  8
0
  6
CONTINUOUS
 62
       7
  5
3AB
 10
24.05895472
 20
-5.99281527
 30
0.0
  0
VERTEX
  8
0
  6
CONTINUOUS
 62
       7
  5
3AC
 10
23.92388446
 20
-5.92209007
 30
0.0
  0
VERTEX
  8
0
  6
CONTINUOUS
 62
       7
  5
3AD
 10
23.77854099
 20
-5.85836095
 30
0.0
  0
VERTEX
  8
0
  6
CONTINUOUS
 62
       7
  5
3AE
 10
23.62403048
 20
-5.80211292
 30
0.0
  0
VERTEX
  8
0
  6
CONTINUOUS
 62
       7
  5
3AF
 10
23.46152883
 20
-5.75377406
 30
0.0
  0
VERTEX
  8
0
  6
CONTINUOUS
 62
       7
  5
3B0
 10
23.29227278
 20
-5.71371226
 30
0.0
  0
VERTEX
  8
0
  6
CONTINUOUS
 62
       7
  5
3B1
 10
23.11755047
 20
-5.68223241
 30
0.0
  0
VERTEX
  8
0
  6
CONTINUOUS
 62
       7
  5
3B2
 10
22.93869165
 20
-5.6595741
 30
0.0
  0
VERTEX
  8
0
  6
CONTINUOUS
 62
       7
  5
3B3
 10
22.75705754
 20
-5.64590977
 30
0.0
  0
VERTEX
  8
0
  6
CONTINUOUS
 62
       7
  5
3B4
 10
22.57403048
 20
-5.64134341
 30
0.0
  0
VERTEX
  8
0
  6
CONTINUOUS
 62
       7
  5
3B5
 10
22.39100342
 20
-5.64590977
 30
0.0
  0
VERTEX
  8
0
  6
CONTINUOUS
 62
       7
  5
3B6
 10
22.2093693
 20
-5.6595741
 30
0.0
  0
VERTEX
  8
0
  6
CONTINUOUS
 62
       7
  5
3B7
 10
22.03051048
 20
-5.68223241
 30
0.0
  0
VERTEX
  8
0
  6
CONTINUOUS
 62
       7
  5
3B8
 10
21.85578818
 20
-5.71371226
 30
0.0
  0
VERTEX
  8
0
  6
CONTINUOUS
 62
       7
  5
3B9
 10
21.68653213
 20
-5.75377406
 30
0.0
  0
VERTEX
  8
0
  6
CONTINUOUS
 62
       7
  5
3BA
 10
21.52403048
 20
-5.80211292
 30
0.0
  0
VERTEX
  8
0
  6
CONTINUOUS
 62
       7
  5
3BB
 10
21.36951996
 20
-5.85836095
 30
0.0
  0
VERTEX
  8
0
  6
CONTINUOUS
 62
       7
  5
3BC
 10
21.2241765
 20
-5.92209007
 30
0.0
  0
VERTEX
  8
0
  6
CONTINUOUS
 62
       7
  5
3BD
 10
21.08910624
 20
-5.99281527
 30
0.0
  0
VERTEX
  8
0
  6
CONTINUOUS
 62
       7
  5
3BE
 10
20.96533715
 20
-6.06999827
 30
0.0
  0
VERTEX
  8
0
  6
CONTINUOUS
 62
       7
  5
3BF
 10
20.85381118
 20
-6.15305168
 30
0.0
  0
VERTEX
  8
0
  6
CONTINUOUS
 62
       7
  5
3C0
 10
20.75537713
 20
-6.24134341
 30
0.0
  0
VERTEX
  8
0
  6
CONTINUOUS
 62
       7
  5
3C1
 10
20.67078412
 20
-6.33420149
 30
0.0
  0
VERTEX
  8
0
  6
CONTINUOUS
 62
       7
  5
3C2
 10
20.60067597
 20
-6.43091923
 30
0.0
  0
VERTEX
  8
0
  6
CONTINUOUS
 62
       7
  5
3C3
 10
20.54558624
 20
-6.53076055
 30
0.0
  0
VERTEX
  8
0
  6
CONTINUOUS
 62
       7
  5
3C4
 10
20.5059342
 20
-6.63296559
 30
0.0
  0
VERTEX
  8
0
  6
CONTINUOUS
 62
       7
  5
3C5
 10
20.48202161
 20
-6.73675652
 30
0.0
  0
VERTEX
  8
0
  6
CONTINUOUS
 62
       7
  5
3C6
 10
20.47403048
 20
-6.84134341
 30
0.0
  0
VERTEX
  8
0
  6
CONTINUOUS
 62
       7
  5
3C7
 10
20.48202161
 20
-6.9459303
 30
0.0
  0
VERTEX
  8
0
  6
CONTINUOUS
 62
       7
  5
3C8
 10
20.5059342
 20
-7.04972122
 30
0.0
  0
VERTEX
  8
0
  6
CONTINUOUS
 62
       7
  5
3C9
 10
20.54558624
 20
-7.15192626
 30
0.0
  0
VERTEX
  8
0
  6
CONTINUOUS
 62
       7
  5
3CA
 10
20.60067597
 20
-7.25176758
 30
0.0
  0
VERTEX
  8
0
  6
CONTINUOUS
 62
       7
  5
3CB
 10
20.67078412
 20
-7.34848532
 30
0.0
  0
VERTEX
  8
0
  6
CONTINUOUS
 62
       7
  5
3CC
 10
20.75537713
 20
-7.44134341
 30
0.0
  0
VERTEX
  8
0
  6
CONTINUOUS
 62
       7
  5
3CD
 10
20.85381118
 20
-7.52963513
 30
0.0
  0
VERTEX
  8
0
  6
CONTINUOUS
 62
       7
  5
3CE
 10
20.96533715
 20
-7.61268854
 30
0.0
  0
VERTEX
  8
0
  6
CONTINUOUS
 62
       7
  5
3CF
 10
21.08910624
 20
-7.68987154
 30
0.0
  0
VERTEX
  8
0
  6
CONTINUOUS
 62
       7
  5
3D0
 10
21.2241765
 20
-7.76059674
 30
0.0
  0
VERTEX
  8
0
  6
CONTINUOUS
 62
       7
  5
3D1
 10
21.36951996
 20
-7.82432586
 30
0.0
  0
VERTEX
  8
0
  6
CONTINUOUS
 62
       7
  5
3D2
 10
21.52403048
 20
-7.88057389
 30
0.0
  0
VERTEX
  8
0
  6
CONTINUOUS
 62
       7
  5
3D3
 10
21.68653213
 20
-7.92891275
 30
0.0
  0
VERTEX
  8
0
  6
CONTINUOUS
 62
       7
  5
3D4
 10
21.85578818
 20
-7.96897455
 30
0.0
  0
VERTEX
  8
0
  6
CONTINUOUS
 62
       7
  5
3D5
 10
22.03051048
 20
-8.0004544
 30
0.0
  0
VERTEX
  8
0
  6
CONTINUOUS
 62
       7
  5
3D6
 10
22.2093693
 20
-8.02311271
 30
0.0
  0
VERTEX
  8
0
  6
CONTINUOUS
 62
       7
  5
3D7
 10
22.39100342
 20
-8.03677704
 30
0.0
  0
VERTEX
  8
0
  6
CONTINUOUS
 62
       7
  5
3D8
 10
22.57403048
 20
-8.04134341
 30
0.0
  0
VERTEX
  8
0
  6
CONTINUOUS
 62
       7
  5
3D9
 10
22.75705754
 20
-8.03677704
 30
0.0
  0
VERTEX
  8
0
  6
CONTINUOUS
 62
       7
  5
3DA
 10
22.93869165
 20
-8.02311271
 30
0.0
  0
VERTEX
  8
0
  6
CONTINUOUS
 62
       7
  5
3DB
 10
23.11755047
 20
-8.0004544
 30
0.0
  0
VERTEX
  8
0
  6
CONTINUOUS
 62
       7
  5
3DC
 10
23.29227278
 20
-7.96897455
 30
0.0
  0
VERTEX
  8
0
  6
CONTINUOUS
 62
       7
  5
3DD
 10
23.46152883
 20
-7.92891275
 30
0.0
  0
VERTEX
  8
0
  6
CONTINUOUS
 62
       7
  5
3DE
 10
23.62403048
 20
-7.88057389
 30
0.0
  0
VERTEX
  8
0
  6
CONTINUOUS
 62
       7
  5
3DF
 10
23.77854099
 20
-7.82432586
 30
0.0
  0
VERTEX
  8
0
  6
CONTINUOUS
 62
       7
  5
3E0
 10
23.92388446
 20
-7.76059674
 30
0.0
  0
VERTEX
  8
0
  6
CONTINUOUS
 62
       7
  5
3E1
 10
24.05895472
 20
-7.68987154
 30
0.0
  0
VERTEX
  8
0
  6
CONTINUOUS
 62
       7
  5
3E2
 10
24.18272381
 20
-7.61268854
 30
0.0
  0
VERTEX
  8
0
  6
CONTINUOUS
 62
       7
  5
3E3
 10
24.29424977
 20
-7.52963513
 30
0.0
  0
VERTEX
  8
0
  6
CONTINUOUS
 62
       7
  5
3E4
 10
24.39268383
 20
-7.44134341
 30
0.0
  0
VERTEX
  8
0
  6
CONTINUOUS
 62
       7
  5
3E5
 10
24.47727683
 20
-7.34848532
 30
0.0
  0
VERTEX
  8
0
  6
CONTINUOUS
 62
       7
  5
3E6
 10
24.54738498
 20
-7.25176758
 30
0.0
  0
VERTEX
  8
0
  6
CONTINUOUS
 62
       7
  5
3E7
 10
24.60247471
 20
-7.15192626
 30
0.0
  0
VERTEX
  8
0
  6
CONTINUOUS
 62
       7
  5
3E8
 10
24.64212676
 20
-7.04972122
 30
0.0
  0
VERTEX
  8
0
  6
CONTINUOUS
 62
       7
  5
3E9
 10
24.66603934
 20
-6.9459303
 30
0.0
  0
VERTEX
  8
0
  6
CONTINUOUS
 62
       7
  5
3EA
 10
24.67403048
 20
-6.84134341
 30
0.0
  0
SEQEND
  8
0
  6
CONTINUOUS
 62
       7
  5
3EB
  0
LINE
  8
0
  6
DASHED
 62
       2
  5
4F
 10
47.57403072
 20
-0.01400047
 30
0.0
 11
41.37403055
 21
0.17974954
 31
0.0
  0
LINE
  8
0
  6
DASHED
 62
       2
  5
50
 10
41.37403067
 20
0.17974854
 30
0.0
 11
41.37403067
 21
9.52001762
 31
0.0
  0
LINE
  8
0
  6
DASHED
 62
       2
  5
51
 10
47.57403024
 20
9.71376841
 30
0.0
 11
41.37403102
 21
9.52001843
 31
0.0
  0
LINE
  8
0
  6
DASHED
 62
       2
  5
52
 10
39.00424903
 20
8.93408018
 30
0.0
 11
47.57403048
 21
8.93408018
 31
0.0
  0
LINE
  8
0
  6
DASHED
 62
       2
  5
53
 10
39.06395742
 20
0.76574884
 30
0.0
 11
47.57403048
 21
0.76574884
 31
0.0
  0
LINE
  8
0
  6
CONTINUOUS
 62
       7
  5
54
 10
45.77403048
 20
-6.85288738
 30
0.0
 11
45.77403048
 21
16.55288435
 31
0.0
  0
LINE
  8
0
  6
CONTINUOUS
 62
       7
  5
55
 10
45.77403048
 20
16.55288435
 30
0.0
 11
44.57403048
 21
16.55288435
 31
0.0
  0
LINE
  8
0
  6
CONTINUOUS
 62
       7
  5
56
 10
45.77403048
 20
-6.85288738
 30
0.0
 11
44.57403048
 21
-6.85288738
 31
0.0
  0
LINE
  8
0
  6
CONTINUOUS
 62
       7
  5
57
 10
7.57403046
 20
15.76453167
 30
0.0
 11
8.05244484
 21
17.54999845
 31
0.0
  0
ARC
  8
0
  6
CONTINUOUS
 62
       7
  5
58
 10
15.55577232
 20
14.82818294
 30
0.0
 40
7.98174184
 50
169.93812835
 51
207.04353294
  0
LINE
  8
0
  6
CONTINUOUS
 62
       7
  5
59
 10
7.57403046
 20
-6.06453472
 30
0.0
 11
8.05244484
 21
-7.8500015
 31
0.0
  0
ARC
  8
0
  6
CONTINUOUS
 62
       7
  5
5A
 10
15.55577232
 20
-5.128186
 30
0.0
 40
7.98174184
 50
152.95646706
 51
190.06187165
  0
ARC
  8
0
  6
CONTINUOUS
 62
       7
  5
5B
 10
40.18459414
 20
4.84999847
 30
0.0
 40
29.61056366
 50
164.73851791
 51
195.26148209
  0
ARC
  8
0
  6
CONTINUOUS
 62
       7
  5
5C
 10
14.96346682
 20
4.84999847
 30
0.0
 40
29.61056366
 50
344.73851791
 51
15.26148209
  0
LINE
  8
0
  6
CONTINUOUS
 62
       2
  5
5D
 10
3.59202756
 20
4.84999847
 30
0.0
 11
51.68425692
 21
4.84999847
 31
0.0
  0
LINE
  8
0
  6
CONTINUOUS
 62
       2
  5
5E
 10
-80.50020181
 20
4.84999847
 30
0.0
 11
-48.40797244
 21
4.84999847
 31
0.0
  0
CIRCLE
  8
0
  6
CONTINUOUS
 62
       7
  5
5F
 10
-64.50020181
 20
4.84999847
 30
0.0
 40
13.5
  0
LINE
  8
0
  6
CONTINUOUS
 62
       7
  5
60
 10
-78.00020181
 20
-2.94422874
 30
0.0
 11
-78.00020181
 21
12.64422568
 31
0.0
  0
CIRCLE
  8
0
  6
CONTINUOUS
 62
       7
  5
61
 10
-64.50020181
 20
4.84999847
 30
0.0
 40
11.0
  0
LINE
  8
0
  6
CONTINUOUS
 62
       7
  5
62
 10
-53.50020181
 20
-1.49914859
 30
0.0
 11
-53.50020181
 21
11.19914554
 31
0.0
  0
LINE
  8
0
  6
CONTINUOUS
 62
       7
  5
63
 10
-64.50020172
 20
17.54999845
 30
0.0
 11
-53.50020181
 21
11.19914554
 31
0.0
  0
LINE
  8
0
  6
CONTINUOUS
 62
       7
  5
64
 10
-64.50020172
 20
-7.8500015
 30
0.0
 11
-53.50020181
 21
-1.49914859
 31
0.0
  0
LINE
  8
0
  6
CONTINUOUS
 62
       7
  5
65
 10
-64.5002019
 20
17.54999845
 30
0.0
 11
-75.50020181
 21
11.19914554
 31
0.0
  0
LINE
  8
0
  6
CONTINUOUS
 62
       7
  5
66
 10
-75.50020181
 20
-1.49914859
 30
0.0
 11
-75.50020181
 21
11.19914554
 31
0.0
  0
LINE
  8
0
  6
CONTINUOUS
 62
       7
  5
67
 10
-64.5002019
 20
-7.8500015
 30
0.0
 11
-75.50020181
 21
-1.49914859
 31
0.0
  0
LINE
  8
0
  6
CONTINUOUS
 62
       7
  5
68
 10
-64.50020181
 20
20.43845432
 30
0.0
 11
-78.00020181
 21
12.64422568
 31
0.0
  0
LINE
  8
0
  6
CONTINUOUS
 62
       7
  5
69
 10
-64.50020181
 20
-10.73845737
 30
0.0
 11
-78.00020181
 21
-2.94422874
 31
0.0
  0
LINE
  8
0
  6
CONTINUOUS
 62
       7
  5
6A
 10
-64.50020181
 20
20.43845432
 30
0.0
 11
-51.00020181
 21
12.64422568
 31
0.0
  0
LINE
  8
0
  6
CONTINUOUS
 62
       7
  5
6B
 10
-51.00020181
 20
-2.94422874
 30
0.0
 11
-51.00020181
 21
12.64422568
 31
0.0
  0
LINE
  8
0
  6
CONTINUOUS
 62
       7
  5
6C
 10
-64.50020181
 20
-10.73845737
 30
0.0
 11
-51.00020181
 21
-2.94422874
 31
0.0
  0
LINE
  8
0
  6
CONTINUOUS
 62
       2
  5
6D
 10
-64.50020181
 20
-14.15000153
 30
0.0
 11
-64.50020181
 21
23.84999847
 31
0.0
  0
LINE
  8
0
  6
CONTINUOUS
 62
       7
  5
6E
 10
-138.3999939
 20
94.5
 30
0.0
 11
138.3500061
 21
94.5
 31
0.0
  0
LINE
  8
0
  6
CONTINUOUS
 62
       7
  5
6F
 10
138.3500061
 20
94.5
 30
0.0
 11
138.3500061
 21
-94.80000305
 31
0.0
  0
LINE
  8
0
  6
CONTINUOUS
 62
       7
  5
70
 10
-138.3999939
 20
-94.80000305
 30
0.0
 11
138.3500061
 21
-94.80000305
 31
0.0
  0
LINE
  8
0
  6
CONTINUOUS
 62
       7
  5
71
 10
-138.3999939
 20
94.5
 30
0.0
 11
-138.3999939
 21
-94.80000305
 31
0.0
  0
TEXT
  8
0
  6
CONTINUOUS
 62
       7
  5
72
 10
-129.67308554
 20
84.59010543
 30
0.0
 40
3.20000005
  1
MODEL:RM12
 41
1.11111111
  7
MX_NOTE_STANDARD
 11
-129.67308554
 21
86.19010545
 31
0.0
 73
       2
  0
ENDSEC
  0
EOF
