  0
SECTION
  2
HEADER
  9
$ACADVER
  1
AC1003
  9
$EXTMIN
 10
-2.81250000E+02
 20
-1.95000000E+02
  9
$EXTMAX
 10
2.82099854E+02
 20
1.95500000E+02
  9
$LIMMIN
 10
-2.81251000E+02
 20
-1.95001000E+02
  9
$LIMMAX
 10
2.82100854E+02
 20
1.95501000E+02
  9
$SNAPUNIT
 10
1
 20
1
  9
$SNAPBASE
 10
0
 20
0
  9
$GRIDMODE
 70
0
  9
$GRIDUNIT
 10
0
 20
0
  9
$LTSCALE
 40
9.38916423E+00
  9
$TEXTSIZE
 40
3.2
  9
$DIMTAD
 70
0
  9
$LUNITS
 70
2
  9
$LUPREC
 70
4
  9
$FILLETRAD
 40
0
  9
$AUNITS
 70
0
  9
$AUPREC
 70
0
  0
ENDSEC
  0
SECTION
  2
TABLES
  0
TABLE
  2
LTYPE
 70
2
  0
LTYPE
  2
CONTINUOUS
 70
64
  3
Solid-Line
 72
65
 73
0
 40
0
  0
LTYPE
  2
DASHED
 70
64
  3
DASHED
 72
65
 73
2
 40
.75
 49
.5
 49
-.25
  0
LTYPE
  2
HIDDEN
 70
64
  3
HIDDEN
 72
65
 73
2
 40
.375
 49
.25
 49
-.125
  0
LTYPE
  2
CENTER
 70
64
  3
CENTER
 72
65
 73
4
 40
2
 49
1.25
 49
-.25
 49
.25
 49
-.25
  0
LTYPE
  2
PHANTOM
 70
64
  3
PHANTOM
 72
65
 73
6
 40
2.5
 49
1.25
 49
-.25
 49
.25
 49
-.25
 49
.25
 49
-.25
  0
ENDTAB
  0
TABLE
  2
LAYER
 70
1
  0
LAYER
  2
0
 70
0
 62
3
  6
CONTINUOUS
 0
ENDTAB
  0
TABLE
  2
STYLE
 70
2
  0
STYLE
  2
MONOTXT
 70
0
 40
0
 41
1
 50
0
 71
0
 42
.2
  3
monotxt
  0
STYLE
  2
BIGFONT
 70
0
 40
0
 41
1
 50
0
 71
0
 42
.2
  3
txt
  4
bigfont
  0
ENDTAB
  0
ENDSEC
  0
SECTION
  2
ENTITIES
  0
LINE
  8
0
  6
CENTER
 62
2
 10
-1.44713664E+02
 20
1.10000014E+02
 11
-1.39081048E+01
 21
1.10000033E+02
  0
LINE
  8
0
 62
7
 10
-6.53100000E+01
 20
8.65000000E+01
 11
-6.38100000E+01
 21
8.50000000E+01
  0
LINE
  8
0
 62
7
 10
-6.53100000E+01
 20
8.65000000E+01
 11
-6.53100000E+01
 21
8.88748373E+01
  0
LINE
  8
0
 62
7
 10
-3.00000000E+01
 20
8.65000000E+01
 11
-6.53100000E+01
 21
8.65000000E+01
  0
LINE
  8
0
 62
7
 10
-3.15000000E+01
 20
8.50000000E+01
 11
-6.38100000E+01
 21
8.50000000E+01
  0
LINE
  8
0
 62
7
 10
-9.97500000E+01
 20
1.36000000E+02
 11
-9.97500000E+01
 21
1.35000000E+02
  0
LINE
  8
0
 62
7
 10
-6.02500000E+01
 20
1.36000000E+02
 11
-6.02500000E+01
 21
1.35000000E+02
  0
ARC
  8
0
 62
4
 10
-6.00008108E+01
 20
6.30001352E+01
 40
4.25013529E+00
 50
2.51064426E+02
 51
2.70000000E+02
  0
ARC
  8
0
 62
4
 10
-5.50000000E+01
 20
6.30000000E+01
 40
4.25000000E+00
 50
2.70000000E+02
 51
9.00000002E+01
  0
ARC
  8
0
 62
4
 10
-5.99682156E+01
 20
6.30041168E+01
 40
4.24600212E+00
 50
9.04289049E+01
 51
1.04760382E+02
  0
ARC
  8
0
 62
4
 10
-1.00021704E+02
 20
6.30028102E+01
 40
4.24724527E+00
 50
7.52451538E+01
 51
8.97072050E+01
  0
ARC
  8
0
 62
4
 10
-9.99894984E+01
 20
6.30017510E+01
 40
4.25176397E+00
 50
2.69858482E+02
 51
2.88932450E+02
  0
ARC
  8
0
 62
4
 10
-1.05000000E+02
 20
6.30000000E+01
 40
4.25000000E+00
 50
9.00000002E+01
 51
2.70000000E+02
  0
ARC
  8
0
 62
7
 10
-7.99950000E+01
 20
1.25300858E+02
 40
5.55002588E+01
 50
2.59110351E+02
 51
2.80889649E+02
  0
ARC
  8
0
 62
7
 10
-6.19671301E+01
 20
2.11478145E+01
 40
1.00783975E+00
 50
2.70405350E+02
 51
3.57849736E+02
  0
ARC
  8
0
 62
7
 10
-9.80276828E+01
 20
2.11428528E+01
 40
1.00285546E+00
 50
1.81877302E+02
 51
2.69867612E+02
  0
LINE
  8
0
 62
4
 10
-5.50000000E+01
 20
5.87500000E+01
 11
-6.00000000E+01
 21
5.87500000E+01
  0
LINE
  8
0
  6
CENTER
 62
6
 10
-4.87500000E+01
 20
6.30000000E+01
 11
-6.12200000E+01
 21
6.30000000E+01
  0
LINE
  8
0
  6
CENTER
 62
6
 10
-5.50000000E+01
 20
6.92500000E+01
 11
-5.50000000E+01
 21
5.67500000E+01
  0
LINE
  8
0
  6
CENTER
 62
6
 10
-5.75000000E+01
 20
6.92500000E+01
 11
-5.75000000E+01
 21
5.67500000E+01
  0
LINE
  8
0
 62
4
 10
-5.50000000E+01
 20
6.72500000E+01
 11
-6.00000000E+01
 21
6.72500000E+01
  0
LINE
  8
0
  6
CENTER
 62
6
 10
-6.00000000E+01
 20
6.92500000E+01
 11
-6.00000000E+01
 21
5.67500000E+01
  0
LINE
  8
0
  6
CENTER
 62
6
 10
-1.05000000E+02
 20
6.92500000E+01
 11
-1.05000000E+02
 21
5.67500000E+01
  0
LINE
  8
0
  6
CENTER
 62
6
 10
-1.02500000E+02
 20
6.92500000E+01
 11
-1.02500000E+02
 21
5.67500000E+01
  0
LINE
  8
0
 62
4
 10
-1.05000000E+02
 20
6.72500000E+01
 11
-1.00000000E+02
 21
6.72500000E+01
  0
LINE
  8
0
 62
4
 10
-1.05000000E+02
 20
5.87500000E+01
 11
-1.00000000E+02
 21
5.87500000E+01
  0
LINE
  8
0
  6
CENTER
 62
6
 10
-1.11250000E+02
 20
6.30000000E+01
 11
-9.87700000E+01
 21
6.30000000E+01
  0
LINE
  8
0
  6
CENTER
 62
6
 10
-1.00000000E+02
 20
6.92500000E+01
 11
-1.00000000E+02
 21
5.67500000E+01
  0
LINE
  8
0
 62
4
 10
-5.15000000E+01
 20
7.98000000E+01
 11
-4.50000000E+01
 21
7.98000000E+01
  0
LINE
  8
0
 62
4
 10
-5.20000000E+01
 20
8.30000000E+01
 11
-4.50000000E+01
 21
8.30000000E+01
  0
LINE
  8
0
 62
7
 10
-1.08500000E+02
 20
7.98000000E+01
 11
-5.15000000E+01
 21
7.98000000E+01
  0
LINE
  8
0
 62
7
 10
-1.08000000E+02
 20
8.30000000E+01
 11
-5.20000000E+01
 21
8.30000000E+01
  0
LINE
  8
0
 62
4
 10
-6.16100000E+01
 20
5.30000000E+01
 11
-4.80000000E+01
 21
5.30000000E+01
  0
LINE
  8
0
 62
4
 10
-4.80000000E+01
 20
5.30000000E+01
 11
-4.50000000E+01
 21
5.60000000E+01
  0
LINE
  8
0
 62
4
 10
-1.12000000E+02
 20
5.30000000E+01
 11
-1.15000000E+02
 21
5.60000000E+01
  0
LINE
  8
0
 62
4
 10
-1.12000000E+02
 20
5.30000000E+01
 11
-9.83900000E+01
 21
5.30000000E+01
  0
LINE
  8
0
 62
4
 10
-1.15000000E+02
 20
8.30000000E+01
 11
-1.15000000E+02
 21
5.60000000E+01
  0
LINE
  8
0
 62
4
 10
-4.50000000E+01
 20
8.30000000E+01
 11
-4.50000000E+01
 21
5.60000000E+01
  0
LINE
  8
0
 62
7
 10
-1.23000000E+02
 20
1.25000000E+02
 11
-1.23000000E+02
 21
9.50000000E+01
  0
LINE
  8
0
 62
7
 10
-1.22110000E+02
 20
1.24380000E+02
 11
-1.22110000E+02
 21
9.56100000E+01
  0
LINE
  8
0
 62
7
 10
-1.23000000E+02
 20
1.25000000E+02
 11
-1.22110000E+02
 21
1.24380000E+02
  0
LINE
  8
0
 62
7
 10
-1.22110000E+02
 20
9.56100000E+01
 11
-1.23000000E+02
 21
9.50000000E+01
  0
LINE
  8
0
 62
7
 10
-3.15000000E+01
 20
8.50000000E+01
 11
-3.15000000E+01
 21
1.35000000E+02
  0
LINE
  8
0
 62
7
 10
-6.09500000E+01
 20
6.98000000E+01
 11
-6.16400000E+01
 21
5.21400000E+01
  0
LINE
  8
0
 62
7
 10
-6.82300000E+01
 20
6.98000000E+01
 11
-6.82300000E+01
 21
5.21400000E+01
  0
LINE
  8
0
 62
7
 10
-7.40800000E+01
 20
6.98000000E+01
 11
-7.40800000E+01
 21
5.21400000E+01
  0
LINE
  8
0
 62
7
 10
-8.59100000E+01
 20
6.98000000E+01
 11
-8.59100000E+01
 21
5.21400000E+01
  0
LINE
  8
0
 62
7
 10
-9.90500000E+01
 20
6.98000000E+01
 11
-9.83500000E+01
 21
5.21400000E+01
  0
LINE
  8
0
 62
7
 10
-9.17600000E+01
 20
6.98000000E+01
 11
-9.17600000E+01
 21
5.21400000E+01
  0
LINE
  8
0
 62
7
 10
-5.75000000E+01
 20
8.30000000E+01
 11
-5.75000000E+01
 21
7.98000000E+01
  0
LINE
  8
0
 62
2
 10
-5.85000000E+01
 20
8.30000000E+01
 11
-5.85000000E+01
 21
7.98000000E+01
  0
LINE
  8
0
 62
2
 10
-1.01500000E+02
 20
8.30000000E+01
 11
-1.01500000E+02
 21
7.98000000E+01
  0
LINE
  8
0
 62
7
 10
-1.02500000E+02
 20
8.30000000E+01
 11
-1.02500000E+02
 21
7.98000000E+01
  0
LINE
  8
0
 62
2
 10
-6.95100000E+01
 20
7.98000000E+01
 11
-9.04800000E+01
 21
7.08000000E+01
  0
LINE
  8
0
 62
2
 10
-9.04800000E+01
 20
7.98000000E+01
 11
-6.95100000E+01
 21
7.08000000E+01
  0
LINE
  8
0
 62
7
 10
-6.95100000E+01
 20
7.98000000E+01
 11
-6.95100000E+01
 21
7.08000000E+01
  0
LINE
  8
0
 62
7
 10
-9.04800000E+01
 20
7.98000000E+01
 11
-9.04800000E+01
 21
7.08000000E+01
  0
LINE
  8
0
 62
7
 10
-5.37500000E+01
 20
7.08000000E+01
 11
-5.45200000E+01
 21
6.98000000E+01
  0
LINE
  8
0
 62
7
 10
-5.72500000E+01
 20
7.08000000E+01
 11
-5.83000000E+01
 21
6.98000000E+01
  0
LINE
  8
0
 62
7
 10
-5.83000000E+01
 20
7.68000000E+01
 11
-5.72500000E+01
 21
7.78000000E+01
  0
LINE
  8
0
 62
7
 10
-6.28200000E+01
 20
6.98000000E+01
 11
-6.31000000E+01
 21
7.08000000E+01
  0
LINE
  8
0
 62
7
 10
-6.28200000E+01
 20
7.68000000E+01
 11
-6.31000000E+01
 21
7.78000000E+01
  0
LINE
  8
0
 62
7
 10
-9.71700000E+01
 20
6.98000000E+01
 11
-9.68900000E+01
 21
7.08000000E+01
  0
LINE
  8
0
 62
7
 10
-9.71700000E+01
 20
7.68000000E+01
 11
-9.68900000E+01
 21
7.78000000E+01
  0
LINE
  8
0
 62
7
 10
-1.01690000E+02
 20
7.68000000E+01
 11
-1.02740000E+02
 21
7.78000000E+01
  0
LINE
  8
0
 62
7
 10
-1.02740000E+02
 20
7.08000000E+01
 11
-1.01690000E+02
 21
6.98000000E+01
  0
LINE
  8
0
 62
7
 10
-5.27600000E+01
 20
7.68000000E+01
 11
-5.17100000E+01
 21
7.78000000E+01
  0
LINE
  8
0
 62
7
 10
-5.27600000E+01
 20
6.98000000E+01
 11
-5.17100000E+01
 21
7.08000000E+01
  0
LINE
  8
0
 62
7
 10
-1.08280000E+02
 20
7.78000000E+01
 11
-1.07230000E+02
 21
7.68000000E+01
  0
LINE
  8
0
 62
7
 10
-1.08280000E+02
 20
7.08000000E+01
 11
-1.07230000E+02
 21
6.98000000E+01
  0
LINE
  8
0
 62
7
 10
-1.08280000E+02
 20
7.78000000E+01
 11
-1.08280000E+02
 21
7.08000000E+01
  0
LINE
  8
0
 62
7
 10
-1.07230000E+02
 20
7.68000000E+01
 11
-1.07230000E+02
 21
6.98000000E+01
  0
LINE
  8
0
 62
7
 10
-5.17100000E+01
 20
7.78000000E+01
 11
-5.17100000E+01
 21
7.08000000E+01
  0
LINE
  8
0
 62
7
 10
-5.27600000E+01
 20
7.68000000E+01
 11
-5.27600000E+01
 21
6.98000000E+01
  0
LINE
  8
0
 62
7
 10
-1.06240000E+02
 20
7.08000000E+01
 11
-1.05480000E+02
 21
6.98000000E+01
  0
LINE
  8
0
 62
7
 10
-5.17100000E+01
 20
7.08000000E+01
 11
-5.15000000E+01
 21
7.08000000E+01
  0
LINE
  8
0
 62
7
 10
-1.06240000E+02
 20
7.08000000E+01
 11
-1.02740000E+02
 21
7.08000000E+01
  0
LINE
  8
0
 62
7
 10
-1.07230000E+02
 20
7.68000000E+01
 11
-1.06240000E+02
 21
7.68000000E+01
  0
LINE
  8
0
 62
7
 10
-1.08280000E+02
 20
7.78000000E+01
 11
-1.06240000E+02
 21
7.78000000E+01
  0
LINE
  8
0
 62
7
 10
-1.06240000E+02
 20
7.78000000E+01
 11
-1.06240000E+02
 21
7.08000000E+01
  0
LINE
  8
0
 62
7
 10
-5.37500000E+01
 20
7.78000000E+01
 11
-5.37500000E+01
 21
7.08000000E+01
  0
LINE
  8
0
 62
7
 10
-5.37500000E+01
 20
7.68000000E+01
 11
-5.27600000E+01
 21
7.68000000E+01
  0
LINE
  8
0
 62
7
 10
-5.37500000E+01
 20
7.78000000E+01
 11
-5.17100000E+01
 21
7.78000000E+01
  0
LINE
  8
0
 62
7
 10
-1.01690000E+02
 20
7.68000000E+01
 11
-9.71700000E+01
 21
7.68000000E+01
  0
LINE
  8
0
 62
7
 10
-1.02740000E+02
 20
7.78000000E+01
 11
-9.68900000E+01
 21
7.78000000E+01
  0
LINE
  8
0
 62
7
 10
-1.01690000E+02
 20
7.68000000E+01
 11
-1.01690000E+02
 21
6.98000000E+01
  0
LINE
  8
0
 62
7
 10
-1.02740000E+02
 20
7.78000000E+01
 11
-1.02740000E+02
 21
7.08000000E+01
  0
LINE
  8
0
 62
7
 10
-5.72500000E+01
 20
7.78000000E+01
 11
-5.72500000E+01
 21
7.08000000E+01
  0
LINE
  8
0
 62
7
 10
-5.83000000E+01
 20
7.68000000E+01
 11
-5.83000000E+01
 21
6.98000000E+01
  0
LINE
  8
0
 62
7
 10
-5.72500000E+01
 20
7.08000000E+01
 11
-5.37500000E+01
 21
7.08000000E+01
  0
LINE
  8
0
 62
7
 10
-9.68900000E+01
 20
7.08000000E+01
 11
-9.04800000E+01
 21
7.08000000E+01
  0
LINE
  8
0
 62
7
 10
-9.68900000E+01
 20
7.78000000E+01
 11
-9.68900000E+01
 21
7.08000000E+01
  0
LINE
  8
0
 62
7
 10
-9.71700000E+01
 20
7.68000000E+01
 11
-9.71700000E+01
 21
6.98000000E+01
  0
LINE
  8
0
 62
7
 10
-6.31000000E+01
 20
7.78000000E+01
 11
-6.31000000E+01
 21
7.08000000E+01
  0
LINE
  8
0
 62
7
 10
-6.28200000E+01
 20
7.68000000E+01
 11
-6.28200000E+01
 21
6.98000000E+01
  0
LINE
  8
0
 62
7
 10
-6.28200000E+01
 20
7.68000000E+01
 11
-5.83000000E+01
 21
7.68000000E+01
  0
LINE
  8
0
 62
7
 10
-6.31000000E+01
 20
7.78000000E+01
 11
-5.72500000E+01
 21
7.78000000E+01
  0
LINE
  8
0
 62
7
 10
-6.95100000E+01
 20
7.08000000E+01
 11
-6.31000000E+01
 21
7.08000000E+01
  0
LINE
  8
0
 62
7
 10
-1.08500000E+02
 20
7.08000000E+01
 11
-1.08280000E+02
 21
7.08000000E+01
  0
LINE
  8
0
 62
7
 10
-5.15000000E+01
 20
7.08000000E+01
 11
-5.25000000E+01
 21
6.98000000E+01
  0
LINE
  8
0
 62
7
 10
-1.08500000E+02
 20
7.08000000E+01
 11
-1.07500000E+02
 21
6.98000000E+01
  0
LINE
  8
0
 62
7
 10
-1.07500000E+02
 20
6.98000000E+01
 11
-5.25000000E+01
 21
6.98000000E+01
  0
LINE
  8
0
 62
7
 10
-5.15000000E+01
 20
7.98000000E+01
 11
-5.15000000E+01
 21
7.08000000E+01
  0
LINE
  8
0
 62
7
 10
-1.08500000E+02
 20
7.98000000E+01
 11
-1.08500000E+02
 21
7.08000000E+01
  0
LINE
  8
0
 62
4
 10
-1.15000000E+02
 20
7.98000000E+01
 11
-1.08500000E+02
 21
7.98000000E+01
  0
LINE
  8
0
 62
7
 10
-7.60000000E+01
 20
2.28700000E+01
 11
-7.50900000E+01
 21
4.88300000E+01
  0
LINE
  8
0
 62
7
 10
-6.31300000E+01
 20
2.28700000E+01
 11
-6.22200000E+01
 21
4.88300000E+01
  0
LINE
  8
0
 62
7
 10
-6.14300000E+01
 20
2.21900000E+01
 11
-6.05200000E+01
 21
4.81400000E+01
  0
LINE
  8
0
 62
7
 10
-6.01400000E+01
 20
2.28700000E+01
 11
-5.92400000E+01
 21
4.88300000E+01
  0
LINE
  8
0
 62
7
 10
-6.05200000E+01
 20
4.81400000E+01
 11
-6.22500000E+01
 21
4.81400000E+01
  0
LINE
  8
0
 62
7
 10
-6.31300000E+01
 20
2.28700000E+01
 11
-6.38300000E+01
 21
2.21900000E+01
  0
LINE
  8
0
 62
7
 10
-6.31300000E+01
 20
2.28700000E+01
 11
-6.87900000E+01
 21
2.28700000E+01
  0
LINE
  8
0
 62
7
 10
-6.38300000E+01
 20
2.21900000E+01
 11
-7.00100000E+01
 21
2.21900000E+01
  0
LINE
  8
0
 62
7
 10
-7.09100000E+01
 20
4.81400000E+01
 11
-7.47200000E+01
 21
4.81400000E+01
  0
LINE
  8
0
 62
7
 10
-6.96900000E+01
 20
4.88300000E+01
 11
-7.50900000E+01
 21
4.88300000E+01
  0
LINE
  8
0
 62
7
 10
-7.56300000E+01
 20
2.21900000E+01
 11
-7.47200000E+01
 21
4.81400000E+01
  0
LINE
  8
0
 62
7
 10
-6.87900000E+01
 20
2.28700000E+01
 11
-6.96900000E+01
 21
4.88300000E+01
  0
LINE
  8
0
 62
7
 10
-6.09200000E+01
 20
2.21900000E+01
 11
-6.14300000E+01
 21
2.21900000E+01
  0
LINE
  8
0
 62
7
 10
-5.97500000E+01
 20
2.28700000E+01
 11
-6.01400000E+01
 21
2.28700000E+01
  0
LINE
  8
0
 62
7
 10
-5.92400000E+01
 20
4.88300000E+01
 11
-6.22200000E+01
 21
4.88300000E+01
  0
LINE
  8
0
 62
7
 10
-7.56300000E+01
 20
2.21900000E+01
 11
-7.60000000E+01
 21
2.28700000E+01
  0
LINE
  8
0
 62
7
 10
-7.47200000E+01
 20
4.81400000E+01
 11
-7.50900000E+01
 21
4.88300000E+01
  0
LINE
  8
0
 62
7
 10
-6.87900000E+01
 20
2.28700000E+01
 11
-7.00100000E+01
 21
2.21900000E+01
  0
LINE
  8
0
 62
7
 10
-7.00100000E+01
 20
2.21900000E+01
 11
-7.09100000E+01
 21
4.81400000E+01
  0
LINE
  8
0
 62
7
 10
-7.09100000E+01
 20
4.81400000E+01
 11
-6.96900000E+01
 21
4.88300000E+01
  0
LINE
  8
0
 62
7
 10
-6.05200000E+01
 20
4.81400000E+01
 11
-5.92400000E+01
 21
4.88300000E+01
  0
LINE
  8
0
 62
7
 10
-6.01400000E+01
 20
2.28700000E+01
 11
-6.14300000E+01
 21
2.21900000E+01
  0
LINE
  8
0
 62
7
 10
-9.98500000E+01
 20
2.28700000E+01
 11
-9.85600000E+01
 21
2.21900000E+01
  0
LINE
  8
0
 62
7
 10
-9.94700000E+01
 20
4.81400000E+01
 11
-1.00750000E+02
 21
4.88300000E+01
  0
LINE
  8
0
 62
7
 10
-9.12000000E+01
 20
2.28700000E+01
 11
-8.99900000E+01
 21
2.21900000E+01
  0
LINE
  8
0
 62
7
 10
-8.90800000E+01
 20
4.81400000E+01
 11
-9.03000000E+01
 21
4.88300000E+01
  0
LINE
  8
0
 62
7
 10
-8.52700000E+01
 20
4.81400000E+01
 11
-8.49000000E+01
 21
4.88300000E+01
  0
LINE
  8
0
 62
7
 10
-8.43600000E+01
 20
2.21900000E+01
 11
-8.40000000E+01
 21
2.28700000E+01
  0
LINE
  8
0
 62
7
 10
-8.99900000E+01
 20
2.21900000E+01
 11
-8.90800000E+01
 21
4.81400000E+01
  0
LINE
  8
0
 62
7
 10
-9.12000000E+01
 20
2.28700000E+01
 11
-9.03000000E+01
 21
4.88300000E+01
  0
LINE
  8
0
 62
7
 10
-8.43600000E+01
 20
2.21900000E+01
 11
-8.52700000E+01
 21
4.81400000E+01
  0
LINE
  8
0
 62
7
 10
-8.40000000E+01
 20
2.28700000E+01
 11
-8.49000000E+01
 21
4.88300000E+01
  0
LINE
  8
0
 62
7
 10
-9.68600000E+01
 20
2.28700000E+01
 11
-9.77700000E+01
 21
4.88300000E+01
  0
LINE
  8
0
 62
7
 10
-9.85600000E+01
 20
2.21900000E+01
 11
-9.94700000E+01
 21
4.81400000E+01
  0
LINE
  8
0
 62
7
 10
-9.98500000E+01
 20
2.28700000E+01
 11
-1.00750000E+02
 21
4.88300000E+01
  0
LINE
  8
0
 62
7
 10
-9.94700000E+01
 20
4.81400000E+01
 11
-9.77400000E+01
 21
4.81400000E+01
  0
LINE
  8
0
 62
7
 10
-9.68600000E+01
 20
2.28700000E+01
 11
-9.61600000E+01
 21
2.21900000E+01
  0
LINE
  8
0
 62
7
 10
-9.68600000E+01
 20
2.28700000E+01
 11
-9.12000000E+01
 21
2.28700000E+01
  0
LINE
  8
0
 62
7
 10
-9.61600000E+01
 20
2.21900000E+01
 11
-8.99900000E+01
 21
2.21900000E+01
  0
LINE
  8
0
 62
7
 10
-8.90800000E+01
 20
4.81400000E+01
 11
-8.52700000E+01
 21
4.81400000E+01
  0
LINE
  8
0
 62
7
 10
-9.03000000E+01
 20
4.88300000E+01
 11
-8.49000000E+01
 21
4.88300000E+01
  0
LINE
  8
0
 62
7
 10
-8.43600000E+01
 20
2.21900000E+01
 11
-7.56300000E+01
 21
2.21900000E+01
  0
LINE
  8
0
 62
7
 10
-8.40000000E+01
 20
2.28700000E+01
 11
-7.60000000E+01
 21
2.28700000E+01
  0
LINE
  8
0
 62
7
 10
-9.90700000E+01
 20
2.21900000E+01
 11
-9.85600000E+01
 21
2.21900000E+01
  0
LINE
  8
0
 62
7
 10
-1.00250000E+02
 20
2.28700000E+01
 11
-9.98500000E+01
 21
2.28700000E+01
  0
LINE
  8
0
 62
7
 10
-1.00750000E+02
 20
4.88300000E+01
 11
-9.77700000E+01
 21
4.88300000E+01
  0
LINE
  8
0
 62
7
 10
-1.01250000E+02
 20
5.16600000E+01
 11
-5.87400000E+01
 21
5.16600000E+01
  0
LINE
  8
0
 62
7
 10
-5.92200000E+01
 20
5.21400000E+01
 11
-5.87400000E+01
 21
5.16600000E+01
  0
LINE
  8
0
 62
7
 10
-1.00770000E+02
 20
5.21400000E+01
 11
-1.01250000E+02
 21
5.16600000E+01
  0
LINE
  8
0
 62
7
 10
-1.00250000E+02
 20
2.28700000E+01
 11
-1.01250000E+02
 21
5.16600000E+01
  0
LINE
  8
0
 62
7
 10
-5.97500000E+01
 20
2.28700000E+01
 11
-5.87400000E+01
 21
5.16600000E+01
  0
LINE
  8
0
 62
7
 10
-6.09600000E+01
 20
2.11100000E+01
 11
-6.09200000E+01
 21
2.21900000E+01
  0
LINE
  8
0
 62
7
 10
-9.90300000E+01
 20
2.11100000E+01
 11
-9.90700000E+01
 21
2.21900000E+01
  0
LINE
  8
0
 62
7
 10
-6.09200000E+01
 20
2.21900000E+01
 11
-5.97500000E+01
 21
2.28700000E+01
  0
LINE
  8
0
 62
7
 10
-9.90700000E+01
 20
2.21900000E+01
 11
-1.00250000E+02
 21
2.28700000E+01
  0
LINE
  8
0
 62
7
 10
-1.00770000E+02
 20
5.21400000E+01
 11
-5.92200000E+01
 21
5.21400000E+01
  0
LINE
  8
0
 62
7
 10
-9.80300000E+01
 20
2.01400000E+01
 11
-6.19600000E+01
 21
2.01400000E+01
  0
LINE
  8
0
 62
7
 10
-9.95900000E+01
 20
1.45000000E+02
 11
-9.85000000E+01
 21
1.46000000E+02
  0
LINE
  8
0
 62
7
 10
-6.04000000E+01
 20
1.45000000E+02
 11
-6.14900000E+01
 21
1.46000000E+02
  0
LINE
  8
0
 62
7
 10
-7.60000000E+01
 20
1.45000000E+02
 11
-7.57000000E+01
 21
1.46000000E+02
  0
LINE
  8
0
 62
7
 10
-8.42900000E+01
 20
1.39000000E+02
 11
-8.40000000E+01
 21
1.38420000E+02
  0
LINE
  8
0
 62
7
 10
-8.42900000E+01
 20
1.46000000E+02
 11
-8.40000000E+01
 21
1.45000000E+02
  0
LINE
  8
0
 62
7
 10
-9.10200000E+01
 20
1.45000000E+02
 11
-9.00500000E+01
 21
1.46000000E+02
  0
LINE
  8
0
 62
7
 10
-9.00500000E+01
 20
1.39000000E+02
 11
-9.10200000E+01
 21
1.38420000E+02
  0
LINE
  8
0
 62
7
 10
-9.85000000E+01
 20
1.39000000E+02
 11
-9.95900000E+01
 21
1.38420000E+02
  0
LINE
  8
0
 62
7
 10
-9.95900000E+01
 20
1.45000000E+02
 11
-9.95900000E+01
 21
1.38420000E+02
  0
LINE
  8
0
 62
7
 10
-6.04000000E+01
 20
1.45000000E+02
 11
-6.04000000E+01
 21
1.38420000E+02
  0
LINE
  8
0
 62
7
 10
-9.85000000E+01
 20
1.46000000E+02
 11
-9.85000000E+01
 21
1.39000000E+02
  0
LINE
  8
0
 62
7
 10
-6.14900000E+01
 20
1.46000000E+02
 11
-6.14900000E+01
 21
1.39000000E+02
  0
LINE
  8
0
 62
7
 10
-6.38700000E+01
 20
1.46000000E+02
 11
-6.33100000E+01
 21
1.45000000E+02
  0
LINE
  8
0
 62
7
 10
-9.66800000E+01
 20
1.45000000E+02
 11
-9.61200000E+01
 21
1.46000000E+02
  0
LINE
  8
0
 62
7
 10
-9.66800000E+01
 20
1.45000000E+02
 11
-9.10200000E+01
 21
1.45000000E+02
  0
LINE
  8
0
 62
7
 10
-6.04000000E+01
 20
1.45000000E+02
 11
-6.00000000E+01
 21
1.45000000E+02
  0
LINE
  8
0
 62
7
 10
-9.66800000E+01
 20
1.45000000E+02
 11
-9.66800000E+01
 21
1.38420000E+02
  0
LINE
  8
0
 62
7
 10
-6.33100000E+01
 20
1.45000000E+02
 11
-6.33100000E+01
 21
1.38420000E+02
  0
LINE
  8
0
 62
7
 10
-6.33100000E+01
 20
1.38420000E+02
 11
-6.04000000E+01
 21
1.38420000E+02
  0
LINE
  8
0
 62
7
 10
-9.10200000E+01
 20
1.38420000E+02
 11
-8.40000000E+01
 21
1.38420000E+02
  0
LINE
  8
0
 62
7
 10
-6.89700000E+01
 20
1.45000000E+02
 11
-6.89700000E+01
 21
1.38420000E+02
  0
LINE
  8
0
 62
7
 10
-9.10200000E+01
 20
1.45000000E+02
 11
-9.10200000E+01
 21
1.38420000E+02
  0
LINE
  8
0
 62
7
 10
-6.33100000E+01
 20
1.39000000E+02
 11
-6.14900000E+01
 21
1.39000000E+02
  0
LINE
  8
0
 62
7
 10
-9.00500000E+01
 20
1.39000000E+02
 11
-8.42900000E+01
 21
1.39000000E+02
  0
LINE
  8
0
 62
7
 10
-6.99400000E+01
 20
1.46000000E+02
 11
-6.99400000E+01
 21
1.39000000E+02
  0
LINE
  8
0
 62
7
 10
-9.00500000E+01
 20
1.46000000E+02
 11
-9.00500000E+01
 21
1.39000000E+02
  0
LINE
  8
0
 62
7
 10
-7.60000000E+01
 20
1.38420000E+02
 11
-6.89700000E+01
 21
1.38420000E+02
  0
LINE
  8
0
 62
7
 10
-7.57000000E+01
 20
1.39000000E+02
 11
-6.99400000E+01
 21
1.39000000E+02
  0
LINE
  8
0
 62
7
 10
-6.89700000E+01
 20
1.45000000E+02
 11
-6.33100000E+01
 21
1.45000000E+02
  0
LINE
  8
0
 62
7
 10
-8.40000000E+01
 20
1.45000000E+02
 11
-7.60000000E+01
 21
1.45000000E+02
  0
LINE
  8
0
 62
7
 10
-1.00000000E+02
 20
1.45000000E+02
 11
-9.95900000E+01
 21
1.45000000E+02
  0
LINE
  8
0
 62
7
 10
-8.42900000E+01
 20
1.46000000E+02
 11
-8.42900000E+01
 21
1.39000000E+02
  0
LINE
  8
0
 62
7
 10
-7.57000000E+01
 20
1.46000000E+02
 11
-7.57000000E+01
 21
1.39000000E+02
  0
LINE
  8
0
 62
7
 10
-7.60000000E+01
 20
1.45000000E+02
 11
-7.60000000E+01
 21
1.38420000E+02
  0
LINE
  8
0
 62
7
 10
-8.40000000E+01
 20
1.45000000E+02
 11
-8.40000000E+01
 21
1.38420000E+02
  0
LINE
  8
0
 62
7
 10
-9.95900000E+01
 20
1.38420000E+02
 11
-9.66800000E+01
 21
1.38420000E+02
  0
LINE
  8
0
 62
7
 10
-9.85000000E+01
 20
1.39000000E+02
 11
-9.66800000E+01
 21
1.39000000E+02
  0
LINE
  8
0
 62
7
 10
-6.00000000E+01
 20
1.45000000E+02
 11
-6.10000000E+01
 21
1.46000000E+02
  0
LINE
  8
0
 62
7
 10
-1.00000000E+02
 20
1.45000000E+02
 11
-9.90000000E+01
 21
1.46000000E+02
  0
LINE
  8
0
 62
7
 10
-1.00000000E+02
 20
1.45000000E+02
 11
-1.00000000E+02
 21
1.36000000E+02
  0
LINE
  8
0
 62
7
 10
-6.00000000E+01
 20
1.45000000E+02
 11
-6.00000000E+01
 21
1.36070000E+02
  0
LINE
  8
0
 62
7
 10
-9.90000000E+01
 20
1.46000000E+02
 11
-6.10000000E+01
 21
1.46000000E+02
  0
LINE
  8
0
 62
7
 10
-6.99400000E+01
 20
1.39000000E+02
 11
-6.89700000E+01
 21
1.38420000E+02
  0
LINE
  8
0
 62
7
 10
-7.60000000E+01
 20
1.38420000E+02
 11
-7.57000000E+01
 21
1.39000000E+02
  0
LINE
  8
0
 62
7
 10
-6.14900000E+01
 20
1.39000000E+02
 11
-6.04000000E+01
 21
1.38420000E+02
  0
LINE
  8
0
 62
7
 10
-6.89700000E+01
 20
1.45000000E+02
 11
-6.99400000E+01
 21
1.46000000E+02
  0
LINE
  8
0
 62
7
 10
-1.00000000E+02
 20
1.36000000E+02
 11
-6.00000000E+01
 21
1.36000000E+02
  0
LINE
  8
0
 62
7
 10
-1.09000000E+02
 20
1.25000000E+02
 11
-1.09880000E+02
 21
1.24380000E+02
  0
LINE
  8
0
 62
7
 10
-1.09880000E+02
 20
9.56100000E+01
 11
-1.09000000E+02
 21
9.50000000E+01
  0
LINE
  8
0
 62
7
 10
-1.22110000E+02
 20
9.56100000E+01
 11
-1.09880000E+02
 21
9.56100000E+01
  0
LINE
  8
0
 62
7
 10
-1.22110000E+02
 20
1.24380000E+02
 11
-1.09880000E+02
 21
1.24380000E+02
  0
LINE
  8
0
 62
7
 10
-1.09880000E+02
 20
1.24380000E+02
 11
-1.09880000E+02
 21
9.56100000E+01
  0
LINE
  8
0
 62
7
 10
-1.23000000E+02
 20
9.50000000E+01
 11
-1.09000000E+02
 21
9.50000000E+01
  0
LINE
  8
0
 62
7
 10
-1.23000000E+02
 20
1.25000000E+02
 11
-1.09000000E+02
 21
1.25000000E+02
  0
LINE
  8
0
 62
7
 10
-1.28500000E+02
 20
8.50000000E+01
 11
-1.28500000E+02
 21
1.35000000E+02
  0
LINE
  8
0
 62
7
 10
-1.30000000E+02
 20
1.33500000E+02
 11
-1.30000000E+02
 21
8.65000000E+01
  0
LINE
  8
0
 62
7
 10
-1.09000000E+02
 20
1.25000000E+02
 11
-1.09000000E+02
 21
9.50000000E+01
  0
LINE
  8
0
 62
7
 10
-9.36900000E+01
 20
1.03000000E+02
 11
-9.46900000E+01
 21
1.02000000E+02
  0
LINE
  8
0
 62
7
 10
-9.46900000E+01
 20
8.65000000E+01
 11
-9.61900000E+01
 21
8.50000000E+01
  0
LINE
  8
0
 62
7
 10
-9.46900000E+01
 20
8.65000000E+01
 11
-9.46900000E+01
 21
1.02000000E+02
  0
LINE
  8
0
 62
7
 10
-1.09000000E+02
 20
8.40000000E+01
 11
-5.10000000E+01
 21
8.40000000E+01
  0
LINE
  8
0
 62
7
 10
-5.20000000E+01
 20
8.30000000E+01
 11
-5.10000000E+01
 21
8.40000000E+01
  0
LINE
  8
0
 62
7
 10
-1.09000000E+02
 20
8.40000000E+01
 11
-1.08000000E+02
 21
8.30000000E+01
  0
LINE
  8
0
 62
7
 10
-5.10000000E+01
 20
8.50000000E+01
 11
-5.10000000E+01
 21
8.40000000E+01
  0
LINE
  8
0
 62
7
 10
-1.09000000E+02
 20
8.50000000E+01
 11
-1.09000000E+02
 21
8.40000000E+01
  0
LINE
  8
0
 62
7
 10
-1.14000000E+02
 20
8.40000000E+01
 11
-1.14000000E+02
 21
8.50000000E+01
  0
LINE
  8
0
 62
7
 10
-1.25000000E+02
 20
8.40000000E+01
 11
-1.25000000E+02
 21
8.50000000E+01
  0
LINE
  8
0
 62
7
 10
-1.25000000E+02
 20
8.40000000E+01
 11
-1.14000000E+02
 21
8.40000000E+01
  0
LINE
  8
0
 62
7
 10
-1.30000000E+02
 20
8.65000000E+01
 11
-9.46900000E+01
 21
8.65000000E+01
  0
LINE
  8
0
 62
7
 10
-3.15000000E+01
 20
8.50000000E+01
 11
-3.00000000E+01
 21
8.65000000E+01
  0
LINE
  8
0
 62
7
 10
-1.30000000E+02
 20
8.65000000E+01
 11
-1.28500000E+02
 21
8.50000000E+01
  0
LINE
  8
0
 62
4
 10
-1.15000000E+02
 20
8.30000000E+01
 11
-1.08000000E+02
 21
8.30000000E+01
  0
LINE
  8
0
 62
7
 10
-1.28500000E+02
 20
8.50000000E+01
 11
-9.61900000E+01
 21
8.50000000E+01
  0
LINE
  8
0
 62
7
 10
-1.25000000E+02
 20
1.36000000E+02
 11
-1.14000000E+02
 21
1.36000000E+02
  0
LINE
  8
0
 62
7
 10
-1.14000000E+02
 20
1.36000000E+02
 11
-1.14000000E+02
 21
1.35000000E+02
  0
LINE
  8
0
 62
7
 10
-1.25000000E+02
 20
1.36000000E+02
 11
-1.25000000E+02
 21
1.35000000E+02
  0
LINE
  8
0
  6
CENTER
 62
2
 10
-8.00000000E+01
 20
1.52560000E+02
 11
-8.00000000E+01
 21
1.51400000E+01
  0
LINE
  8
0
 62
7
 10
-1.30000000E+02
 20
1.33500000E+02
 11
-3.00000000E+01
 21
1.33500000E+02
  0
LINE
  8
0
 62
7
 10
-3.00000000E+01
 20
1.33500000E+02
 11
-3.15000000E+01
 21
1.35000000E+02
  0
LINE
  8
0
 62
7
 10
-1.30000000E+02
 20
1.33500000E+02
 11
-1.28500000E+02
 21
1.35000000E+02
  0
LINE
  8
0
 62
7
 10
-1.28500000E+02
 20
1.35000000E+02
 11
-3.15000000E+01
 21
1.35000000E+02
  0
LINE
  8
0
 62
7
 10
-3.00000000E+01
 20
1.33500000E+02
 11
-3.00000000E+01
 21
8.65000000E+01
  0
CIRCLE
  8
0
 62
7
 10
-6.30000305E+01
 20
1.10000024E+02
 40
9.00000000E+00
  0
CIRCLE
  8
0
 62
7
 10
-6.30000305E+01
 20
1.10000024E+02
 40
1.00000000E+01
  0
LINE
  8
0
 62
7
 10
-5.10000000E+01
 20
1.25000024E+02
 11
-5.01200000E+01
 21
1.24380024E+02
  0
LINE
  8
0
 62
7
 10
-3.70000000E+01
 20
1.25000024E+02
 11
-3.78900000E+01
 21
1.24380024E+02
  0
LINE
  8
0
 62
7
 10
-5.10000000E+01
 20
9.50000235E+01
 11
-5.01200000E+01
 21
9.56200235E+01
  0
LINE
  8
0
 62
7
 10
-3.70000000E+01
 20
9.50000235E+01
 11
-3.78900000E+01
 21
9.56200235E+01
  0
LINE
  8
0
  6
CENTER
 62
2
 10
-6.30000000E+01
 20
1.23000024E+02
 11
-6.30000000E+01
 21
9.70000235E+01
  0
LINE
  8
0
 62
7
 10
-6.53100000E+01
 20
1.00260024E+02
 11
-6.53100000E+01
 21
8.65000235E+01
  0
LINE
  8
0
 62
7
 10
-9.47000000E+01
 20
1.02000024E+02
 11
-6.90000000E+01
 21
1.02000024E+02
  0
LINE
  8
0
 62
7
 10
-9.36899765E+01
 20
1.03000024E+02
 11
-7.01500000E+01
 21
1.03000024E+02
  0
LINE
  8
0
 62
7
 10
-3.70000000E+01
 20
9.50000235E+01
 11
-5.10000000E+01
 21
9.50000235E+01
  0
LINE
  8
0
 62
7
 10
-3.78900000E+01
 20
9.56200235E+01
 11
-5.01200000E+01
 21
9.56200235E+01
  0
LINE
  8
0
 62
7
 10
-5.01200000E+01
 20
1.24380024E+02
 11
-5.01200000E+01
 21
9.56200235E+01
  0
LINE
  8
0
 62
7
 10
-5.10000000E+01
 20
1.25000024E+02
 11
-5.10000000E+01
 21
9.50000235E+01
  0
LINE
  8
0
 62
7
 10
-3.70000000E+01
 20
1.25000024E+02
 11
-3.70000000E+01
 21
9.50000235E+01
  0
LINE
  8
0
 62
7
 10
-3.78900000E+01
 20
1.24380024E+02
 11
-3.78900000E+01
 21
9.56200235E+01
  0
LINE
  8
0
 62
7
 10
-3.78900000E+01
 20
1.24380024E+02
 11
-5.01200000E+01
 21
1.24380024E+02
  0
LINE
  8
0
 62
7
 10
-3.70000000E+01
 20
1.25000024E+02
 11
-5.10000000E+01
 21
1.25000024E+02
  0
CIRCLE
  8
0
 62
4
 10
-6.29875052E+01
 20
1.09999998E+02
 40
5.36606389E+00
  0
CIRCLE
  8
0
 62
4
 10
-6.29875052E+01
 20
1.09999998E+02
 40
6.57850004E+00
  0
CIRCLE
  8
0
 62
4
 10
-6.29875052E+01
 20
1.09999998E+02
 40
3.49999979E+00
  0
LINE
  8
0
 62
4
 10
-6.60285715E+01
 20
1.08242881E+02
 11
-6.30000000E+01
 21
1.06500023E+02
  0
LINE
  8
0
 62
4
 10
-6.30000000E+01
 20
1.06500023E+02
 11
-5.99571428E+01
 21
1.08242881E+02
  0
LINE
  8
0
 62
4
 10
-5.99571428E+01
 20
1.11742881E+02
 11
-5.99571428E+01
 21
1.08242881E+02
  0
LINE
  8
0
 62
4
 10
-6.60285715E+01
 20
1.11742881E+02
 11
-6.60285715E+01
 21
1.08242881E+02
  0
LINE
  8
0
 62
4
 10
-6.30000000E+01
 20
1.13500024E+02
 11
-5.99571428E+01
 21
1.11742881E+02
  0
LINE
  8
0
 62
4
 10
-6.60285715E+01
 20
1.11742881E+02
 11
-6.30000000E+01
 21
1.13500024E+02
  0
LINE
  8
0
  6
CENTER
 62
6
 10
1.55900000E+02
 20
6.30000000E+01
 11
1.70900000E+02
 21
6.30000000E+01
  0
LINE
  8
0
  6
CENTER
 62
2
 10
8.51323160E+01
 20
1.10000047E+02
 11
1.53375625E+02
 21
1.10000057E+02
  0
ARC
  8
0
 62
7
 10
1.20000015E+02
 20
1.13000000E+02
 40
6.99991199E+00
 50
3.08212295E+02
 51
5.17877043E+01
  0
ARC
  8
0
 62
4
 10
1.60300011E+02
 20
7.83000107E+01
 40
4.69998932E+00
 50
3.59999870E+02
 51
9.00000002E+01
  0
ARC
  8
0
 62
4
 10
1.60300011E+02
 20
7.83000107E+01
 40
1.49998932E+00
 50
3.59999592E+02
 51
9.00000002E+01
  0
CIRCLE
  8
0
 62
2
 10
1.20000015E+02
 20
1.10000000E+02
 40
1.32205000E+01
  0
CIRCLE
  8
0
 62
7
 10
1.20000015E+02
 20
1.10000000E+02
 40
1.20585012E+01
  0
ARC
  8
0
 62
7
 10
1.20000015E+02
 20
1.13000000E+02
 40
6.99993087E+00
 50
1.28212492E+02
 51
2.31787508E+02
  0
CIRCLE
  8
0
 62
7
 10
1.20000015E+02
 20
1.10000061E+02
 40
2.10000000E+01
  0
ARC
  8
0
 62
7
 10
1.01962328E+02
 20
2.09532582E+01
 40
1.00326090E+00
 50
1.82471222E+02
 51
2.69867057E+02
  0
ARC
  8
0
 62
7
 10
1.38032487E+02
 20
2.09482430E+01
 40
9.98246136E-01
 50
2.69857273E+02
 51
3.57804448E+02
  0
LINE
  8
0
 62
7
 10
1.15670000E+02
 20
1.18500000E+02
 11
1.24330000E+02
 21
1.18500000E+02
  0
LINE
  8
0
 62
7
 10
1.15670000E+02
 20
1.07500000E+02
 11
1.24330000E+02
 21
1.07500000E+02
  0
LINE
  8
0
 62
4
 10
1.61800000E+02
 20
5.30000000E+01
 11
1.65000000E+02
 21
5.30000000E+01
  0
LINE
  8
0
 62
4
 10
1.48500000E+02
 20
7.98000000E+01
 11
1.60300000E+02
 21
7.98000000E+01
  0
LINE
  8
0
 62
4
 10
1.48000000E+02
 20
8.30000000E+01
 11
1.60300000E+02
 21
8.30000000E+01
  0
LINE
  8
0
 62
4
 10
9.25000000E+01
 20
8.30000000E+01
 11
9.25000000E+01
 21
7.98000000E+01
  0
LINE
  8
0
 62
4
 10
1.61800000E+02
 20
7.83000000E+01
 11
1.61800000E+02
 21
5.30000000E+01
  0
LINE
  8
0
 62
4
 10
1.65000000E+02
 20
7.83000000E+01
 11
1.65000000E+02
 21
5.30000000E+01
  0
LINE
  8
0
 62
7
 10
1.15630000E+02
 20
2.19900000E+01
 11
1.14730000E+02
 21
4.79500000E+01
  0
LINE
  8
0
 62
7
 10
1.16000000E+02
 20
2.26700000E+01
 11
1.15090000E+02
 21
4.86300000E+01
  0
LINE
  8
0
 62
7
 10
1.14730000E+02
 20
4.79500000E+01
 11
1.15090000E+02
 21
4.86300000E+01
  0
LINE
  8
0
 62
7
 10
1.10910000E+02
 20
4.79500000E+01
 11
1.14730000E+02
 21
4.79500000E+01
  0
LINE
  8
0
 62
7
 10
1.09690000E+02
 20
4.86300000E+01
 11
1.15090000E+02
 21
4.86300000E+01
  0
LINE
  8
0
 62
7
 10
1.10910000E+02
 20
4.79500000E+01
 11
1.09690000E+02
 21
4.86300000E+01
  0
LINE
  8
0
 62
7
 10
1.10010000E+02
 20
2.19900000E+01
 11
1.10910000E+02
 21
4.79500000E+01
  0
LINE
  8
0
 62
7
 10
1.08790000E+02
 20
2.26700000E+01
 11
1.09690000E+02
 21
4.86300000E+01
  0
LINE
  8
0
 62
7
 10
1.03130000E+02
 20
2.26700000E+01
 11
1.02220000E+02
 21
4.86300000E+01
  0
LINE
  8
0
 62
7
 10
1.00520000E+02
 20
4.79500000E+01
 11
1.02250000E+02
 21
4.79500000E+01
  0
LINE
  8
0
 62
7
 10
1.01430000E+02
 20
2.19900000E+01
 11
1.00520000E+02
 21
4.79500000E+01
  0
LINE
  8
0
 62
7
 10
1.00150000E+02
 20
2.26700000E+01
 11
9.92400000E+01
 21
4.86300000E+01
  0
LINE
  8
0
 62
7
 10
1.00520000E+02
 20
4.79500000E+01
 11
9.92400000E+01
 21
4.86300000E+01
  0
LINE
  8
0
 62
7
 10
9.92400000E+01
 20
4.86300000E+01
 11
1.02220000E+02
 21
4.86300000E+01
  0
LINE
  8
0
 62
7
 10
9.97500000E+01
 20
2.26700000E+01
 11
9.87400000E+01
 21
5.14600000E+01
  0
LINE
  8
0
 62
7
 10
9.92200000E+01
 20
5.19500000E+01
 11
9.87400000E+01
 21
5.14600000E+01
  0
LINE
  8
0
 62
7
 10
9.87400000E+01
 20
5.14600000E+01
 11
1.41250000E+02
 21
5.14600000E+01
  0
LINE
  8
0
 62
7
 10
9.92200000E+01
 20
5.19500000E+01
 11
1.40770000E+02
 21
5.19500000E+01
  0
LINE
  8
0
 62
2
 10
9.85000000E+01
 20
8.30000000E+01
 11
9.85000000E+01
 21
7.98000000E+01
  0
LINE
  8
0
 62
7
 10
1.16500000E+02
 20
7.08000000E+01
 11
1.16220000E+02
 21
6.98000000E+01
  0
LINE
  8
0
 62
7
 10
1.16220000E+02
 20
7.68000000E+01
 11
1.16500000E+02
 21
7.78000000E+01
  0
LINE
  8
0
 62
7
 10
1.08890000E+02
 20
7.78000000E+01
 11
1.09650000E+02
 21
7.68000000E+01
  0
LINE
  8
0
 62
7
 10
1.08880000E+02
 20
7.08000000E+01
 11
1.09650000E+02
 21
6.98000000E+01
  0
LINE
  8
0
 62
7
 10
1.02820000E+02
 20
6.98000000E+01
 11
1.03100000E+02
 21
7.08000000E+01
  0
LINE
  8
0
 62
7
 10
1.02820000E+02
 20
7.68000000E+01
 11
1.03100000E+02
 21
7.78000000E+01
  0
LINE
  8
0
 62
7
 10
9.83000000E+01
 20
7.68000000E+01
 11
9.72500000E+01
 21
7.78000000E+01
  0
LINE
  8
0
 62
7
 10
9.72500000E+01
 20
7.08000000E+01
 11
9.83000000E+01
 21
6.98000000E+01
  0
LINE
  8
0
 62
7
 10
9.17100000E+01
 20
7.78000000E+01
 11
9.27600000E+01
 21
7.68000000E+01
  0
LINE
  8
0
 62
7
 10
9.17100000E+01
 20
7.08000000E+01
 11
9.27600000E+01
 21
6.98000000E+01
  0
LINE
  8
0
 62
7
 10
9.17100000E+01
 20
7.78000000E+01
 11
9.17100000E+01
 21
7.08000000E+01
  0
LINE
  8
0
 62
7
 10
9.27600000E+01
 20
7.68000000E+01
 11
9.27600000E+01
 21
6.98000000E+01
  0
LINE
  8
0
 62
7
 10
9.37500000E+01
 20
7.08000000E+01
 11
9.45200000E+01
 21
6.98000000E+01
  0
LINE
  8
0
 62
7
 10
9.37500000E+01
 20
7.08000000E+01
 11
9.72500000E+01
 21
7.08000000E+01
  0
LINE
  8
0
 62
7
 10
9.27600000E+01
 20
7.68000000E+01
 11
9.37500000E+01
 21
7.68000000E+01
  0
LINE
  8
0
 62
7
 10
9.17100000E+01
 20
7.78000000E+01
 11
9.37500000E+01
 21
7.78000000E+01
  0
LINE
  8
0
 62
7
 10
9.37500000E+01
 20
7.78000000E+01
 11
9.37500000E+01
 21
7.08000000E+01
  0
LINE
  8
0
 62
7
 10
9.83000000E+01
 20
7.68000000E+01
 11
1.02820000E+02
 21
7.68000000E+01
  0
LINE
  8
0
 62
7
 10
9.72500000E+01
 20
7.78000000E+01
 11
1.03100000E+02
 21
7.78000000E+01
  0
LINE
  8
0
 62
7
 10
9.83000000E+01
 20
7.68000000E+01
 11
9.83000000E+01
 21
6.98000000E+01
  0
LINE
  8
0
 62
7
 10
9.72500000E+01
 20
7.78000000E+01
 11
9.72500000E+01
 21
7.08000000E+01
  0
LINE
  8
0
 62
7
 10
1.03100000E+02
 20
7.08000000E+01
 11
1.08890000E+02
 21
7.08000000E+01
  0
LINE
  8
0
 62
7
 10
1.03100000E+02
 20
7.78000000E+01
 11
1.03100000E+02
 21
7.08000000E+01
  0
LINE
  8
0
 62
7
 10
1.02820000E+02
 20
7.68000000E+01
 11
1.02820000E+02
 21
6.98000000E+01
  0
LINE
  8
0
 62
7
 10
1.09650000E+02
 20
7.68000000E+01
 11
1.09650000E+02
 21
6.98000000E+01
  0
LINE
  8
0
 62
7
 10
1.08890000E+02
 20
7.78000000E+01
 11
1.08890000E+02
 21
7.08000000E+01
  0
LINE
  8
0
 62
7
 10
1.16220000E+02
 20
7.68000000E+01
 11
1.16220000E+02
 21
6.98000000E+01
  0
LINE
  8
0
 62
7
 10
1.16500000E+02
 20
7.78000000E+01
 11
1.16500000E+02
 21
7.08000000E+01
  0
LINE
  8
0
 62
7
 10
1.09650000E+02
 20
7.68000000E+01
 11
1.16220000E+02
 21
7.68000000E+01
  0
LINE
  8
0
 62
7
 10
1.08890000E+02
 20
7.78000000E+01
 11
1.16500000E+02
 21
7.78000000E+01
  0
LINE
  8
0
 62
7
 10
1.16500000E+02
 20
7.08000000E+01
 11
1.23500000E+02
 21
7.08000000E+01
  0
LINE
  8
0
 62
7
 10
9.15000000E+01
 20
7.08000000E+01
 11
9.17100000E+01
 21
7.08000000E+01
  0
LINE
  8
0
 62
7
 10
9.15000000E+01
 20
7.08000000E+01
 11
9.25000000E+01
 21
6.98000000E+01
  0
LINE
  8
0
 62
7
 10
9.25000000E+01
 20
6.98000000E+01
 11
1.47500000E+02
 21
6.98000000E+01
  0
LINE
  8
0
 62
7
 10
9.15000000E+01
 20
7.98000000E+01
 11
9.15000000E+01
 21
7.08000000E+01
  0
LINE
  8
0
 62
7
 10
9.15000000E+01
 20
7.98000000E+01
 11
1.48500000E+02
 21
7.98000000E+01
  0
LINE
  8
0
 62
7
 10
1.00400000E+02
 20
1.45000000E+02
 11
1.01490000E+02
 21
1.46000000E+02
  0
LINE
  8
0
 62
7
 10
1.15700000E+02
 20
1.39000000E+02
 11
1.16000000E+02
 21
1.38420000E+02
  0
LINE
  8
0
 62
7
 10
1.15700000E+02
 20
1.46000000E+02
 11
1.16000000E+02
 21
1.45000000E+02
  0
LINE
  8
0
 62
7
 10
1.08970000E+02
 20
1.45000000E+02
 11
1.09940000E+02
 21
1.46000000E+02
  0
LINE
  8
0
 62
7
 10
1.09940000E+02
 20
1.39000000E+02
 11
1.08970000E+02
 21
1.38420000E+02
  0
LINE
  8
0
 62
7
 10
1.01490000E+02
 20
1.39000000E+02
 11
1.00400000E+02
 21
1.38420000E+02
  0
LINE
  8
0
 62
7
 10
1.00400000E+02
 20
1.45000000E+02
 11
1.00400000E+02
 21
1.38420000E+02
  0
LINE
  8
0
 62
7
 10
1.01490000E+02
 20
1.46000000E+02
 11
1.01490000E+02
 21
1.39000000E+02
  0
LINE
  8
0
 62
7
 10
1.03310000E+02
 20
1.45000000E+02
 11
1.03870000E+02
 21
1.46000000E+02
  0
LINE
  8
0
 62
7
 10
1.03310000E+02
 20
1.45000000E+02
 11
1.08970000E+02
 21
1.45000000E+02
  0
LINE
  8
0
 62
7
 10
1.03310000E+02
 20
1.45000000E+02
 11
1.03310000E+02
 21
1.38420000E+02
  0
LINE
  8
0
 62
7
 10
1.08970000E+02
 20
1.38420000E+02
 11
1.16000000E+02
 21
1.38420000E+02
  0
LINE
  8
0
 62
7
 10
1.08970000E+02
 20
1.45000000E+02
 11
1.08970000E+02
 21
1.38420000E+02
  0
LINE
  8
0
 62
7
 10
1.09940000E+02
 20
1.39000000E+02
 11
1.15700000E+02
 21
1.39000000E+02
  0
LINE
  8
0
 62
7
 10
1.09940000E+02
 20
1.46000000E+02
 11
1.09940000E+02
 21
1.39000000E+02
  0
LINE
  8
0
 62
7
 10
1.16000000E+02
 20
1.45000000E+02
 11
1.24000000E+02
 21
1.45000000E+02
  0
LINE
  8
0
 62
7
 10
1.00000000E+02
 20
1.45000000E+02
 11
1.00400000E+02
 21
1.45000000E+02
  0
LINE
  8
0
 62
7
 10
1.15700000E+02
 20
1.46000000E+02
 11
1.15700000E+02
 21
1.39000000E+02
  0
LINE
  8
0
 62
7
 10
1.16000000E+02
 20
1.45000000E+02
 11
1.16000000E+02
 21
1.38420000E+02
  0
LINE
  8
0
 62
7
 10
1.00400000E+02
 20
1.38420000E+02
 11
1.03310000E+02
 21
1.38420000E+02
  0
LINE
  8
0
 62
7
 10
1.01490000E+02
 20
1.39000000E+02
 11
1.03310000E+02
 21
1.39000000E+02
  0
LINE
  8
0
 62
7
 10
1.00000000E+02
 20
1.45000000E+02
 11
1.01000000E+02
 21
1.46000000E+02
  0
LINE
  8
0
 62
7
 10
1.00000000E+02
 20
1.45000000E+02
 11
1.00000000E+02
 21
1.36000000E+02
  0
LINE
  8
0
 62
7
 10
1.01000000E+02
 20
1.46000000E+02
 11
1.39000000E+02
 21
1.46000000E+02
  0
LINE
  8
0
  6
CENTER
 62
2
 10
1.11000000E+02
 20
1.13000000E+02
 11
1.29000000E+02
 21
1.13000000E+02
  0
LINE
  8
0
 62
7
 10
9.25000000E+01
 20
1.01000000E+02
 11
9.35000000E+01
 21
1.00000000E+02
  0
LINE
  8
0
 62
7
 10
9.35000000E+01
 20
1.00000000E+02
 11
9.50000000E+01
 21
1.00000000E+02
  0
LINE
  8
0
 62
7
 10
9.35000000E+01
 20
1.20000000E+02
 11
9.35000000E+01
 21
1.00000000E+02
  0
LINE
  8
0
 62
7
 10
9.25000000E+01
 20
1.19000000E+02
 11
9.35000000E+01
 21
1.20000000E+02
  0
LINE
  8
0
 62
7
 10
9.35000000E+01
 20
1.20000000E+02
 11
9.50000000E+01
 21
1.20000000E+02
  0
LINE
  8
0
 62
7
 10
9.25000000E+01
 20
1.19000000E+02
 11
9.25000000E+01
 21
1.01000000E+02
  0
LINE
  8
0
 62
7
 10
9.10000000E+01
 20
1.02000000E+02
 11
9.25000000E+01
 21
1.02000000E+02
  0
LINE
  8
0
 62
7
 10
9.10000000E+01
 20
1.02000000E+02
 11
9.20000000E+01
 21
1.03000000E+02
  0
LINE
  8
0
 62
7
 10
9.20000000E+01
 20
1.03000000E+02
 11
9.25000000E+01
 21
1.03000000E+02
  0
LINE
  8
0
 62
7
 10
9.65000000E+01
 20
8.50000000E+01
 11
9.65000000E+01
 21
1.35000000E+02
  0
LINE
  8
0
 62
7
 10
9.50000000E+01
 20
8.65000000E+01
 11
1.45000000E+02
 21
8.65000000E+01
  0
LINE
  8
0
 62
7
 10
9.50000000E+01
 20
1.33500000E+02
 11
9.65000000E+01
 21
1.35000000E+02
  0
LINE
  8
0
 62
7
 10
9.50000000E+01
 20
8.65000000E+01
 11
9.65000000E+01
 21
8.50000000E+01
  0
LINE
  8
0
 62
7
 10
9.10000000E+01
 20
8.40000000E+01
 11
1.49000000E+02
 21
8.40000000E+01
  0
LINE
  8
0
 62
7
 10
9.10000000E+01
 20
8.40000000E+01
 11
9.20000000E+01
 21
8.30000000E+01
  0
LINE
  8
0
 62
7
 10
9.10000000E+01
 20
1.02000000E+02
 11
9.10000000E+01
 21
8.40000000E+01
  0
LINE
  8
0
 62
7
 10
1.00250000E+02
 20
1.36000000E+02
 11
1.00250000E+02
 21
1.35000000E+02
  0
LINE
  8
0
 62
7
 10
9.50000000E+01
 20
1.33500000E+02
 11
9.50000000E+01
 21
8.65000000E+01
  0
LINE
  8
0
 62
7
 10
9.20000000E+01
 20
8.30000000E+01
 11
1.48000000E+02
 21
8.30000000E+01
  0
LINE
  8
0
 62
7
 10
9.65000000E+01
 20
8.50000000E+01
 11
1.43500000E+02
 21
8.50000000E+01
  0
LINE
  8
0
 62
7
 10
9.65000000E+01
 20
1.35000000E+02
 11
1.43500000E+02
 21
1.35000000E+02
  0
LINE
  8
0
 62
7
 10
1.00000000E+02
 20
1.36000000E+02
 11
1.40000000E+02
 21
1.36000000E+02
  0
LINE
  8
0
 62
7
 10
9.75000000E+01
 20
8.30000000E+01
 11
9.75000000E+01
 21
7.98000000E+01
  0
LINE
  8
0
 62
7
 10
1.08230000E+02
 20
6.98000000E+01
 11
1.08230000E+02
 21
5.19500000E+01
  0
LINE
  8
0
 62
7
 10
1.14080000E+02
 20
6.98000000E+01
 11
1.14080000E+02
 21
5.19500000E+01
  0
LINE
  8
0
 62
7
 10
1.00950000E+02
 20
6.98000000E+01
 11
1.01640000E+02
 21
5.19500000E+01
  0
LINE
  8
0
 62
7
 10
9.50000000E+01
 20
1.33500000E+02
 11
1.45000000E+02
 21
1.33500000E+02
  0
LINE
  8
0
 62
7
 10
1.47500000E+02
 20
1.03420000E+02
 11
1.48470000E+02
 21
1.03390000E+02
  0
LINE
  8
0
 62
7
 10
1.47500000E+02
 20
1.04270000E+02
 11
1.48950000E+02
 21
1.04230000E+02
  0
LINE
  8
0
 62
7
 10
1.48470000E+02
 20
1.03390000E+02
 11
1.49170000E+02
 21
1.04600000E+02
  0
LINE
  8
0
 62
7
 10
1.48470000E+02
 20
1.16600000E+02
 11
1.49170000E+02
 21
1.15390000E+02
  0
LINE
  8
0
 62
7
 10
1.47500000E+02
 20
1.16570000E+02
 11
1.48470000E+02
 21
1.16600000E+02
  0
LINE
  8
0
 62
7
 10
1.47500000E+02
 20
1.15720000E+02
 11
1.48950000E+02
 21
1.15760000E+02
  0
LINE
  8
0
 62
7
 10
1.48470000E+02
 20
1.16600000E+02
 11
1.48470000E+02
 21
1.03390000E+02
  0
LINE
  8
0
 62
7
 10
1.49170000E+02
 20
1.15390000E+02
 11
1.49170000E+02
 21
1.04600000E+02
  0
LINE
  8
0
 62
7
 10
1.31760000E+02
 20
6.98000000E+01
 11
1.31760000E+02
 21
5.19500000E+01
  0
LINE
  8
0
 62
7
 10
1.25910000E+02
 20
6.98000000E+01
 11
1.25910000E+02
 21
5.19500000E+01
  0
LINE
  8
0
 62
7
 10
1.39050000E+02
 20
6.98000000E+01
 11
1.38350000E+02
 21
5.19500000E+01
  0
LINE
  8
0
 62
7
 10
1.42500000E+02
 20
8.30000000E+01
 11
1.42500000E+02
 21
7.98000000E+01
  0
LINE
  8
0
 62
2
 10
1.41500000E+02
 20
8.30000000E+01
 11
1.41500000E+02
 21
7.98000000E+01
  0
LINE
  8
0
 62
7
 10
1.41700000E+02
 20
7.68000000E+01
 11
1.42740000E+02
 21
7.78000000E+01
  0
LINE
  8
0
 62
7
 10
1.37170000E+02
 20
6.98000000E+01
 11
1.36890000E+02
 21
7.08000000E+01
  0
LINE
  8
0
 62
7
 10
1.37170000E+02
 20
7.68000000E+01
 11
1.36890000E+02
 21
7.78000000E+01
  0
LINE
  8
0
 62
7
 10
1.31110000E+02
 20
7.78000000E+01
 11
1.30340000E+02
 21
7.68000000E+01
  0
LINE
  8
0
 62
7
 10
1.31110000E+02
 20
7.08000000E+01
 11
1.30340000E+02
 21
6.98000000E+01
  0
LINE
  8
0
 62
7
 10
1.23500000E+02
 20
7.08000000E+01
 11
1.23780000E+02
 21
6.98000000E+01
  0
LINE
  8
0
 62
7
 10
1.23780000E+02
 20
7.68000000E+01
 11
1.23500000E+02
 21
7.78000000E+01
  0
LINE
  8
0
 62
7
 10
1.47240000E+02
 20
7.68000000E+01
 11
1.48280000E+02
 21
7.78000000E+01
  0
LINE
  8
0
 62
7
 10
1.47240000E+02
 20
6.98000000E+01
 11
1.48280000E+02
 21
7.08000000E+01
  0
LINE
  8
0
 62
7
 10
1.48280000E+02
 20
7.78000000E+01
 11
1.48280000E+02
 21
7.08000000E+01
  0
LINE
  8
0
 62
7
 10
1.47240000E+02
 20
7.68000000E+01
 11
1.47240000E+02
 21
6.98000000E+01
  0
LINE
  8
0
 62
7
 10
1.46240000E+02
 20
7.08000000E+01
 11
1.45480000E+02
 21
6.98000000E+01
  0
LINE
  8
0
 62
7
 10
1.48280000E+02
 20
7.08000000E+01
 11
1.48500000E+02
 21
7.08000000E+01
  0
LINE
  8
0
 62
7
 10
1.46240000E+02
 20
7.78000000E+01
 11
1.46240000E+02
 21
7.08000000E+01
  0
LINE
  8
0
 62
7
 10
1.46240000E+02
 20
7.68000000E+01
 11
1.47240000E+02
 21
7.68000000E+01
  0
LINE
  8
0
 62
7
 10
1.46240000E+02
 20
7.78000000E+01
 11
1.48280000E+02
 21
7.78000000E+01
  0
LINE
  8
0
 62
7
 10
1.42740000E+02
 20
7.78000000E+01
 11
1.42740000E+02
 21
7.08000000E+01
  0
LINE
  8
0
 62
7
 10
1.41700000E+02
 20
7.68000000E+01
 11
1.41700000E+02
 21
6.98000000E+01
  0
LINE
  8
0
 62
7
 10
1.42740000E+02
 20
7.08000000E+01
 11
1.46240000E+02
 21
7.08000000E+01
  0
LINE
  8
0
 62
7
 10
1.36890000E+02
 20
7.78000000E+01
 11
1.36890000E+02
 21
7.08000000E+01
  0
LINE
  8
0
 62
7
 10
1.37170000E+02
 20
7.68000000E+01
 11
1.37170000E+02
 21
6.98000000E+01
  0
LINE
  8
0
 62
7
 10
1.30340000E+02
 20
7.68000000E+01
 11
1.30340000E+02
 21
6.98000000E+01
  0
LINE
  8
0
 62
7
 10
1.31110000E+02
 20
7.78000000E+01
 11
1.31110000E+02
 21
7.08000000E+01
  0
LINE
  8
0
 62
7
 10
1.23780000E+02
 20
7.68000000E+01
 11
1.23780000E+02
 21
6.98000000E+01
  0
LINE
  8
0
 62
7
 10
1.23500000E+02
 20
7.78000000E+01
 11
1.23500000E+02
 21
7.08000000E+01
  0
LINE
  8
0
 62
7
 10
1.37170000E+02
 20
7.68000000E+01
 11
1.41700000E+02
 21
7.68000000E+01
  0
LINE
  8
0
 62
7
 10
1.36890000E+02
 20
7.78000000E+01
 11
1.42740000E+02
 21
7.78000000E+01
  0
LINE
  8
0
 62
7
 10
1.23780000E+02
 20
7.68000000E+01
 11
1.30340000E+02
 21
7.68000000E+01
  0
LINE
  8
0
 62
7
 10
1.23500000E+02
 20
7.78000000E+01
 11
1.31110000E+02
 21
7.78000000E+01
  0
LINE
  8
0
 62
7
 10
1.31110000E+02
 20
7.08000000E+01
 11
1.36890000E+02
 21
7.08000000E+01
  0
LINE
  8
0
 62
7
 10
1.48500000E+02
 20
7.08000000E+01
 11
1.47500000E+02
 21
6.98000000E+01
  0
LINE
  8
0
 62
7
 10
1.48500000E+02
 20
7.98000000E+01
 11
1.48500000E+02
 21
7.08000000E+01
  0
LINE
  8
0
 62
7
 10
1.42740000E+02
 20
7.08000000E+01
 11
1.41700000E+02
 21
6.98000000E+01
  0
LINE
  8
0
 62
7
 10
1.38510000E+02
 20
1.46000000E+02
 11
1.39590000E+02
 21
1.45000000E+02
  0
LINE
  8
0
 62
7
 10
1.24000000E+02
 20
2.26700000E+01
 11
1.24900000E+02
 21
4.86300000E+01
  0
LINE
  8
0
 62
7
 10
1.36860000E+02
 20
2.26700000E+01
 11
1.37770000E+02
 21
4.86300000E+01
  0
LINE
  8
0
 62
7
 10
1.38560000E+02
 20
2.19900000E+01
 11
1.39470000E+02
 21
4.79500000E+01
  0
LINE
  8
0
 62
7
 10
1.39850000E+02
 20
2.26700000E+01
 11
1.40750000E+02
 21
4.86300000E+01
  0
LINE
  8
0
 62
7
 10
1.39470000E+02
 20
4.79500000E+01
 11
1.37740000E+02
 21
4.79500000E+01
  0
LINE
  8
0
 62
7
 10
1.36860000E+02
 20
2.26700000E+01
 11
1.36160000E+02
 21
2.19900000E+01
  0
LINE
  8
0
 62
7
 10
1.36860000E+02
 20
2.26700000E+01
 11
1.31200000E+02
 21
2.26700000E+01
  0
LINE
  8
0
 62
7
 10
1.36160000E+02
 20
2.19900000E+01
 11
1.29990000E+02
 21
2.19900000E+01
  0
LINE
  8
0
 62
7
 10
1.29080000E+02
 20
4.79500000E+01
 11
1.25270000E+02
 21
4.79500000E+01
  0
LINE
  8
0
 62
7
 10
1.30300000E+02
 20
4.86300000E+01
 11
1.24900000E+02
 21
4.86300000E+01
  0
LINE
  8
0
 62
7
 10
1.24360000E+02
 20
2.19900000E+01
 11
1.25270000E+02
 21
4.79500000E+01
  0
LINE
  8
0
 62
7
 10
1.31200000E+02
 20
2.26700000E+01
 11
1.30300000E+02
 21
4.86300000E+01
  0
LINE
  8
0
 62
7
 10
1.39070000E+02
 20
2.19900000E+01
 11
1.38560000E+02
 21
2.19900000E+01
  0
LINE
  8
0
 62
7
 10
1.40250000E+02
 20
2.26700000E+01
 11
1.39850000E+02
 21
2.26700000E+01
  0
LINE
  8
0
 62
7
 10
1.40750000E+02
 20
4.86300000E+01
 11
1.37770000E+02
 21
4.86300000E+01
  0
LINE
  8
0
 62
7
 10
1.24360000E+02
 20
2.19900000E+01
 11
1.24000000E+02
 21
2.26700000E+01
  0
LINE
  8
0
 62
7
 10
1.25270000E+02
 20
4.79500000E+01
 11
1.24900000E+02
 21
4.86300000E+01
  0
LINE
  8
0
 62
7
 10
1.31200000E+02
 20
2.26700000E+01
 11
1.29990000E+02
 21
2.19900000E+01
  0
LINE
  8
0
 62
7
 10
1.29990000E+02
 20
2.19900000E+01
 11
1.29080000E+02
 21
4.79500000E+01
  0
LINE
  8
0
 62
7
 10
1.29080000E+02
 20
4.79500000E+01
 11
1.30300000E+02
 21
4.86300000E+01
  0
LINE
  8
0
 62
7
 10
1.39470000E+02
 20
4.79500000E+01
 11
1.40750000E+02
 21
4.86300000E+01
  0
LINE
  8
0
 62
7
 10
1.39850000E+02
 20
2.26700000E+01
 11
1.38560000E+02
 21
2.19900000E+01
  0
LINE
  8
0
 62
7
 10
1.00140000E+02
 20
2.26700000E+01
 11
1.01430000E+02
 21
2.19900000E+01
  0
LINE
  8
0
 62
7
 10
1.08790000E+02
 20
2.26700000E+01
 11
1.10010000E+02
 21
2.19900000E+01
  0
LINE
  8
0
 62
7
 10
1.15630000E+02
 20
2.19900000E+01
 11
1.16000000E+02
 21
2.26700000E+01
  0
LINE
  8
0
 62
7
 10
1.03130000E+02
 20
2.26700000E+01
 11
1.03830000E+02
 21
2.19900000E+01
  0
LINE
  8
0
 62
7
 10
1.03130000E+02
 20
2.26700000E+01
 11
1.08790000E+02
 21
2.26700000E+01
  0
LINE
  8
0
 62
7
 10
1.03830000E+02
 20
2.19900000E+01
 11
1.10010000E+02
 21
2.19900000E+01
  0
LINE
  8
0
 62
7
 10
1.15630000E+02
 20
2.19900000E+01
 11
1.24360000E+02
 21
2.19900000E+01
  0
LINE
  8
0
 62
7
 10
1.16000000E+02
 20
2.26700000E+01
 11
1.24000000E+02
 21
2.26700000E+01
  0
LINE
  8
0
 62
7
 10
1.00920000E+02
 20
2.19900000E+01
 11
1.01430000E+02
 21
2.19900000E+01
  0
LINE
  8
0
 62
7
 10
9.97500000E+01
 20
2.26700000E+01
 11
1.00150000E+02
 21
2.26700000E+01
  0
LINE
  8
0
 62
7
 10
1.40770000E+02
 20
5.19500000E+01
 11
1.41250000E+02
 21
5.14600000E+01
  0
LINE
  8
0
 62
7
 10
1.40250000E+02
 20
2.26700000E+01
 11
1.41250000E+02
 21
5.14600000E+01
  0
LINE
  8
0
 62
7
 10
1.39030000E+02
 20
2.09100000E+01
 11
1.39070000E+02
 21
2.19900000E+01
  0
LINE
  8
0
 62
7
 10
1.00960000E+02
 20
2.09100000E+01
 11
1.00920000E+02
 21
2.19900000E+01
  0
LINE
  8
0
 62
7
 10
1.39070000E+02
 20
2.19900000E+01
 11
1.40250000E+02
 21
2.26700000E+01
  0
LINE
  8
0
 62
7
 10
1.00920000E+02
 20
2.19900000E+01
 11
9.97500000E+01
 21
2.26700000E+01
  0
LINE
  8
0
 62
7
 10
1.01960000E+02
 20
1.99500000E+01
 11
1.38030000E+02
 21
1.99500000E+01
  0
LINE
  8
0
 62
7
 10
1.38500000E+02
 20
1.39000000E+02
 11
1.39590000E+02
 21
1.38420000E+02
  0
LINE
  8
0
 62
7
 10
1.31020000E+02
 20
1.45000000E+02
 11
1.30050000E+02
 21
1.46000000E+02
  0
LINE
  8
0
 62
7
 10
1.30050000E+02
 20
1.39000000E+02
 11
1.31020000E+02
 21
1.38420000E+02
  0
LINE
  8
0
 62
7
 10
1.24000000E+02
 20
1.38420000E+02
 11
1.24290000E+02
 21
1.39000000E+02
  0
LINE
  8
0
 62
7
 10
1.24000000E+02
 20
1.45000000E+02
 11
1.24290000E+02
 21
1.46000000E+02
  0
LINE
  8
0
 62
7
 10
1.39590000E+02
 20
1.45000000E+02
 11
1.39590000E+02
 21
1.38420000E+02
  0
LINE
  8
0
 62
7
 10
1.38510000E+02
 20
1.46000000E+02
 11
1.38510000E+02
 21
1.39000000E+02
  0
LINE
  8
0
 62
7
 10
1.36120000E+02
 20
1.46000000E+02
 11
1.36680000E+02
 21
1.45000000E+02
  0
LINE
  8
0
 62
7
 10
1.39590000E+02
 20
1.45000000E+02
 11
1.40000000E+02
 21
1.45000000E+02
  0
LINE
  8
0
 62
7
 10
1.36680000E+02
 20
1.45000000E+02
 11
1.36680000E+02
 21
1.38420000E+02
  0
LINE
  8
0
 62
7
 10
1.36680000E+02
 20
1.38420000E+02
 11
1.39590000E+02
 21
1.38420000E+02
  0
LINE
  8
0
 62
7
 10
1.31020000E+02
 20
1.45000000E+02
 11
1.31020000E+02
 21
1.38420000E+02
  0
LINE
  8
0
 62
7
 10
1.36680000E+02
 20
1.39000000E+02
 11
1.38510000E+02
 21
1.39000000E+02
  0
LINE
  8
0
 62
7
 10
1.30050000E+02
 20
1.46000000E+02
 11
1.30050000E+02
 21
1.39000000E+02
  0
LINE
  8
0
 62
7
 10
1.24000000E+02
 20
1.38420000E+02
 11
1.31020000E+02
 21
1.38420000E+02
  0
LINE
  8
0
 62
7
 10
1.24290000E+02
 20
1.39000000E+02
 11
1.30050000E+02
 21
1.39000000E+02
  0
LINE
  8
0
 62
7
 10
1.31020000E+02
 20
1.45000000E+02
 11
1.36680000E+02
 21
1.45000000E+02
  0
LINE
  8
0
 62
7
 10
1.24290000E+02
 20
1.46000000E+02
 11
1.24290000E+02
 21
1.39000000E+02
  0
LINE
  8
0
 62
7
 10
1.24000000E+02
 20
1.45000000E+02
 11
1.24000000E+02
 21
1.38420000E+02
  0
LINE
  8
0
 62
7
 10
1.40000000E+02
 20
1.45000000E+02
 11
1.39000000E+02
 21
1.46000000E+02
  0
LINE
  8
0
 62
7
 10
1.40000000E+02
 20
1.45000000E+02
 11
1.40000000E+02
 21
1.36000000E+02
  0
LINE
  8
0
 62
7
 10
1.46500000E+02
 20
1.20000000E+02
 11
1.45000000E+02
 21
1.20000000E+02
  0
LINE
  8
0
 62
7
 10
1.47500000E+02
 20
1.19000000E+02
 11
1.46500000E+02
 21
1.20000000E+02
  0
LINE
  8
0
 62
7
 10
1.47500000E+02
 20
1.01000000E+02
 11
1.46500000E+02
 21
1.00000000E+02
  0
LINE
  8
0
 62
7
 10
1.46500000E+02
 20
1.00000000E+02
 11
1.45000000E+02
 21
1.00000000E+02
  0
LINE
  8
0
 62
7
 10
1.47500000E+02
 20
1.19000000E+02
 11
1.47500000E+02
 21
1.01000000E+02
  0
LINE
  8
0
 62
7
 10
1.46500000E+02
 20
1.20000000E+02
 11
1.46500000E+02
 21
1.00000000E+02
  0
LINE
  8
0
 62
7
 10
1.49000000E+02
 20
1.02000000E+02
 11
1.47500000E+02
 21
1.02000000E+02
  0
LINE
  8
0
 62
7
 10
1.49000000E+02
 20
1.02000000E+02
 11
1.48000000E+02
 21
1.03000000E+02
  0
LINE
  8
0
 62
7
 10
1.47500000E+02
 20
1.03000000E+02
 11
1.48000000E+02
 21
1.03000000E+02
  0
LINE
  8
0
 62
7
 10
1.43500000E+02
 20
1.35000000E+02
 11
1.43500000E+02
 21
8.50000000E+01
  0
LINE
  8
0
 62
7
 10
1.45000000E+02
 20
8.65000000E+01
 11
1.43500000E+02
 21
8.50000000E+01
  0
LINE
  8
0
 62
7
 10
1.49000000E+02
 20
8.40000000E+01
 11
1.48000000E+02
 21
8.30000000E+01
  0
LINE
  8
0
 62
7
 10
1.49000000E+02
 20
1.02000000E+02
 11
1.49000000E+02
 21
8.40000000E+01
  0
LINE
  8
0
 62
7
 10
1.39750000E+02
 20
1.36000000E+02
 11
1.39750000E+02
 21
1.35000000E+02
  0
LINE
  8
0
 62
7
 10
1.45000000E+02
 20
1.33500000E+02
 11
1.45000000E+02
 21
8.65000000E+01
  0
LINE
  8
0
  6
CENTER
 62
2
 10
1.20000000E+02
 20
1.51000000E+02
 11
1.20000000E+02
 21
1.49500000E+01
  0
LINE
  8
0
 62
7
 10
1.45000000E+02
 20
1.33500000E+02
 11
1.43500000E+02
 21
1.35000000E+02
  0
LINE
  8
0
 62
4
 10
9.25000000E+01
 20
1.16570000E+02
 11
9.15300000E+01
 21
1.16600000E+02
  0
LINE
  8
0
 62
6
 10
9.25000000E+01
 20
1.15720000E+02
 11
9.10500000E+01
 21
1.15760000E+02
  0
LINE
  8
0
 62
4
 10
9.15300000E+01
 20
1.16600000E+02
 11
9.15300000E+01
 21
1.03390000E+02
  0
LINE
  8
0
 62
4
 10
9.08300000E+01
 20
1.15390000E+02
 11
9.08300000E+01
 21
1.04600000E+02
  0
LINE
  8
0
 62
4
 10
9.15300000E+01
 20
1.16600000E+02
 11
9.08300000E+01
 21
1.15390000E+02
  0
LINE
  8
0
 62
4
 10
9.25000000E+01
 20
1.03420000E+02
 11
9.15300000E+01
 21
1.03390000E+02
  0
LINE
  8
0
 62
6
 10
9.25000000E+01
 20
1.04270000E+02
 11
9.10500000E+01
 21
1.04230000E+02
  0
LINE
  8
0
 62
4
 10
9.15300000E+01
 20
1.03390000E+02
 11
9.08300000E+01
 21
1.04600000E+02
  0
LINE
  8
0
 62
4
 10
-1.82218285E+02
 20
-7.51021424E+01
 11
-2.24718286E+02
 21
-7.51021424E+01
  0
CIRCLE
  8
0
 62
4
 10
-2.03475428E+02
 20
-1.01359286E+02
 40
2.25000004E+01
  0
CIRCLE
  8
0
 62
4
 10
-2.23475481E+02
 20
-8.13592767E+01
 40
2.24999977E+00
  0
ARC
  8
0
 62
4
 10
-2.24718311E+02
 20
-8.01021171E+01
 40
4.99997470E+00
 50
9.00000002E+01
 51
1.80000291E+02
  0
LINE
  8
0
 62
4
 10
-2.29718286E+02
 20
-8.01021425E+01
 11
-2.29718286E+02
 21
-1.22602143E+02
  0
CIRCLE
  8
0
 62
4
 10
-1.83475480E+02
 20
-8.13592767E+01
 40
2.24999977E+00
  0
ARC
  8
0
 62
4
 10
-1.82225449E+02
 20
-8.01093072E+01
 40
5.00716987E+00
 50
8.19833718E-02
 51
8.99180168E+01
  0
LINE
  8
0
  6
CENTER
 62
6
 10
-1.83475428E+02
 20
-7.78592853E+01
 11
-1.83475428E+02
 21
-8.48592854E+01
  0
LINE
  8
0
  6
CENTER
 62
6
 10
-1.86975428E+02
 20
-8.13592854E+01
 11
-1.79975428E+02
 21
-8.13592854E+01
  0
CIRCLE
  8
0
 62
6
 10
-1.83475480E+02
 20
-8.13592767E+01
 40
1.99999949E+00
  0
CIRCLE
  8
0
 62
4
 10
-1.83475480E+02
 20
-8.13592767E+01
 40
1.62099977E+00
  0
LINE
  8
0
 62
4
 10
-1.77218285E+02
 20
-8.01021425E+01
 11
-1.77218285E+02
 21
-1.22602143E+02
  0
LINE
  8
0
 62
4
 10
-1.82218285E+02
 20
-1.27602143E+02
 11
-2.24718286E+02
 21
-1.27602143E+02
  0
LINE
  8
0
  6
CENTER
 62
6
 10
-2.26975428E+02
 20
-1.21359286E+02
 11
-2.19975428E+02
 21
-1.21359286E+02
  0
LINE
  8
0
  6
CENTER
 62
6
 10
-2.23475428E+02
 20
-1.17859286E+02
 11
-2.23475428E+02
 21
-1.24859286E+02
  0
CIRCLE
  8
0
 62
4
 10
-2.23475481E+02
 20
-1.21359277E+02
 40
2.24999977E+00
  0
CIRCLE
  8
0
 62
6
 10
-2.23475481E+02
 20
-1.21359277E+02
 40
1.99999949E+00
  0
CIRCLE
  8
0
 62
4
 10
-2.23475481E+02
 20
-1.21359277E+02
 40
1.62099977E+00
  0
ARC
  8
0
 62
4
 10
-2.24725450E+02
 20
-1.22609308E+02
 40
4.99284057E+00
 50
1.79917781E+02
 51
2.70082219E+02
  0
ARC
  8
0
 62
4
 10
-1.82218320E+02
 20
-1.22602108E+02
 40
5.00003574E+00
 50
2.70000000E+02
 51
3.59999592E+02
  0
LINE
  8
0
 62
4
 10
-2.19071518E+02
 20
-1.09462003E+02
 11
-2.05111518E+02
 21
-1.03242003E+02
  0
ARC
  8
0
 62
4
 10
-2.19258783E+02
 20
-1.09058232E+02
 40
4.45083184E-01
 50
1.17096987E+02
 51
2.94881480E+02
  0
LINE
  8
0
  6
CENTER
 62
2
 10
-2.03475428E+02
 20
-7.01021423E+01
 11
-2.03475428E+02
 21
-1.32602143E+02
  0
LINE
  8
0
  6
CENTER
 62
2
 10
-1.61718265E+02
 20
-1.01359286E+02
 11
-2.75475429E+02
 21
-1.01359286E+02
  0
ARC
  8
0
 62
4
 10
-2.03475428E+02
 20
-1.01359286E+02
 40
2.49427614E+00
 50
2.29009213E+02
 51
3.59018699E+02
  0
LINE
  8
0
 62
4
 10
-2.18005803E+02
 20
-1.01366186E+02
 11
-2.06838251E+02
 21
-1.00379911E+02
  0
LINE
  8
0
 62
4
 10
-2.17971514E+02
 20
-1.02352028E+02
 11
-2.07943137E+02
 21
-1.02531877E+02
  0
ARC
  8
0
 62
4
 10
-2.03476130E+02
 20
-1.01340907E+02
 40
3.49676569E+00
 50
2.21849577E+02
 51
6.15231612E+00
  0
ARC
  8
0
 62
4
 10
-2.17966874E+02
 20
-1.01858349E+02
 40
4.93700762E-01
 50
9.45225136E+01
 51
2.69461527E+02
  0
CIRCLE
  8
0
 62
4
 10
-2.03475428E+02
 20
-1.01359286E+02
 40
2.00000000E+00
  0
ARC
  8
0
 62
4
 10
-2.03475428E+02
 20
-1.01359286E+02
 40
2.49427614E+00
 50
5.29796765E+01
 51
1.82762386E+02
  0
LINE
  8
0
 62
4
 10
-2.00981518E+02
 20
-1.01402003E+02
 11
-1.95911518E+02
 21
-9.91520029E+01
  0
LINE
  8
0
 62
4
 10
-2.01981518E+02
 20
-9.93720029E+01
 11
-1.97081518E+02
 21
-9.67620029E+01
  0
LINE
  8
0
 62
4
 10
-2.19461518E+02
 20
-1.08662003E+02
 11
-2.05971518E+02
 21
-1.01482003E+02
  0
LINE
  8
0
 62
4
 10
-1.97081518E+02
 20
-9.67620029E+01
 11
-1.95841518E+02
 21
-9.76420029E+01
  0
LINE
  8
0
 62
4
 10
-1.95841518E+02
 20
-9.76420029E+01
 11
-1.95911518E+02
 21
-9.91520029E+01
  0
ARC
  8
0
 62
4
 10
-2.03476130E+02
 20
-1.01340907E+02
 40
3.49676569E+00
 50
4.52533879E+01
 51
1.64048472E+02
  0
LINE
  8
0
  6
CENTER
 62
2
 10
-4.02611393E+01
 20
-1.01359286E+02
 11
-1.56732788E+02
 21
-1.01359286E+02
  0
LINE
  8
0
 62
4
 10
-1.00261140E+02
 20
-1.08030714E+02
 11
-1.06261140E+02
 21
-1.08087857E+02
  0
LINE
  8
0
 62
6
 10
-1.00261140E+02
 20
-1.07173572E+02
 11
-1.04261140E+02
 21
-1.07187857E+02
  0
LINE
  8
0
 62
4
 10
-1.00261140E+02
 20
-9.46878570E+01
 11
-1.06261140E+02
 21
-9.46164285E+01
  0
LINE
  8
0
 62
6
 10
-1.00261140E+02
 20
-9.55307142E+01
 11
-1.04261140E+02
 21
-9.55164285E+01
  0
LINE
  8
0
 62
6
 10
-1.04261140E+02
 20
-1.07187857E+02
 11
-1.05803998E+02
 21
-1.08073572E+02
  0
LINE
  8
0
 62
4
 10
-1.06261140E+02
 20
-9.43592856E+01
 11
-1.06261140E+02
 21
-1.08359286E+02
  0
LINE
  8
0
 62
4
 10
-1.04261140E+02
 20
-9.46735713E+01
 11
-1.04261140E+02
 21
-1.08045000E+02
  0
LINE
  8
0
 62
6
 10
-1.04261140E+02
 20
-9.55164285E+01
 11
-1.05803998E+02
 21
-9.46307142E+01
  0
LINE
  8
0
 62
4
 10
-1.46761141E+02
 20
-7.51021424E+01
 11
-1.16761141E+02
 21
-7.51021424E+01
  0
LINE
  8
0
 62
4
 10
-1.46761141E+02
 20
-1.27602143E+02
 11
-1.16761141E+02
 21
-1.27602143E+02
  0
LINE
  8
0
 62
4
 10
-1.49761141E+02
 20
-7.81021425E+01
 11
-1.49761141E+02
 21
-1.24602143E+02
  0
LINE
  8
0
  6
PHANTOM
 62
6
 10
-1.34161141E+02
 20
-1.35602143E+02
 11
-1.34161141E+02
 21
-1.58102144E+02
  0
LINE
  8
0
  6
PHANTOM
 62
6
 10
-1.19361141E+02
 20
-1.35602143E+02
 11
-1.19361141E+02
 21
-1.58102144E+02
  0
LINE
  8
0
  6
PHANTOM
 62
6
 10
-1.19861141E+02
 20
-1.58602144E+02
 11
-1.33661141E+02
 21
-1.58602144E+02
  0
LINE
  8
0
  6
PHANTOM
 62
6
 10
-1.29561141E+02
 20
-1.59773572E+02
 11
-1.29561141E+02
 21
-1.59102144E+02
  0
LINE
  8
0
  6
PHANTOM
 62
6
 10
-1.23961141E+02
 20
-1.59773572E+02
 11
-1.23961141E+02
 21
-1.59102144E+02
  0
LINE
  8
0
  6
PHANTOM
 62
6
 10
-1.30003998E+02
 20
-1.59102144E+02
 11
-1.23503998E+02
 21
-1.59102144E+02
  0
LINE
  8
0
  6
PHANTOM
 62
6
 10
-1.30003998E+02
 20
-1.59102144E+02
 11
-1.30003998E+02
 21
-1.58602144E+02
  0
LINE
  8
0
  6
PHANTOM
 62
6
 10
-1.23503998E+02
 20
-1.59102144E+02
 11
-1.23503998E+02
 21
-1.58602144E+02
  0
LINE
  8
0
  6
PHANTOM
 62
6
 10
-1.34161141E+02
 20
-1.36102143E+02
 11
-1.19361141E+02
 21
-1.36102143E+02
  0
LINE
  8
0
 62
4
 10
-1.17761141E+02
 20
-7.51021424E+01
 11
-1.17761141E+02
 21
-1.27602143E+02
  0
LINE
  8
0
  6
PHANTOM
 62
6
 10
-1.34761141E+02
 20
-1.27602143E+02
 11
-1.34761141E+02
 21
-1.35602143E+02
  0
LINE
  8
0
  6
PHANTOM
 62
6
 10
-1.34761141E+02
 20
-1.35602143E+02
 11
-1.18761141E+02
 21
-1.35602143E+02
  0
LINE
  8
0
  6
PHANTOM
 62
6
 10
-1.34761141E+02
 20
-1.28602143E+02
 11
-1.18761141E+02
 21
-1.28602143E+02
  0
LINE
  8
0
  6
PHANTOM
 62
6
 10
-1.25761141E+02
 20
-1.28602143E+02
 11
-1.25761141E+02
 21
-1.40330715E+02
  0
LINE
  8
0
  6
PHANTOM
 62
6
 10
-1.27761141E+02
 20
-1.28602143E+02
 11
-1.27761141E+02
 21
-1.40873572E+02
  0
LINE
  8
0
 62
6
 10
-1.30261141E+02
 20
-1.41545001E+02
 11
-1.23261141E+02
 21
-1.39659286E+02
  0
LINE
  8
0
 62
6
 10
-1.30261141E+02
 20
-1.42573572E+02
 11
-1.23261141E+02
 21
-1.40702144E+02
  0
LINE
  8
0
  6
PHANTOM
 62
6
 10
-1.27761141E+02
 20
-1.48602144E+02
 11
-1.25761141E+02
 21
-1.48602144E+02
  0
LINE
  8
0
  6
PHANTOM
 62
6
 10
-1.25761141E+02
 20
-1.41373572E+02
 11
-1.25761141E+02
 21
-1.48602144E+02
  0
LINE
  8
0
  6
PHANTOM
 62
6
 10
-1.27761141E+02
 20
-1.41902144E+02
 11
-1.27761141E+02
 21
-1.48602144E+02
  0
LINE
  8
0
  6
PHANTOM
 62
6
 10
-1.27261141E+02
 20
-1.53602144E+02
 11
-1.26261141E+02
 21
-1.53602144E+02
  0
LINE
  8
0
  6
PHANTOM
 62
6
 10
-1.26261141E+02
 20
-1.48602144E+02
 11
-1.26261141E+02
 21
-1.53602144E+02
  0
LINE
  8
0
  6
PHANTOM
 62
6
 10
-1.27261141E+02
 20
-1.48602144E+02
 11
-1.27261141E+02
 21
-1.53602144E+02
  0
LINE
  8
0
  6
PHANTOM
 62
6
 10
-1.29261141E+02
 20
-1.28602143E+02
 11
-1.29261141E+02
 21
-1.41273572E+02
  0
LINE
  8
0
  6
PHANTOM
 62
6
 10
-1.24261141E+02
 20
-1.28602143E+02
 11
-1.24261141E+02
 21
-1.39930715E+02
  0
LINE
  8
0
  6
PHANTOM
 62
6
 10
-1.30203998E+02
 20
-1.47187858E+02
 11
-1.28789712E+02
 21
-1.48602144E+02
  0
LINE
  8
0
  6
PHANTOM
 62
6
 10
-1.33389712E+02
 20
-1.51073572E+02
 11
-1.32675427E+02
 21
-1.51773572E+02
  0
LINE
  8
0
  6
PHANTOM
 62
6
 10
-1.32675427E+02
 20
-1.51773572E+02
 11
-1.29146855E+02
 21
-1.48245001E+02
  0
LINE
  8
0
  6
PHANTOM
 62
6
 10
-1.33389712E+02
 20
-1.51073572E+02
 11
-1.29846855E+02
 21
-1.47530715E+02
  0
LINE
  8
0
  6
PHANTOM
 62
6
 10
-1.23303998E+02
 20
-1.47187858E+02
 11
-1.24732569E+02
 21
-1.48602144E+02
  0
LINE
  8
0
  6
PHANTOM
 62
6
 10
-1.20118284E+02
 20
-1.51073572E+02
 11
-1.23661141E+02
 21
-1.47530715E+02
  0
LINE
  8
0
  6
PHANTOM
 62
6
 10
-1.20832569E+02
 20
-1.51773572E+02
 11
-1.24361141E+02
 21
-1.48245001E+02
  0
LINE
  8
0
  6
PHANTOM
 62
6
 10
-1.29261141E+02
 20
-1.42302144E+02
 11
-1.29261141E+02
 21
-1.44602144E+02
  0
LINE
  8
0
  6
PHANTOM
 62
6
 10
-1.24261141E+02
 20
-1.40973572E+02
 11
-1.24261141E+02
 21
-1.44602144E+02
  0
LINE
  8
0
  6
PHANTOM
 62
6
 10
-1.18761141E+02
 20
-1.27602143E+02
 11
-1.18761141E+02
 21
-1.35602143E+02
  0
LINE
  8
0
  6
PHANTOM
 62
6
 10
-1.20118284E+02
 20
-1.51073572E+02
 11
-1.20832569E+02
 21
-1.51773572E+02
  0
LINE
  8
0
 62
4
 10
-1.14761141E+02
 20
-7.71021425E+01
 11
-1.14761141E+02
 21
-1.25602143E+02
  0
LINE
  8
0
 62
4
 10
-1.14761141E+02
 20
-9.43592856E+01
 11
-1.06261140E+02
 21
-9.43592856E+01
  0
LINE
  8
0
 62
4
 10
-1.14761141E+02
 20
-1.08359286E+02
 11
-1.06261140E+02
 21
-1.08359286E+02
  0
LINE
  8
0
 62
4
 10
-1.14761141E+02
 20
-1.01359286E+02
 11
-1.06261140E+02
 21
-1.01359286E+02
  0
ARC
  8
0
 62
4
 10
-1.16764735E+02
 20
-7.71057367E+01
 40
2.00359747E+00
 50
1.02781672E-01
 51
8.98972184E+01
  0
ARC
  8
0
 62
4
 10
-1.46757585E+02
 20
-7.81056986E+01
 40
3.00355829E+00
 50
9.00678367E+01
 51
1.79932163E+02
  0
ARC
  8
0
 62
4
 10
-1.46764719E+02
 20
-1.24605721E+02
 40
2.99642413E+00
 50
1.79931583E+02
 51
2.70068417E+02
  0
ARC
  8
0
  6
PHANTOM
 62
6
 10
-1.19857609E+02
 20
-1.58105675E+02
 40
4.96480962E-01
 50
2.69592436E+02
 51
4.07564261E-01
  0
ARC
  8
0
  6
PHANTOM
 62
6
 10
-1.33664697E+02
 20
-1.58105700E+02
 40
4.96456986E-01
 50
1.79589629E+02
 51
2.70410371E+02
  0
ARC
  8
0
  6
PHANTOM
 62
6
 10
-1.26753998E+02
 20
-1.56009259E+02
 40
4.99954485E+00
 50
2.40468498E+02
 51
2.99531502E+02
  0
ARC
  8
0
  6
PHANTOM
 62
6
 10
-1.28896483E+02
 20
-1.59777710E+02
 40
6.64670885E-01
 50
1.79643340E+02
 51
2.41043158E+02
  0
ARC
  8
0
  6
PHANTOM
 62
6
 10
-1.24629335E+02
 20
-1.59783749E+02
 40
6.68271345E-01
 50
3.00544696E+02
 51
8.72580201E-01
  0
ARC
  8
0
  6
PHANTOM
 62
6
 10
-1.33260857E+02
 20
-1.44608443E+02
 40
3.99972129E+00
 50
3.19841918E+02
 51
9.02357248E-02
  0
ARC
  8
0
  6
PHANTOM
 62
6
 10
-1.33255599E+02
 20
-1.44600604E+02
 40
5.99637034E+00
 50
3.18138913E+02
 51
3.36390635E+02
  0
ARC
  8
0
  6
PHANTOM
 62
6
 10
-1.20266925E+02
 20
-1.44593630E+02
 40
3.99422433E+00
 50
1.80122127E+02
 51
2.20503525E+02
  0
ARC
  8
0
  6
PHANTOM
 62
6
 10
-1.20266717E+02
 20
-1.44600626E+02
 40
5.99633047E+00
 50
2.03609304E+02
 51
2.21861148E+02
  0
ARC
  8
0
 62
4
 10
-1.16757601E+02
 20
-1.25605683E+02
 40
1.99646328E+00
 50
2.69898410E+02
 51
1.01590092E-01
  0
LINE
  8
0
  6
CENTER
 62
2
 10
-7.27611398E+01
 20
-5.53592849E+01
 11
-7.27611398E+01
 21
-1.51002144E+02
  0
CIRCLE
  8
0
 62
4
 10
8.30860058E+01
 20
-1.01359287E+02
 40
1.75000003E+01
  0
LINE
  8
0
  6
CENTER
 62
2
 10
9.62895618E+00
 20
-1.01359340E+02
 11
1.23744590E+02
 21
-1.01359258E+02
  0
LINE
  8
0
  6
CENTER
 62
2
 10
8.30859900E+01
 20
-7.90382640E+01
 11
8.30860217E+01
 21
-1.23806681E+02
  0
CIRCLE
  8
0
 62
4
 10
8.30860058E+01
 20
-1.01359302E+02
 40
2.12500004E+01
  0
CIRCLE
  8
0
 62
4
 10
8.30860058E+01
 20
-1.01359302E+02
 40
2.07500004E+01
  0
ARC
  8
0
 62
4
 10
8.30860058E+01
 20
-1.01359287E+02
 40
1.49514000E+00
 50
5.59522119E+01
 51
1.68079339E+02
  0
ARC
  8
0
 62
4
 10
8.30860058E+01
 20
-1.01359287E+02
 40
1.49514000E+00
 50
2.27955401E+02
 51
3.40005176E+02
  0
LINE
  8
0
 62
4
 10
8.73360041E+01
 20
-9.87392841E+01
 11
8.87860046E+01
 21
-9.95092831E+01
  0
LINE
  8
0
 62
4
 10
8.87860046E+01
 20
-9.95092831E+01
 11
8.80660057E+01
 21
-1.00979284E+02
  0
LINE
  8
0
 62
4
 10
8.44910241E+01
 20
-1.01870528E+02
 11
8.80660057E+01
 21
-1.00979284E+02
  0
LINE
  8
0
 62
4
 10
8.39231111E+01
 20
-1.00120458E+02
 11
8.73360041E+01
 21
-9.87392841E+01
  0
LINE
  8
0
 62
4
 10
7.16760083E+01
 20
-1.05059295E+02
 11
8.20846973E+01
 21
-1.02469614E+02
  0
LINE
  8
0
 62
4
 10
7.16760083E+01
 20
-1.05059295E+02
 11
8.16231092E+01
 21
-1.01050455E+02
  0
LINE
  8
0
 62
4
 10
1.73810293E+02
 20
-1.07930714E+02
 11
1.67810293E+02
 21
-1.08087857E+02
  0
LINE
  8
0
 62
6
 10
1.73810293E+02
 20
-1.07073571E+02
 11
1.69810293E+02
 21
-1.07187857E+02
  0
LINE
  8
0
 62
4
 10
1.73810293E+02
 20
-9.47735711E+01
 11
1.67810293E+02
 21
-9.46164282E+01
  0
LINE
  8
0
 62
6
 10
1.73810293E+02
 20
-9.56307140E+01
 11
1.69810293E+02
 21
-9.55164282E+01
  0
LINE
  8
0
  6
CENTER
 62
2
 10
1.25730066E+02
 20
-1.01359286E+02
 11
2.35467437E+02
 21
-1.01359286E+02
  0
LINE
  8
0
 62
6
 10
1.69810293E+02
 20
-1.07187857E+02
 11
1.68253150E+02
 21
-1.08073571E+02
  0
LINE
  8
0
 62
4
 10
1.67810293E+02
 20
-9.43592853E+01
 11
1.67810293E+02
 21
-1.08359286E+02
  0
LINE
  8
0
 62
4
 10
1.69810293E+02
 20
-9.46735711E+01
 11
1.69810293E+02
 21
-1.08045000E+02
  0
LINE
  8
0
 62
6
 10
1.69810293E+02
 20
-9.55164282E+01
 11
1.68253151E+02
 21
-9.46307139E+01
  0
LINE
  8
0
 62
4
 10
1.36810293E+02
 20
-1.22359225E+02
 11
1.58310293E+02
 21
-1.22359225E+02
  0
LINE
  8
0
 62
4
 10
1.36810293E+02
 20
-8.03592241E+01
 11
1.58310293E+02
 21
-8.03592243E+01
  0
LINE
  8
0
 62
4
 10
1.33810293E+02
 20
-8.11092241E+01
 11
1.33810293E+02
 21
-1.21609225E+02
  0
LINE
  8
0
 62
4
 10
1.34810293E+02
 20
-8.01092241E+01
 11
1.36810293E+02
 21
-8.01092241E+01
  0
LINE
  8
0
 62
4
 10
1.34810293E+02
 20
-1.22609225E+02
 11
1.36810293E+02
 21
-1.22609225E+02
  0
LINE
  8
0
 62
4
 10
1.36810293E+02
 20
-8.01092241E+01
 11
1.36810293E+02
 21
-1.22609225E+02
  0
LINE
  8
0
 62
4
 10
1.33810293E+02
 20
-8.11092241E+01
 11
1.34810293E+02
 21
-8.01092241E+01
  0
LINE
  8
0
 62
4
 10
1.33810293E+02
 20
-1.21609225E+02
 11
1.34810293E+02
 21
-1.22609225E+02
  0
LINE
  8
0
 62
4
 10
1.34810293E+02
 20
-8.01092241E+01
 11
1.34810293E+02
 21
-1.22609225E+02
  0
LINE
  8
0
 62
4
 10
1.60310293E+02
 20
-8.23592243E+01
 11
1.60310293E+02
 21
-1.20359225E+02
  0
ARC
  8
0
 62
4
 10
1.58310295E+02
 20
-8.23592228E+01
 40
1.99999851E+00
 50
3.59999956E+02
 51
9.00000002E+01
  0
LINE
  8
0
 62
4
 10
1.60310293E+02
 20
-1.08359225E+02
 11
1.67810278E+02
 21
-1.08359225E+02
  0
LINE
  8
0
 62
4
 10
1.60310293E+02
 20
-9.43592245E+01
 11
1.67810278E+02
 21
-9.43592246E+01
  0
LINE
  8
0
 62
6
 10
1.60310293E+02
 20
-1.08359225E+02
 11
1.67810293E+02
 21
-9.43592246E+01
  0
LINE
  8
0
 62
6
 10
1.60310293E+02
 20
-9.43592245E+01
 11
1.67810278E+02
 21
-1.08359196E+02
  0
ARC
  8
0
 62
4
 10
1.58310295E+02
 20
-1.20359226E+02
 40
1.99999851E+00
 50
2.70000000E+02
 51
4.32399486E-05
  0
LINE
  8
0
  6
CENTER
 62
2
 10
2.01310294E+02
 20
-6.03592850E+01
 11
2.01310293E+02
 21
-1.51002144E+02
  0
LINE
  8
0
 62
7
 10
-2.81250000E+02
 20
-1.60208333E+01
 11
2.82099854E+02
 21
-1.60208333E+01
  0
TEXT
  8
0
 62
7
 10
-2.70350281E+02
 20
-2.91708334E+01
 40
6.30000019E+00
  1
PRESSURE GAUGE
 41
1.04477612E+00
  7
MONOTXT
  0
TEXT
  8
0
 62
7
 10
1.04937595E+02
 20
-1.86150000E+02
 40
6.30000019E+00
  1
-G1A,-G3
 41
1.00000000E+00
  7
MONOTXT
  0
TEXT
  8
0
 62
7
 10
-2.19855140E+02
 20
-1.86150000E+02
 40
6.30000019E+00
  1
-GS1A,-GS1B,-GS1C,-GS1D
 41
1.00000000E+00
  7
MONOTXT
  0
TEXT
  8
0
 62
7
 10
-2.29800561E+02
 20
1.37350000E+02
 40
6.30000019E+00
  1
RN652-06
 41
1.00000000E+00
  7
MONOTXT
  0
TEXT
  8
0
 62
7
 10
-2.29800561E+02
 20
1.47350000E+02
 40
6.30000019E+00
  1
RN651-06
 41
1.00000000E+00
  7
MONOTXT
  0
TEXT
  8
0
 62
7
 10
1.97799694E+02
 20
1.82350000E+02
 40
6.30000019E+00
  1
Ver. 1.0
 41
1.08108108E+00
  7
MONOTXT
  0
LINE
  8
0
 62
7
 10
1.62099976E+02
 20
1.95500000E+02
 11
1.62099976E+02
 21
1.75500000E+02
  0
LINE
  8
0
 62
7
 10
1.62099976E+02
 20
1.75500000E+02
 11
2.82099854E+02
 21
1.75500000E+02
  0
LINE
  8
0
 62
7
 10
-2.81250000E+02
 20
1.75500000E+02
 11
-1.31250000E+02
 21
1.75500000E+02
  0
TEXT
  8
0
 62
7
 10
-2.78010939E+02
 20
1.86350000E+02
 40
6.30000019E+00
  1
F.R.L.LARGE FLOW SERIES
 41
1.05504587E+00
  7
MONOTXT
  0
LINE
  8
0
 62
7
 10
-1.31250000E+02
 20
1.95500000E+02
 11
-1.31250000E+02
 21
1.75500000E+02
  0
TEXT
  8
0
 62
7
 10
-2.33910938E+02
 20
1.78350000E+02
 40
6.30000019E+00
  1
REGULATOR
 41
1.00000000E+00
  7
MONOTXT
  0
TEXT
  8
0
 62
7
 10
-9.95838634E+00
 20
1.12850000E+02
 40
6.30000019E+00
  1
OUT
 41
1.00000000E+00
  7
MONOTXT
  0
TEXT
  8
0
 62
7
 10
-1.62613945E+02
 20
1.12850000E+02
 40
6.30000019E+00
  1
IN
 41
1.00000000E+00
  7
MONOTXT
  0
POLYLINE
  8
0
 62
2
 66
1
  0
VERTEX
  8
0
 62
2
 10
-2.39146290E+02
 20
-1.49142740E+02
  0
VERTEX
  8
0
 62
2
 10
-2.38493580E+02
 20
-1.49032484E+02
  0
VERTEX
  8
0
 62
2
 10
-2.37839580E+02
 20
-1.48935778E+02
  0
VERTEX
  8
0
 62
2
 10
-2.37184646E+02
 20
-1.48853175E+02
  0
VERTEX
  8
0
 62
2
 10
-2.36529136E+02
 20
-1.48785230E+02
  0
VERTEX
  8
0
 62
2
 10
-2.35873407E+02
 20
-1.48732497E+02
  0
VERTEX
  8
0
 62
2
 10
-2.35217818E+02
 20
-1.48695532E+02
  0
VERTEX
  8
0
 62
2
 10
-2.34562725E+02
 20
-1.48674888E+02
  0
VERTEX
  8
0
 62
2
 10
-2.33908486E+02
 20
-1.48671120E+02
  0
VERTEX
  8
0
 62
2
 10
-2.33255459E+02
 20
-1.48684782E+02
  0
VERTEX
  8
0
 62
2
 10
-2.32604000E+02
 20
-1.48716429E+02
  0
VERTEX
  8
0
 62
2
 10
-2.31438260E+02
 20
-1.48818057E+02
  0
VERTEX
  8
0
 62
2
 10
-2.30277465E+02
 20
-1.48970158E+02
  0
VERTEX
  8
0
 62
2
 10
-2.29120598E+02
 20
-1.49163549E+02
  0
VERTEX
  8
0
 62
2
 10
-2.27966638E+02
 20
-1.49389049E+02
  0
VERTEX
  8
0
 62
2
 10
-2.26814566E+02
 20
-1.49637475E+02
  0
VERTEX
  8
0
 62
2
 10
-2.25663363E+02
 20
-1.49899647E+02
  0
VERTEX
  8
0
 62
2
 10
-2.24512010E+02
 20
-1.50166381E+02
  0
VERTEX
  8
0
 62
2
 10
-2.23359488E+02
 20
-1.50428497E+02
  0
VERTEX
  8
0
 62
2
 10
-2.22204776E+02
 20
-1.50676812E+02
  0
VERTEX
  8
0
 62
2
 10
-2.21046857E+02
 20
-1.50902144E+02
  0
VERTEX
  8
0
 62
2
 10
-2.19859730E+02
 20
-1.51101095E+02
  0
VERTEX
  8
0
 62
2
 10
-2.18668925E+02
 20
-1.51268862E+02
  0
VERTEX
  8
0
 62
2
 10
-2.17474867E+02
 20
-1.51407942E+02
  0
VERTEX
  8
0
 62
2
 10
-2.16277983E+02
 20
-1.51520829E+02
  0
VERTEX
  8
0
 62
2
 10
-2.15078696E+02
 20
-1.51610019E+02
  0
VERTEX
  8
0
 62
2
 10
-2.13877434E+02
 20
-1.51678008E+02
  0
VERTEX
  8
0
 62
2
 10
-2.12674622E+02
 20
-1.51727290E+02
  0
VERTEX
  8
0
 62
2
 10
-2.11470686E+02
 20
-1.51760363E+02
  0
VERTEX
  8
0
 62
2
 10
-2.10266051E+02
 20
-1.51779720E+02
  0
VERTEX
  8
0
 62
2
 10
-2.09061142E+02
 20
-1.51787858E+02
  0
VERTEX
  8
0
 62
2
 10
-2.08341343E+02
 20
-1.51788290E+02
  0
VERTEX
  8
0
 62
2
 10
-2.07621727E+02
 20
-1.51785491E+02
  0
VERTEX
  8
0
 62
2
 10
-2.06902312E+02
 20
-1.51779337E+02
  0
VERTEX
  8
0
 62
2
 10
-2.06183114E+02
 20
-1.51769708E+02
  0
VERTEX
  8
0
 62
2
 10
-2.05464151E+02
 20
-1.51756480E+02
  0
VERTEX
  8
0
 62
2
 10
-2.04745439E+02
 20
-1.51739534E+02
  0
VERTEX
  8
0
 62
2
 10
-2.04026996E+02
 20
-1.51718745E+02
  0
VERTEX
  8
0
 62
2
 10
-2.03308837E+02
 20
-1.51693993E+02
  0
VERTEX
  8
0
 62
2
 10
-2.02590981E+02
 20
-1.51665156E+02
  0
VERTEX
  8
0
 62
2
 10
-2.01873445E+02
 20
-1.51632111E+02
  0
SEQEND
  8
0
  0
POLYLINE
  8
0
 62
2
 66
1
  0
VERTEX
  8
0
 62
2
 10
1.82554935E+02
 20
-1.49155400E+02
  0
VERTEX
  8
0
 62
2
 10
1.83214521E+02
 20
-1.49042588E+02
  0
VERTEX
  8
0
 62
2
 10
1.83875460E+02
 20
-1.48943563E+02
  0
VERTEX
  8
0
 62
2
 10
1.84537385E+02
 20
-1.48858898E+02
  0
VERTEX
  8
0
 62
2
 10
1.85199926E+02
 20
-1.48789166E+02
  0
VERTEX
  8
0
 62
2
 10
1.85862714E+02
 20
-1.48734940E+02
  0
VERTEX
  8
0
 62
2
 10
1.86525379E+02
 20
-1.48696791E+02
  0
VERTEX
  8
0
 62
2
 10
1.87187553E+02
 20
-1.48675294E+02
  0
VERTEX
  8
0
 62
2
 10
1.87848867E+02
 20
-1.48671019E+02
  0
VERTEX
  8
0
 62
2
 10
1.88508951E+02
 20
-1.48684540E+02
  0
VERTEX
  8
0
 62
2
 10
1.89167437E+02
 20
-1.48716429E+02
  0
VERTEX
  8
0
 62
2
 10
1.90333178E+02
 20
-1.48818057E+02
  0
VERTEX
  8
0
 62
2
 10
1.91493974E+02
 20
-1.48970158E+02
  0
VERTEX
  8
0
 62
2
 10
1.92650841E+02
 20
-1.49163549E+02
  0
VERTEX
  8
0
 62
2
 10
1.93804801E+02
 20
-1.49389049E+02
  0
VERTEX
  8
0
 62
2
 10
1.94956873E+02
 20
-1.49637475E+02
  0
VERTEX
  8
0
 62
2
 10
1.96108075E+02
 20
-1.49899647E+02
  0
VERTEX
  8
0
 62
2
 10
1.97259427E+02
 20
-1.50166381E+02
  0
VERTEX
  8
0
 62
2
 10
1.98411949E+02
 20
-1.50428497E+02
  0
VERTEX
  8
0
 62
2
 10
1.99566660E+02
 20
-1.50676812E+02
  0
VERTEX
  8
0
 62
2
 10
2.00724580E+02
 20
-1.50902144E+02
  0
VERTEX
  8
0
 62
2
 10
2.01911814E+02
 20
-1.51101095E+02
  0
VERTEX
  8
0
 62
2
 10
2.03102894E+02
 20
-1.51268863E+02
  0
VERTEX
  8
0
 62
2
 10
2.04297322E+02
 20
-1.51407944E+02
  0
VERTEX
  8
0
 62
2
 10
2.05494601E+02
 20
-1.51520832E+02
  0
VERTEX
  8
0
 62
2
 10
2.06694234E+02
 20
-1.51610023E+02
  0
VERTEX
  8
0
 62
2
 10
2.07895723E+02
 20
-1.51678012E+02
  0
VERTEX
  8
0
 62
2
 10
2.09098571E+02
 20
-1.51727295E+02
  0
VERTEX
  8
0
 62
2
 10
2.10302280E+02
 20
-1.51760367E+02
  0
VERTEX
  8
0
 62
2
 10
2.11506354E+02
 20
-1.51779723E+02
  0
VERTEX
  8
0
 62
2
 10
2.12710294E+02
 20
-1.51787858E+02
  0
VERTEX
  8
0
 62
2
 10
2.13434993E+02
 20
-1.51788282E+02
  0
VERTEX
  8
0
 62
2
 10
2.14159702E+02
 20
-1.51785431E+02
  0
VERTEX
  8
0
 62
2
 10
2.14884381E+02
 20
-1.51779179E+02
  0
VERTEX
  8
0
 62
2
 10
2.15608991E+02
 20
-1.51769402E+02
  0
VERTEX
  8
0
 62
2
 10
2.16333492E+02
 20
-1.51755977E+02
  0
VERTEX
  8
0
 62
2
 10
2.17057846E+02
 20
-1.51738777E+02
  0
VERTEX
  8
0
 62
2
 10
2.17782013E+02
 20
-1.51717680E+02
  0
VERTEX
  8
0
 62
2
 10
2.18505954E+02
 20
-1.51692561E+02
  0
VERTEX
  8
0
 62
2
 10
2.19229630E+02
 20
-1.51663295E+02
  0
VERTEX
  8
0
 62
2
 10
2.19953002E+02
 20
-1.51629758E+02
  0
SEQEND
  8
0
  0
POLYLINE
  8
0
 62
2
 66
1
  0
VERTEX
  8
0
 62
2
 10
4.73406482E+01
 20
-1.49155400E+02
  0
VERTEX
  8
0
 62
2
 10
4.80002338E+01
 20
-1.49042588E+02
  0
VERTEX
  8
0
 62
2
 10
4.86611736E+01
 20
-1.48943563E+02
  0
VERTEX
  8
0
 62
2
 10
4.93230985E+01
 20
-1.48858898E+02
  0
VERTEX
  8
0
 62
2
 10
4.99856393E+01
 20
-1.48789167E+02
  0
VERTEX
  8
0
 62
2
 10
5.06484270E+01
 20
-1.48734940E+02
  0
VERTEX
  8
0
 62
2
 10
5.13110923E+01
 20
-1.48696792E+02
  0
VERTEX
  8
0
 62
2
 10
5.19732662E+01
 20
-1.48675294E+02
  0
VERTEX
  8
0
 62
2
 10
5.26345796E+01
 20
-1.48671019E+02
  0
VERTEX
  8
0
 62
2
 10
5.32946633E+01
 20
-1.48684540E+02
  0
VERTEX
  8
0
 62
2
 10
5.39531482E+01
 20
-1.48716429E+02
  0
VERTEX
  8
0
 62
2
 10
5.51188893E+01
 20
-1.48818057E+02
  0
VERTEX
  8
0
 62
2
 10
5.62796840E+01
 20
-1.48970158E+02
  0
VERTEX
  8
0
 62
2
 10
5.74365517E+01
 20
-1.49163549E+02
  0
VERTEX
  8
0
 62
2
 10
5.85905117E+01
 20
-1.49389049E+02
  0
VERTEX
  8
0
 62
2
 10
5.97425833E+01
 20
-1.49637475E+02
  0
VERTEX
  8
0
 62
2
 10
6.08937857E+01
 20
-1.49899647E+02
  0
VERTEX
  8
0
 62
2
 10
6.20451385E+01
 20
-1.50166381E+02
  0
VERTEX
  8
0
 62
2
 10
6.31976607E+01
 20
-1.50428497E+02
  0
VERTEX
  8
0
 62
2
 10
6.43523719E+01
 20
-1.50676812E+02
  0
VERTEX
  8
0
 62
2
 10
6.55102913E+01
 20
-1.50902144E+02
  0
VERTEX
  8
0
 62
2
 10
6.66975256E+01
 20
-1.51101095E+02
  0
VERTEX
  8
0
 62
2
 10
6.78886060E+01
 20
-1.51268863E+02
  0
VERTEX
  8
0
 62
2
 10
6.90830348E+01
 20
-1.51407944E+02
  0
VERTEX
  8
0
 62
2
 10
7.02803146E+01
 20
-1.51520832E+02
  0
VERTEX
  8
0
 62
2
 10
7.14799479E+01
 20
-1.51610023E+02
  0
VERTEX
  8
0
 62
2
 10
7.26814373E+01
 20
-1.51678012E+02
  0
VERTEX
  8
0
 62
2
 10
7.38842852E+01
 20
-1.51727295E+02
  0
VERTEX
  8
0
 62
2
 10
7.50879943E+01
 20
-1.51760367E+02
  0
VERTEX
  8
0
 62
2
 10
7.62920669E+01
 20
-1.51779723E+02
  0
VERTEX
  8
0
 62
2
 10
7.74960057E+01
 20
-1.51787858E+02
  0
VERTEX
  8
0
 62
2
 10
7.82207041E+01
 20
-1.51788282E+02
  0
VERTEX
  8
0
 62
2
 10
7.89454120E+01
 20
-1.51785431E+02
  0
VERTEX
  8
0
 62
2
 10
7.96700902E+01
 20
-1.51779179E+02
  0
VERTEX
  8
0
 62
2
 10
8.03946995E+01
 20
-1.51769402E+02
  0
VERTEX
  8
0
 62
2
 10
8.11192007E+01
 20
-1.51755977E+02
  0
VERTEX
  8
0
 62
2
 10
8.18435544E+01
 20
-1.51738777E+02
  0
VERTEX
  8
0
 62
2
 10
8.25677216E+01
 20
-1.51717680E+02
  0
VERTEX
  8
0
 62
2
 10
8.32916628E+01
 20
-1.51692561E+02
  0
VERTEX
  8
0
 62
2
 10
8.40153390E+01
 20
-1.51663295E+02
  0
VERTEX
  8
0
 62
2
 10
8.47387109E+01
 20
-1.51629758E+02
  0
SEQEND
  8
0
  0
POLYLINE
  8
0
 62
2
 66
1
  0
VERTEX
  8
0
 62
2
 10
-9.15041649E+01
 20
-1.49155277E+02
  0
VERTEX
  8
0
 62
2
 10
-9.08447556E+01
 20
-1.49042454E+02
  0
VERTEX
  8
0
 62
2
 10
-9.01839411E+01
 20
-1.48943421E+02
  0
VERTEX
  8
0
 62
2
 10
-8.95220787E+01
 20
-1.48858753E+02
  0
VERTEX
  8
0
 62
2
 10
-8.88595257E+01
 20
-1.48789022E+02
  0
VERTEX
  8
0
 62
2
 10
-8.81966394E+01
 20
-1.48734802E+02
  0
VERTEX
  8
0
 62
2
 10
-8.75337770E+01
 20
-1.48696665E+02
  0
VERTEX
  8
0
 62
2
 10
-8.68712957E+01
 20
-1.48675187E+02
  0
VERTEX
  8
0
 62
2
 10
-8.62095529E+01
 20
-1.48670939E+02
  0
VERTEX
  8
0
 62
2
 10
-8.55489057E+01
 20
-1.48684495E+02
  0
VERTEX
  8
0
 62
2
 10
-8.48897115E+01
 20
-1.48716429E+02
  0
VERTEX
  8
0
 62
2
 10
-8.37242450E+01
 20
-1.48818080E+02
  0
VERTEX
  8
0
 62
2
 10
-8.25642172E+01
 20
-1.48970238E+02
  0
VERTEX
  8
0
 62
2
 10
-8.14085202E+01
 20
-1.49163708E+02
  0
VERTEX
  8
0
 62
2
 10
-8.02560463E+01
 20
-1.49389290E+02
  0
VERTEX
  8
0
 62
2
 10
-7.91056878E+01
 20
-1.49637790E+02
  0
VERTEX
  8
0
 62
2
 10
-7.79563369E+01
 20
-1.49900009E+02
  0
VERTEX
  8
0
 62
2
 10
-7.68068859E+01
 20
-1.50166751E+02
  0
VERTEX
  8
0
 62
2
 10
-7.56562269E+01
 20
-1.50428819E+02
  0
VERTEX
  8
0
 62
2
 10
-7.45032522E+01
 20
-1.50677015E+02
  0
VERTEX
  8
0
 62
2
 10
-7.33468541E+01
 20
-1.50902144E+02
  0
VERTEX
  8
0
 62
2
 10
-7.21596197E+01
 20
-1.51101095E+02
  0
VERTEX
  8
0
 62
2
 10
-7.09685394E+01
 20
-1.51268863E+02
  0
VERTEX
  8
0
 62
2
 10
-6.97741106E+01
 20
-1.51407944E+02
  0
VERTEX
  8
0
 62
2
 10
-6.85768308E+01
 20
-1.51520832E+02
  0
VERTEX
  8
0
 62
2
 10
-6.73771975E+01
 20
-1.51610023E+02
  0
VERTEX
  8
0
 62
2
 10
-6.61757081E+01
 20
-1.51678012E+02
  0
VERTEX
  8
0
 62
2
 10
-6.49728602E+01
 20
-1.51727295E+02
  0
VERTEX
  8
0
 62
2
 10
-6.37691511E+01
 20
-1.51760367E+02
  0
VERTEX
  8
0
 62
2
 10
-6.25650785E+01
 20
-1.51779723E+02
  0
VERTEX
  8
0
 62
2
 10
-6.13611396E+01
 20
-1.51787858E+02
  0
VERTEX
  8
0
 62
2
 10
-6.06364413E+01
 20
-1.51788282E+02
  0
VERTEX
  8
0
 62
2
 10
-5.99117334E+01
 20
-1.51785431E+02
  0
VERTEX
  8
0
 62
2
 10
-5.91870552E+01
 20
-1.51779179E+02
  0
VERTEX
  8
0
 62
2
 10
-5.84624459E+01
 20
-1.51769402E+02
  0
VERTEX
  8
0
 62
2
 10
-5.77379447E+01
 20
-1.51755977E+02
  0
VERTEX
  8
0
 62
2
 10
-5.70135910E+01
 20
-1.51738777E+02
  0
VERTEX
  8
0
 62
2
 10
-5.62894238E+01
 20
-1.51717680E+02
  0
VERTEX
  8
0
 62
2
 10
-5.55654826E+01
 20
-1.51692561E+02
  0
VERTEX
  8
0
 62
2
 10
-5.48418064E+01
 20
-1.51663295E+02
  0
VERTEX
  8
0
 62
2
 10
-5.41184345E+01
 20
-1.51629758E+02
  0
SEQEND
  8
0
  0
LINE
  8
0
 62
7
 10
1.16096006E+02
 20
-7.78592853E+01
 11
1.16096006E+02
 21
-1.24859286E+02
  0
LINE
  8
0
 62
7
 10
1.75960047E+01
 20
-7.63592853E+01
 11
1.14596006E+02
 21
-7.63592853E+01
  0
LINE
  8
0
 62
7
 10
1.60960047E+01
 20
-7.78592853E+01
 11
1.75960047E+01
 21
-7.63592853E+01
  0
LINE
  8
0
 62
7
 10
1.16096006E+02
 20
-7.78592853E+01
 11
1.14596006E+02
 21
-7.63592853E+01
  0
LINE
  8
0
 62
7
 10
1.60960047E+01
 20
-7.78592853E+01
 11
1.16096006E+02
 21
-7.78592853E+01
  0
LINE
  8
0
 62
7
 10
4.63388624E+01
 20
-7.53592853E+01
 11
4.63388624E+01
 21
-7.63592853E+01
  0
LINE
  8
0
 62
7
 10
2.10960048E+01
 20
-7.53592853E+01
 11
2.10960048E+01
 21
-7.63592853E+01
  0
LINE
  8
0
 62
7
 10
3.20960050E+01
 20
-7.53592853E+01
 11
3.20960050E+01
 21
-7.63592853E+01
  0
LINE
  8
0
 62
7
 10
2.10960048E+01
 20
-7.53592853E+01
 11
3.20960050E+01
 21
-7.53592853E+01
  0
LINE
  8
0
 62
7
 10
1.75960047E+01
 20
-1.26359286E+02
 11
4.98960053E+01
 21
-1.26359286E+02
  0
LINE
  8
0
 62
7
 10
1.60960047E+01
 20
-1.24859286E+02
 11
1.75960047E+01
 21
-1.26359286E+02
  0
LINE
  8
0
 62
7
 10
1.14596006E+02
 20
-1.26359286E+02
 11
1.16096006E+02
 21
-1.24859286E+02
  0
LINE
  8
0
 62
7
 10
1.60960047E+01
 20
-1.24859286E+02
 11
5.13960053E+01
 21
-1.24859286E+02
  0
LINE
  8
0
 62
7
 10
2.10960048E+01
 20
-1.27359286E+02
 11
3.20960050E+01
 21
-1.27359286E+02
  0
LINE
  8
0
 62
7
 10
2.10960048E+01
 20
-1.27359286E+02
 11
2.10960048E+01
 21
-1.26359286E+02
  0
LINE
  8
0
 62
7
 10
3.20960050E+01
 20
-1.27359286E+02
 11
3.20960050E+01
 21
-1.26359286E+02
  0
LINE
  8
0
 62
7
 10
8.22960058E+01
 20
-1.26359286E+02
 11
1.14596006E+02
 21
-1.26359286E+02
  0
LINE
  8
0
 62
7
 10
5.23960053E+01
 20
-1.08359286E+02
 11
6.30220395E+01
 21
-1.08359286E+02
  0
LINE
  8
0
 62
7
 10
3.70960051E+01
 20
-1.26359286E+02
 11
3.70960051E+01
 21
-1.27359286E+02
  0
LINE
  8
0
 62
7
 10
9.50960060E+01
 20
-1.26359286E+02
 11
9.50960060E+01
 21
-1.27359286E+02
  0
LINE
  8
0
 62
7
 10
3.70960051E+01
 20
-1.27359286E+02
 11
3.80960051E+01
 21
-1.28359286E+02
  0
LINE
  8
0
 62
7
 10
9.40960060E+01
 20
-1.28359286E+02
 11
9.50960060E+01
 21
-1.27359286E+02
  0
LINE
  8
0
 62
7
 10
3.70960051E+01
 20
-1.27359286E+02
 11
9.50960060E+01
 21
-1.27359286E+02
  0
LINE
  8
0
 62
7
 10
5.13960053E+01
 20
-1.24859286E+02
 11
5.13960053E+01
 21
-1.09359286E+02
  0
LINE
  8
0
 62
7
 10
5.13960053E+01
 20
-1.24859286E+02
 11
4.98960053E+01
 21
-1.26359286E+02
  0
LINE
  8
0
 62
7
 10
5.23960053E+01
 20
-1.08359286E+02
 11
5.13960053E+01
 21
-1.09359286E+02
  0
LINE
  8
0
 62
7
 10
5.13960053E+01
 20
-1.09359286E+02
 11
6.33993917E+01
 21
-1.09359286E+02
  0
LINE
  8
0
 62
7
 10
3.70960051E+01
 20
-8.63592855E+01
 11
3.70960051E+01
 21
-1.16359286E+02
  0
LINE
  8
0
 62
7
 10
1.60960047E+01
 20
-7.78592853E+01
 11
1.60960047E+01
 21
-1.24859286E+02
  0
LINE
  8
0
 62
7
 10
1.75960047E+01
 20
-1.26359286E+02
 11
1.75960047E+01
 21
-7.63592853E+01
  0
LINE
  8
0
 62
7
 10
2.30960048E+01
 20
-8.63592855E+01
 11
3.70960051E+01
 21
-8.63592855E+01
  0
LINE
  8
0
 62
7
 10
2.30960048E+01
 20
-1.16359286E+02
 11
3.70960051E+01
 21
-1.16359286E+02
  0
LINE
  8
0
 62
7
 10
3.62102908E+01
 20
-8.69735712E+01
 11
3.62102908E+01
 21
-1.15745000E+02
  0
LINE
  8
0
 62
7
 10
2.39674334E+01
 20
-8.69735712E+01
 11
3.62102908E+01
 21
-8.69735712E+01
  0
LINE
  8
0
 62
7
 10
2.39674334E+01
 20
-1.15745000E+02
 11
3.62102908E+01
 21
-1.15745000E+02
  0
LINE
  8
0
 62
7
 10
3.62102908E+01
 20
-1.15745000E+02
 11
3.70960051E+01
 21
-1.16359286E+02
  0
LINE
  8
0
 62
7
 10
3.70960051E+01
 20
-8.63592855E+01
 11
3.62102908E+01
 21
-8.69735712E+01
  0
LINE
  8
0
 62
7
 10
4.60960052E+01
 20
-7.53592853E+01
 11
8.60960059E+01
 21
-7.53592853E+01
  0
LINE
  8
0
 62
7
 10
7.71245772E+01
 20
-6.63592851E+01
 11
7.61388629E+01
 21
-6.53592851E+01
  0
LINE
  8
0
 62
7
 10
8.45960059E+01
 20
-7.23592852E+01
 11
8.56817202E+01
 21
-7.29307138E+01
  0
LINE
  8
0
 62
7
 10
7.00960056E+01
 20
-7.29307138E+01
 11
7.03817199E+01
 21
-7.23592852E+01
  0
LINE
  8
0
 62
7
 10
7.61388629E+01
 20
-7.23592852E+01
 11
7.71245772E+01
 21
-7.29307138E+01
  0
LINE
  8
0
 62
7
 10
4.70960052E+01
 20
-6.53592851E+01
 11
8.50960059E+01
 21
-6.53592851E+01
  0
LINE
  8
0
 62
7
 10
8.60960059E+01
 20
-6.63592851E+01
 11
8.60960059E+01
 21
-7.52735710E+01
  0
LINE
  8
0
 62
7
 10
4.60960052E+01
 20
-6.63592851E+01
 11
4.60960052E+01
 21
-7.53592853E+01
  0
LINE
  8
0
 62
7
 10
4.60960052E+01
 20
-6.63592851E+01
 11
4.70960052E+01
 21
-6.53592851E+01
  0
LINE
  8
0
 62
7
 10
8.60960059E+01
 20
-6.63592851E+01
 11
8.50960059E+01
 21
-6.53592851E+01
  0
LINE
  8
0
 62
7
 10
4.75817195E+01
 20
-7.23592852E+01
 11
4.94102910E+01
 21
-7.23592852E+01
  0
LINE
  8
0
 62
7
 10
4.64960052E+01
 20
-7.29307138E+01
 11
4.94102910E+01
 21
-7.29307138E+01
  0
LINE
  8
0
 62
7
 10
6.20960055E+01
 20
-6.63592851E+01
 11
6.20960055E+01
 21
-7.29307138E+01
  0
LINE
  8
0
 62
7
 10
7.00960056E+01
 20
-6.63592851E+01
 11
7.00960056E+01
 21
-7.29307138E+01
  0
LINE
  8
0
 62
7
 10
7.03817199E+01
 20
-6.53592851E+01
 11
7.03817199E+01
 21
-7.23592852E+01
  0
LINE
  8
0
 62
7
 10
6.17960055E+01
 20
-6.53592851E+01
 11
6.17960055E+01
 21
-7.23592852E+01
  0
LINE
  8
0
 62
7
 10
4.60960052E+01
 20
-6.63592851E+01
 11
4.64960052E+01
 21
-6.63592851E+01
  0
LINE
  8
0
 62
7
 10
6.20960055E+01
 20
-6.63592851E+01
 11
7.00960056E+01
 21
-6.63592851E+01
  0
LINE
  8
0
 62
7
 10
7.71245772E+01
 20
-6.63592851E+01
 11
8.27817201E+01
 21
-6.63592851E+01
  0
LINE
  8
0
 62
7
 10
7.03817199E+01
 20
-7.23592852E+01
 11
7.61388629E+01
 21
-7.23592852E+01
  0
LINE
  8
0
 62
7
 10
7.00960056E+01
 20
-7.29307138E+01
 11
7.71245772E+01
 21
-7.29307138E+01
  0
LINE
  8
0
 62
7
 10
5.60388625E+01
 20
-6.53592851E+01
 11
5.60388625E+01
 21
-7.23592852E+01
  0
LINE
  8
0
 62
7
 10
7.61388629E+01
 20
-6.53592851E+01
 11
7.61388629E+01
 21
-7.23592852E+01
  0
LINE
  8
0
 62
7
 10
5.60388625E+01
 20
-7.23592852E+01
 11
6.17960055E+01
 21
-7.23592852E+01
  0
LINE
  8
0
 62
7
 10
8.27817201E+01
 20
-7.23592852E+01
 11
8.45960059E+01
 21
-7.23592852E+01
  0
LINE
  8
0
 62
7
 10
5.50674339E+01
 20
-6.63592851E+01
 11
5.50674339E+01
 21
-7.29307138E+01
  0
LINE
  8
0
 62
7
 10
7.71245772E+01
 20
-6.63592851E+01
 11
7.71245772E+01
 21
-7.29307138E+01
  0
LINE
  8
0
 62
7
 10
5.50674339E+01
 20
-7.29307138E+01
 11
6.20960055E+01
 21
-7.29307138E+01
  0
LINE
  8
0
 62
7
 10
8.27817201E+01
 20
-7.29307138E+01
 11
8.56817202E+01
 21
-7.29307138E+01
  0
LINE
  8
0
 62
7
 10
8.27817201E+01
 20
-6.63592851E+01
 11
8.27817201E+01
 21
-7.29307138E+01
  0
LINE
  8
0
 62
7
 10
4.94102910E+01
 20
-6.63592851E+01
 11
4.94102910E+01
 21
-7.29307138E+01
  0
LINE
  8
0
 62
7
 10
8.56817202E+01
 20
-6.63592851E+01
 11
8.60960059E+01
 21
-6.63592851E+01
  0
LINE
  8
0
 62
7
 10
4.94102910E+01
 20
-6.63592851E+01
 11
5.50674339E+01
 21
-6.63592851E+01
  0
LINE
  8
0
 62
7
 10
4.94102910E+01
 20
-6.63592851E+01
 11
4.99674338E+01
 21
-6.53592851E+01
  0
LINE
  8
0
 62
7
 10
8.22102915E+01
 20
-6.53592851E+01
 11
8.27817201E+01
 21
-6.63592851E+01
  0
LINE
  8
0
 62
7
 10
8.45960059E+01
 20
-6.53592851E+01
 11
8.45960059E+01
 21
-7.23592852E+01
  0
LINE
  8
0
 62
7
 10
4.75817195E+01
 20
-6.53592851E+01
 11
4.75817195E+01
 21
-7.23592852E+01
  0
LINE
  8
0
 62
7
 10
8.56817202E+01
 20
-6.63592851E+01
 11
8.56817202E+01
 21
-7.29307138E+01
  0
LINE
  8
0
 62
7
 10
4.64960052E+01
 20
-6.63592851E+01
 11
4.64960052E+01
 21
-7.29307138E+01
  0
LINE
  8
0
 62
7
 10
4.75817195E+01
 20
-7.23592852E+01
 11
4.64960052E+01
 21
-7.29307138E+01
  0
LINE
  8
0
 62
7
 10
5.60388625E+01
 20
-7.23592852E+01
 11
5.50674339E+01
 21
-7.29307138E+01
  0
LINE
  8
0
 62
7
 10
5.50674339E+01
 20
-6.63592851E+01
 11
5.60388625E+01
 21
-6.53592851E+01
  0
LINE
  8
0
 62
7
 10
6.17960055E+01
 20
-6.53592851E+01
 11
6.20960055E+01
 21
-6.63592851E+01
  0
LINE
  8
0
 62
7
 10
6.17960055E+01
 20
-7.23592852E+01
 11
6.20960055E+01
 21
-7.29307138E+01
  0
LINE
  8
0
 62
7
 10
7.00960056E+01
 20
-6.63592851E+01
 11
7.03817199E+01
 21
-6.53592851E+01
  0
LINE
  8
0
 62
7
 10
8.56817202E+01
 20
-6.63592851E+01
 11
8.45960059E+01
 21
-6.53592851E+01
  0
LINE
  8
0
 62
7
 10
4.64960052E+01
 20
-6.63592851E+01
 11
4.75817195E+01
 21
-6.53592851E+01
  0
LINE
  8
0
 62
7
 10
3.75960051E+01
 20
-1.31559286E+02
 11
3.75960051E+01
 21
-1.40559286E+02
  0
LINE
  8
0
 62
7
 10
9.45960060E+01
 20
-1.31559286E+02
 11
9.45960060E+01
 21
-1.40559286E+02
  0
LINE
  8
0
 62
7
 10
3.85960051E+01
 20
-1.41559286E+02
 11
9.35960060E+01
 21
-1.41559286E+02
  0
LINE
  8
0
 62
7
 10
3.75960051E+01
 20
-1.40559286E+02
 11
3.85960051E+01
 21
-1.41559286E+02
  0
LINE
  8
0
 62
7
 10
9.45960060E+01
 20
-1.40559286E+02
 11
9.35960060E+01
 21
-1.41559286E+02
  0
LINE
  8
0
 62
7
 10
3.75960051E+01
 20
-1.40559286E+02
 11
3.78102908E+01
 21
-1.40559286E+02
  0
LINE
  8
0
 62
7
 10
7.65817200E+01
 20
-1.40559286E+02
 11
8.29817201E+01
 21
-1.40559286E+02
  0
LINE
  8
0
 62
7
 10
8.29817201E+01
 20
-1.33559286E+02
 11
8.88388631E+01
 21
-1.33559286E+02
  0
LINE
  8
0
 62
7
 10
8.32674344E+01
 20
-1.34559286E+02
 11
8.77960059E+01
 21
-1.34559286E+02
  0
LINE
  8
0
 62
7
 10
8.32674344E+01
 20
-1.34559286E+02
 11
8.32674344E+01
 21
-1.41559286E+02
  0
LINE
  8
0
 62
7
 10
8.29817201E+01
 20
-1.33559286E+02
 11
8.29817201E+01
 21
-1.40559286E+02
  0
LINE
  8
0
 62
7
 10
4.89102910E+01
 20
-1.34559286E+02
 11
4.89102910E+01
 21
-1.41559286E+02
  0
LINE
  8
0
 62
7
 10
4.91960053E+01
 20
-1.33559286E+02
 11
4.91960053E+01
 21
-1.40559286E+02
  0
LINE
  8
0
 62
7
 10
4.91960053E+01
 20
-1.40559286E+02
 11
5.55960054E+01
 21
-1.40559286E+02
  0
LINE
  8
0
 62
7
 10
8.88388631E+01
 20
-1.40559286E+02
 11
9.23388631E+01
 21
-1.40559286E+02
  0
LINE
  8
0
 62
7
 10
8.77960059E+01
 20
-1.34559286E+02
 11
8.77960059E+01
 21
-1.41559286E+02
  0
LINE
  8
0
 62
7
 10
8.88388631E+01
 20
-1.33559286E+02
 11
8.88388631E+01
 21
-1.40559286E+02
  0
LINE
  8
0
 62
7
 10
4.33388623E+01
 20
-1.33559286E+02
 11
4.33388623E+01
 21
-1.40559286E+02
  0
LINE
  8
0
 62
7
 10
4.43960052E+01
 20
-1.34559286E+02
 11
4.43960052E+01
 21
-1.41559286E+02
  0
LINE
  8
0
 62
7
 10
4.33388623E+01
 20
-1.33559286E+02
 11
4.91960053E+01
 21
-1.33559286E+02
  0
LINE
  8
0
 62
7
 10
4.43960052E+01
 20
-1.34559286E+02
 11
4.89102910E+01
 21
-1.34559286E+02
  0
LINE
  8
0
 62
7
 10
9.23388631E+01
 20
-1.33559286E+02
 11
9.43817203E+01
 21
-1.33559286E+02
  0
LINE
  8
0
 62
7
 10
9.23388631E+01
 20
-1.34559286E+02
 11
9.33245774E+01
 21
-1.34559286E+02
  0
LINE
  8
0
 62
7
 10
9.23388631E+01
 20
-1.33559286E+02
 11
9.23388631E+01
 21
-1.40559286E+02
  0
LINE
  8
0
 62
7
 10
3.98388622E+01
 20
-1.33559286E+02
 11
3.98388622E+01
 21
-1.40559286E+02
  0
LINE
  8
0
 62
7
 10
3.78102908E+01
 20
-1.33559286E+02
 11
3.98388622E+01
 21
-1.33559286E+02
  0
LINE
  8
0
 62
7
 10
3.88531479E+01
 20
-1.34559286E+02
 11
3.98388622E+01
 21
-1.34559286E+02
  0
LINE
  8
0
 62
7
 10
3.98388622E+01
 20
-1.40559286E+02
 11
4.33388623E+01
 21
-1.40559286E+02
  0
LINE
  8
0
 62
7
 10
9.43817203E+01
 20
-1.40559286E+02
 11
9.45960060E+01
 21
-1.40559286E+02
  0
LINE
  8
0
 62
7
 10
3.98388622E+01
 20
-1.40559286E+02
 11
4.06102908E+01
 21
-1.41559286E+02
  0
LINE
  8
0
 62
7
 10
9.33245774E+01
 20
-1.34559286E+02
 11
9.33245774E+01
 21
-1.41559286E+02
  0
LINE
  8
0
 62
7
 10
9.43817203E+01
 20
-1.33559286E+02
 11
9.43817203E+01
 21
-1.40559286E+02
  0
LINE
  8
0
 62
7
 10
3.88531479E+01
 20
-1.34559286E+02
 11
3.88531479E+01
 21
-1.41559286E+02
  0
LINE
  8
0
 62
7
 10
3.78102908E+01
 20
-1.33559286E+02
 11
3.78102908E+01
 21
-1.40559286E+02
  0
LINE
  8
0
 62
7
 10
3.78102908E+01
 20
-1.40559286E+02
 11
3.88531479E+01
 21
-1.41559286E+02
  0
LINE
  8
0
 62
7
 10
3.78102908E+01
 20
-1.33559286E+02
 11
3.88531479E+01
 21
-1.34559286E+02
  0
LINE
  8
0
 62
7
 10
9.33245774E+01
 20
-1.41559286E+02
 11
9.43817203E+01
 21
-1.40559286E+02
  0
LINE
  8
0
 62
7
 10
9.33245774E+01
 20
-1.34559286E+02
 11
9.43817203E+01
 21
-1.33559286E+02
  0
LINE
  8
0
 62
7
 10
4.33388623E+01
 20
-1.40559286E+02
 11
4.43960052E+01
 21
-1.41559286E+02
  0
LINE
  8
0
 62
7
 10
4.43960052E+01
 20
-1.34559286E+02
 11
4.33388623E+01
 21
-1.33559286E+02
  0
LINE
  8
0
 62
7
 10
4.89102910E+01
 20
-1.34559286E+02
 11
4.91960053E+01
 21
-1.33559286E+02
  0
LINE
  8
0
 62
7
 10
4.89102910E+01
 20
-1.41559286E+02
 11
4.91960053E+01
 21
-1.40559286E+02
  0
LINE
  8
0
 62
7
 10
8.32674344E+01
 20
-1.34559286E+02
 11
8.29817201E+01
 21
-1.33559286E+02
  0
LINE
  8
0
 62
7
 10
8.32674344E+01
 20
-1.41559286E+02
 11
8.29817201E+01
 21
-1.40559286E+02
  0
LINE
  8
0
 62
7
 10
8.77960059E+01
 20
-1.34559286E+02
 11
8.88388631E+01
 21
-1.33559286E+02
  0
LINE
  8
0
 62
7
 10
8.88388631E+01
 20
-1.40559286E+02
 11
8.77960059E+01
 21
-1.41559286E+02
  0
LINE
  8
0
 62
7
 10
9.23388631E+01
 20
-1.40559286E+02
 11
9.15674346E+01
 21
-1.41559286E+02
  0
LINE
  8
0
 62
7
 10
5.55960054E+01
 20
-1.31559286E+02
 11
5.55960054E+01
 21
-1.40559286E+02
  0
LINE
  8
0
 62
7
 10
7.65817200E+01
 20
-1.31559286E+02
 11
7.65817200E+01
 21
-1.40559286E+02
  0
LINE
  8
0
 62
2
 10
5.55960054E+01
 20
-1.31559286E+02
 11
7.65817200E+01
 21
-1.40559286E+02
  0
LINE
  8
0
 62
2
 10
7.65817200E+01
 20
-1.31559286E+02
 11
5.55960054E+01
 21
-1.40559286E+02
  0
LINE
  8
0
 62
7
 10
4.35960052E+01
 20
-1.28359286E+02
 11
4.35960052E+01
 21
-1.31559286E+02
  0
LINE
  8
0
 62
2
 10
4.45960052E+01
 20
-1.28359286E+02
 11
4.45960052E+01
 21
-1.31559286E+02
  0
LINE
  8
0
 62
2
 10
8.75960059E+01
 20
-1.28359286E+02
 11
8.75960059E+01
 21
-1.31559286E+02
  0
LINE
  8
0
 62
7
 10
8.85960059E+01
 20
-1.28359286E+02
 11
8.85960059E+01
 21
-1.31559286E+02
  0
LINE
  8
0
 62
7
 10
5.43245768E+01
 20
-1.41559286E+02
 11
5.43245768E+01
 21
-1.48730715E+02
  0
LINE
  8
0
 62
7
 10
4.70388624E+01
 20
-1.41559286E+02
 11
4.73388624E+01
 21
-1.49159287E+02
  0
LINE
  8
0
 62
7
 10
6.01674340E+01
 20
-1.41559286E+02
 11
6.01674340E+01
 21
-1.49730715E+02
  0
LINE
  8
0
 62
7
 10
7.20102914E+01
 20
-1.41559286E+02
 11
7.20102914E+01
 21
-1.51645001E+02
  0
LINE
  8
0
 62
7
 10
7.78531486E+01
 20
-1.41559286E+02
 11
7.78531486E+01
 21
-1.51787858E+02
  0
LINE
  8
0
 62
7
 10
1.14596006E+02
 20
-1.26359286E+02
 11
1.14596006E+02
 21
-7.63592853E+01
  0
LINE
  8
0
 62
7
 10
2.39674334E+01
 20
-1.15745000E+02
 11
2.30960048E+01
 21
-1.16359286E+02
  0
LINE
  8
0
 62
7
 10
2.30960048E+01
 20
-8.63592855E+01
 11
2.39674334E+01
 21
-8.69735712E+01
  0
LINE
  8
0
 62
7
 10
2.39674334E+01
 20
-8.69735712E+01
 11
2.39674334E+01
 21
-1.15745000E+02
  0
LINE
  8
0
 62
7
 10
2.30960048E+01
 20
-8.63592855E+01
 11
2.30960048E+01
 21
-1.16359286E+02
  0
LINE
  8
0
 62
7
 10
3.80960051E+01
 20
-1.28359286E+02
 11
9.40960060E+01
 21
-1.28359286E+02
  0
LINE
  8
0
 62
7
 10
3.75960051E+01
 20
-1.31559286E+02
 11
9.45960060E+01
 21
-1.31559286E+02
  0
LINE
  8
0
 62
7
 10
8.51388630E+01
 20
-1.41559286E+02
 11
8.47388630E+01
 21
-1.51630715E+02
  0
LINE
  8
0
 62
7
 10
2.26310294E+02
 20
-7.78449996E+01
 11
2.24810294E+02
 21
-7.63449996E+01
  0
LINE
  8
0
 62
7
 10
2.26310294E+02
 20
-7.78592853E+01
 11
2.26310294E+02
 21
-1.24859286E+02
  0
LINE
  8
0
 62
7
 10
2.21053151E+02
 20
-7.53592853E+01
 11
2.21053151E+02
 21
-7.63592853E+01
  0
LINE
  8
0
 62
7
 10
2.30310294E+02
 20
-1.09359286E+02
 11
2.30310294E+02
 21
-1.27359286E+02
  0
LINE
  8
0
 62
7
 10
2.30310294E+02
 20
-1.27359286E+02
 11
2.29310294E+02
 21
-1.28359286E+02
  0
LINE
  8
0
 62
7
 10
2.26310294E+02
 20
-1.24859286E+02
 11
2.24810294E+02
 21
-1.26359286E+02
  0
LINE
  8
0
 62
7
 10
2.24810294E+02
 20
-7.63592853E+01
 11
2.24810294E+02
 21
-1.26359286E+02
  0
LINE
  8
0
 62
7
 10
2.28810294E+02
 20
-1.08359286E+02
 11
2.29310294E+02
 21
-1.08359286E+02
  0
LINE
  8
0
 62
7
 10
2.30310294E+02
 20
-1.09359286E+02
 11
2.29310294E+02
 21
-1.08359286E+02
  0
LINE
  8
0
 62
7
 10
2.30310294E+02
 20
-1.09359286E+02
 11
2.28810294E+02
 21
-1.09359286E+02
  0
LINE
  8
0
 62
7
 10
2.27810294E+02
 20
-9.13592856E+01
 11
2.27810294E+02
 21
-1.11359286E+02
  0
LINE
  8
0
 62
7
 10
2.28810294E+02
 20
-9.23592856E+01
 11
2.28810294E+02
 21
-1.10359286E+02
  0
LINE
  8
0
 62
7
 10
2.27810294E+02
 20
-1.11359286E+02
 11
2.26310294E+02
 21
-1.11359286E+02
  0
LINE
  8
0
 62
7
 10
2.28810294E+02
 20
-1.10359286E+02
 11
2.27810294E+02
 21
-1.11359286E+02
  0
LINE
  8
0
 62
7
 10
2.28810294E+02
 20
-9.23592856E+01
 11
2.27810294E+02
 21
-9.13592856E+01
  0
LINE
  8
0
 62
7
 10
2.27810294E+02
 20
-9.13592856E+01
 11
2.26310294E+02
 21
-9.13592856E+01
  0
LINE
  8
0
 62
7
 10
2.21310294E+02
 20
-6.63592851E+01
 11
2.21310294E+02
 21
-7.53592853E+01
  0
LINE
  8
0
 62
7
 10
2.21310294E+02
 20
-6.63592851E+01
 11
2.20310294E+02
 21
-6.53592851E+01
  0
LINE
  8
0
 62
7
 10
2.05310294E+02
 20
-6.63592851E+01
 11
2.05310294E+02
 21
-7.29307138E+01
  0
LINE
  8
0
 62
7
 10
2.05596008E+02
 20
-6.53592851E+01
 11
2.05596008E+02
 21
-7.23592852E+01
  0
LINE
  8
0
 62
7
 10
2.12338865E+02
 20
-6.63592851E+01
 11
2.17996008E+02
 21
-6.63592851E+01
  0
LINE
  8
0
 62
7
 10
2.05596008E+02
 20
-7.23592852E+01
 11
2.11353151E+02
 21
-7.23592852E+01
  0
LINE
  8
0
 62
7
 10
2.05310294E+02
 20
-7.29307138E+01
 11
2.12338865E+02
 21
-7.29307138E+01
  0
LINE
  8
0
 62
7
 10
2.11353151E+02
 20
-6.53592851E+01
 11
2.11353151E+02
 21
-7.23592852E+01
  0
LINE
  8
0
 62
7
 10
2.17996008E+02
 20
-7.23592852E+01
 11
2.19810294E+02
 21
-7.23592852E+01
  0
LINE
  8
0
 62
7
 10
2.12338865E+02
 20
-6.63592851E+01
 11
2.12338865E+02
 21
-7.29307138E+01
  0
LINE
  8
0
 62
7
 10
2.17996008E+02
 20
-7.29307138E+01
 11
2.20896008E+02
 21
-7.29307138E+01
  0
LINE
  8
0
 62
7
 10
2.17996008E+02
 20
-6.63592851E+01
 11
2.17996008E+02
 21
-7.29307138E+01
  0
LINE
  8
0
 62
7
 10
2.20896008E+02
 20
-6.63592851E+01
 11
2.21310294E+02
 21
-6.63592851E+01
  0
LINE
  8
0
 62
7
 10
2.17424580E+02
 20
-6.53592851E+01
 11
2.17996008E+02
 21
-6.63592851E+01
  0
LINE
  8
0
 62
7
 10
2.19810294E+02
 20
-6.53592851E+01
 11
2.19810294E+02
 21
-7.23592852E+01
  0
LINE
  8
0
 62
7
 10
2.20896008E+02
 20
-6.63592851E+01
 11
2.20896008E+02
 21
-7.29307138E+01
  0
LINE
  8
0
 62
7
 10
2.05310294E+02
 20
-6.63592851E+01
 11
2.05596008E+02
 21
-6.53592851E+01
  0
LINE
  8
0
 62
7
 10
2.05310294E+02
 20
-7.29307138E+01
 11
2.05596008E+02
 21
-7.23592852E+01
  0
LINE
  8
0
 62
7
 10
2.11353151E+02
 20
-7.23592852E+01
 11
2.12338865E+02
 21
-7.29307138E+01
  0
LINE
  8
0
 62
7
 10
2.12338865E+02
 20
-6.63592851E+01
 11
2.11353151E+02
 21
-6.53592851E+01
  0
LINE
  8
0
 62
7
 10
2.19810294E+02
 20
-7.23592852E+01
 11
2.20896008E+02
 21
-7.29307138E+01
  0
LINE
  8
0
 62
7
 10
2.19810294E+02
 20
-6.53592851E+01
 11
2.20896008E+02
 21
-6.63592851E+01
  0
LINE
  8
0
 62
7
 10
2.24053151E+02
 20
-1.40559286E+02
 11
2.23010294E+02
 21
-1.41559286E+02
  0
LINE
  8
0
 62
7
 10
2.29810294E+02
 20
-1.31559286E+02
 11
2.29810294E+02
 21
-1.40559286E+02
  0
LINE
  8
0
 62
7
 10
2.29810294E+02
 20
-1.40559286E+02
 11
2.28810294E+02
 21
-1.41559286E+02
  0
LINE
  8
0
 62
7
 10
2.12410294E+02
 20
-1.40559286E+02
 11
2.18196008E+02
 21
-1.40559286E+02
  0
LINE
  8
0
 62
7
 10
2.04810294E+02
 20
-1.33559286E+02
 11
2.12410294E+02
 21
-1.33559286E+02
  0
LINE
  8
0
 62
7
 10
2.05081723E+02
 20
-1.34559286E+02
 11
2.11653151E+02
 21
-1.34559286E+02
  0
LINE
  8
0
 62
7
 10
2.18196008E+02
 20
-1.33559286E+02
 11
2.24053151E+02
 21
-1.33559286E+02
  0
LINE
  8
0
 62
7
 10
2.18481723E+02
 20
-1.34559286E+02
 11
2.23010294E+02
 21
-1.34559286E+02
  0
LINE
  8
0
 62
7
 10
2.04810294E+02
 20
-1.33559286E+02
 11
2.04810294E+02
 21
-1.40559286E+02
  0
LINE
  8
0
 62
7
 10
2.05081723E+02
 20
-1.34559286E+02
 11
2.05081723E+02
 21
-1.41559286E+02
  0
LINE
  8
0
 62
7
 10
2.12410294E+02
 20
-1.33559286E+02
 11
2.12410294E+02
 21
-1.40559286E+02
  0
LINE
  8
0
 62
7
 10
2.11653151E+02
 20
-1.34559286E+02
 11
2.11653151E+02
 21
-1.41559286E+02
  0
LINE
  8
0
 62
7
 10
2.18481723E+02
 20
-1.34559286E+02
 11
2.18481723E+02
 21
-1.41559286E+02
  0
LINE
  8
0
 62
7
 10
2.18196008E+02
 20
-1.33559286E+02
 11
2.18196008E+02
 21
-1.40559286E+02
  0
LINE
  8
0
 62
7
 10
2.24053151E+02
 20
-1.40559286E+02
 11
2.27553151E+02
 21
-1.40559286E+02
  0
LINE
  8
0
 62
7
 10
2.23010294E+02
 20
-1.34559286E+02
 11
2.23010294E+02
 21
-1.41559286E+02
  0
LINE
  8
0
 62
7
 10
2.24053151E+02
 20
-1.33559286E+02
 11
2.24053151E+02
 21
-1.40559286E+02
  0
LINE
  8
0
 62
7
 10
2.27553151E+02
 20
-1.33559286E+02
 11
2.29596009E+02
 21
-1.33559286E+02
  0
LINE
  8
0
 62
7
 10
2.27553151E+02
 20
-1.34559286E+02
 11
2.28538866E+02
 21
-1.34559286E+02
  0
LINE
  8
0
 62
7
 10
2.27553151E+02
 20
-1.33559286E+02
 11
2.27553151E+02
 21
-1.40559286E+02
  0
LINE
  8
0
 62
7
 10
2.29596009E+02
 20
-1.40559286E+02
 11
2.29810294E+02
 21
-1.40559286E+02
  0
LINE
  8
0
 62
7
 10
2.27553151E+02
 20
-1.40559286E+02
 11
2.26781723E+02
 21
-1.41559286E+02
  0
LINE
  8
0
 62
7
 10
2.28538866E+02
 20
-1.34559286E+02
 11
2.28538866E+02
 21
-1.41559286E+02
  0
LINE
  8
0
 62
7
 10
2.29596009E+02
 20
-1.33559286E+02
 11
2.29596009E+02
 21
-1.40559286E+02
  0
LINE
  8
0
 62
7
 10
2.28538866E+02
 20
-1.41559286E+02
 11
2.29596009E+02
 21
-1.40559286E+02
  0
LINE
  8
0
 62
7
 10
2.28538866E+02
 20
-1.34559286E+02
 11
2.29596009E+02
 21
-1.33559286E+02
  0
LINE
  8
0
 62
7
 10
2.05081723E+02
 20
-1.34559286E+02
 11
2.04810294E+02
 21
-1.33559286E+02
  0
LINE
  8
0
 62
7
 10
2.04810294E+02
 20
-1.40559286E+02
 11
2.05081723E+02
 21
-1.41559286E+02
  0
LINE
  8
0
 62
7
 10
2.12410294E+02
 20
-1.40559286E+02
 11
2.11653151E+02
 21
-1.41559286E+02
  0
LINE
  8
0
 62
7
 10
2.12410294E+02
 20
-1.33559286E+02
 11
2.11653151E+02
 21
-1.34559286E+02
  0
LINE
  8
0
 62
7
 10
2.18481723E+02
 20
-1.34559286E+02
 11
2.18196008E+02
 21
-1.33559286E+02
  0
LINE
  8
0
 62
7
 10
2.18481723E+02
 20
-1.41559286E+02
 11
2.18196008E+02
 21
-1.40559286E+02
  0
LINE
  8
0
 62
7
 10
2.23010294E+02
 20
-1.34559286E+02
 11
2.24053151E+02
 21
-1.33559286E+02
  0
LINE
  8
0
 62
2
 10
2.22810294E+02
 20
-1.28359286E+02
 11
2.22810294E+02
 21
-1.31559286E+02
  0
LINE
  8
0
 62
7
 10
2.23810294E+02
 20
-1.28359286E+02
 11
2.23810294E+02
 21
-1.31559286E+02
  0
LINE
  8
0
 62
7
 10
2.20353151E+02
 20
-1.41559286E+02
 11
2.19953151E+02
 21
-1.51630715E+02
  0
LINE
  8
0
 62
7
 10
2.07224580E+02
 20
-1.41559286E+02
 11
2.07224580E+02
 21
-1.51645001E+02
  0
LINE
  8
0
 62
7
 10
2.13067437E+02
 20
-1.41559286E+02
 11
2.13067437E+02
 21
-1.51787858E+02
  0
LINE
  8
0
 62
7
 10
2.30481723E+02
 20
-9.59592856E+01
 11
2.30481723E+02
 21
-1.06745000E+02
  0
LINE
  8
0
 62
7
 10
2.29781723E+02
 20
-9.47449999E+01
 11
2.29781723E+02
 21
-1.07959286E+02
  0
LINE
  8
0
 62
2
 10
2.28810294E+02
 20
-9.56307142E+01
 11
2.30267437E+02
 21
-9.55878571E+01
  0
LINE
  8
0
 62
7
 10
2.28810294E+02
 20
-9.47735713E+01
 11
2.29781723E+02
 21
-9.47449999E+01
  0
LINE
  8
0
 62
7
 10
2.29767437E+02
 20
-9.47449999E+01
 11
2.30467437E+02
 21
-9.59592856E+01
  0
LINE
  8
0
 62
7
 10
2.29781723E+02
 20
-1.07959286E+02
 11
2.30481723E+02
 21
-1.06745000E+02
  0
LINE
  8
0
 62
2
 10
2.28810294E+02
 20
-1.07073572E+02
 11
2.30267437E+02
 21
-1.07116429E+02
  0
LINE
  8
0
 62
7
 10
2.28810294E+02
 20
-1.07930714E+02
 11
2.29781723E+02
 21
-1.07959286E+02
  0
LINE
  8
0
 62
7
 10
1.76310293E+02
 20
-7.78449996E+01
 11
2.26310294E+02
 21
-7.78449996E+01
  0
LINE
  8
0
 62
7
 10
1.82253151E+02
 20
-1.41559286E+02
 11
1.82553151E+02
 21
-1.49159287E+02
  0
LINE
  8
0
 62
7
 10
1.95381722E+02
 20
-1.41559286E+02
 11
1.95381722E+02
 21
-1.49730715E+02
  0
LINE
  8
0
 62
7
 10
1.89538865E+02
 20
-1.41559286E+02
 11
1.89538865E+02
 21
-1.48730715E+02
  0
LINE
  8
0
 62
7
 10
1.78810293E+02
 20
-1.28359286E+02
 11
1.78810293E+02
 21
-1.31559286E+02
  0
LINE
  8
0
 62
7
 10
1.81310294E+02
 20
-7.53592853E+01
 11
2.21310294E+02
 21
-7.53592853E+01
  0
LINE
  8
0
 62
7
 10
1.77810293E+02
 20
-7.63592853E+01
 11
2.24810294E+02
 21
-7.63592853E+01
  0
LINE
  8
0
 62
7
 10
1.77810293E+02
 20
-1.26359286E+02
 11
2.24810294E+02
 21
-1.26359286E+02
  0
LINE
  8
0
 62
7
 10
1.73310293E+02
 20
-1.28359286E+02
 11
2.29310294E+02
 21
-1.28359286E+02
  0
LINE
  8
0
 62
7
 10
1.76310293E+02
 20
-7.78592853E+01
 11
1.76310293E+02
 21
-1.24859286E+02
  0
LINE
  8
0
 62
7
 10
1.81553151E+02
 20
-7.53592853E+01
 11
1.81553151E+02
 21
-7.63592853E+01
  0
LINE
  8
0
 62
7
 10
1.72310293E+02
 20
-1.09359286E+02
 11
1.72310293E+02
 21
-1.27359286E+02
  0
LINE
  8
0
 62
7
 10
1.72310293E+02
 20
-1.27359286E+02
 11
1.73310293E+02
 21
-1.28359286E+02
  0
LINE
  8
0
 62
7
 10
1.72310293E+02
 20
-1.27359286E+02
 11
2.30310294E+02
 21
-1.27359286E+02
  0
LINE
  8
0
 62
7
 10
1.76310293E+02
 20
-1.24859286E+02
 11
1.77810293E+02
 21
-1.26359286E+02
  0
LINE
  8
0
 62
7
 10
1.76310293E+02
 20
-7.78592853E+01
 11
1.77810293E+02
 21
-7.63592853E+01
  0
LINE
  8
0
 62
7
 10
1.76310293E+02
 20
-1.24859286E+02
 11
2.26310294E+02
 21
-1.24859286E+02
  0
LINE
  8
0
 62
7
 10
1.77810293E+02
 20
-1.26359286E+02
 11
1.77810293E+02
 21
-7.63592853E+01
  0
LINE
  8
0
 62
7
 10
1.73310293E+02
 20
-1.08359286E+02
 11
1.73810293E+02
 21
-1.08359286E+02
  0
LINE
  8
0
 62
7
 10
1.72310293E+02
 20
-1.09359286E+02
 11
1.73310293E+02
 21
-1.08359286E+02
  0
LINE
  8
0
 62
7
 10
1.72310293E+02
 20
-1.09359286E+02
 11
1.73810293E+02
 21
-1.09359286E+02
  0
LINE
  8
0
 62
7
 10
1.73810293E+02
 20
-9.23592856E+01
 11
1.73810293E+02
 21
-1.10359286E+02
  0
LINE
  8
0
 62
7
 10
1.74810293E+02
 20
-9.13592856E+01
 11
1.76310293E+02
 21
-9.13592856E+01
  0
LINE
  8
0
 62
7
 10
1.73810293E+02
 20
-9.23592856E+01
 11
1.74810293E+02
 21
-9.13592856E+01
  0
LINE
  8
0
 62
7
 10
1.74810293E+02
 20
-9.13592856E+01
 11
1.74810293E+02
 21
-1.11359286E+02
  0
LINE
  8
0
 62
7
 10
1.74810293E+02
 20
-1.11359286E+02
 11
1.76310293E+02
 21
-1.11359286E+02
  0
LINE
  8
0
 62
7
 10
1.73810293E+02
 20
-1.10359286E+02
 11
1.74810293E+02
 21
-1.11359286E+02
  0
LINE
  8
0
  6
CENTER
 62
2
 10
1.92310294E+02
 20
-9.83592857E+01
 11
2.10310294E+02
 21
-9.83592857E+01
  0
LINE
  8
0
 62
7
 10
1.82310294E+02
 20
-6.53592851E+01
 11
2.20310294E+02
 21
-6.53592851E+01
  0
LINE
  8
0
 62
7
 10
1.81310294E+02
 20
-6.63592851E+01
 11
1.81310294E+02
 21
-7.53592853E+01
  0
LINE
  8
0
 62
7
 10
1.81310294E+02
 20
-6.63592851E+01
 11
1.82310294E+02
 21
-6.53592851E+01
  0
LINE
  8
0
 62
7
 10
1.82796008E+02
 20
-7.23592852E+01
 11
1.84624579E+02
 21
-7.23592852E+01
  0
LINE
  8
0
 62
7
 10
1.81710294E+02
 20
-7.29307138E+01
 11
1.84624579E+02
 21
-7.29307138E+01
  0
LINE
  8
0
 62
7
 10
1.97310294E+02
 20
-6.63592851E+01
 11
1.97310294E+02
 21
-7.29307138E+01
  0
LINE
  8
0
 62
7
 10
1.97010294E+02
 20
-6.53592851E+01
 11
1.97010294E+02
 21
-7.23592852E+01
  0
LINE
  8
0
 62
7
 10
1.81310294E+02
 20
-6.63592851E+01
 11
1.81710294E+02
 21
-6.63592851E+01
  0
LINE
  8
0
 62
7
 10
1.97310294E+02
 20
-6.63592851E+01
 11
2.05310294E+02
 21
-6.63592851E+01
  0
LINE
  8
0
 62
7
 10
1.91253151E+02
 20
-6.53592851E+01
 11
1.91253151E+02
 21
-7.23592852E+01
  0
LINE
  8
0
 62
7
 10
1.91253151E+02
 20
-7.23592852E+01
 11
1.97010294E+02
 21
-7.23592852E+01
  0
LINE
  8
0
 62
7
 10
1.90281722E+02
 20
-6.63592851E+01
 11
1.90281722E+02
 21
-7.29307138E+01
  0
LINE
  8
0
 62
7
 10
1.90281722E+02
 20
-7.29307138E+01
 11
1.97310294E+02
 21
-7.29307138E+01
  0
LINE
  8
0
 62
7
 10
1.84624579E+02
 20
-6.63592851E+01
 11
1.84624579E+02
 21
-7.29307138E+01
  0
LINE
  8
0
 62
7
 10
1.84624579E+02
 20
-6.63592851E+01
 11
1.90281722E+02
 21
-6.63592851E+01
  0
LINE
  8
0
 62
7
 10
1.84624579E+02
 20
-6.63592851E+01
 11
1.85181722E+02
 21
-6.53592851E+01
  0
LINE
  8
0
 62
7
 10
1.82796008E+02
 20
-6.53592851E+01
 11
1.82796008E+02
 21
-7.23592852E+01
  0
LINE
  8
0
 62
7
 10
1.81710294E+02
 20
-6.63592851E+01
 11
1.81710294E+02
 21
-7.29307138E+01
  0
LINE
  8
0
 62
7
 10
1.82796008E+02
 20
-7.23592852E+01
 11
1.81710294E+02
 21
-7.29307138E+01
  0
LINE
  8
0
 62
7
 10
1.91253151E+02
 20
-7.23592852E+01
 11
1.90281722E+02
 21
-7.29307138E+01
  0
LINE
  8
0
 62
7
 10
1.90281722E+02
 20
-6.63592851E+01
 11
1.91253151E+02
 21
-6.53592851E+01
  0
LINE
  8
0
 62
7
 10
1.97010294E+02
 20
-6.53592851E+01
 11
1.97310294E+02
 21
-6.63592851E+01
  0
LINE
  8
0
 62
7
 10
1.97010294E+02
 20
-7.23592852E+01
 11
1.97310294E+02
 21
-7.29307138E+01
  0
LINE
  8
0
 62
7
 10
1.81710294E+02
 20
-6.63592851E+01
 11
1.82796008E+02
 21
-6.53592851E+01
  0
LINE
  8
0
 62
7
 10
1.72810293E+02
 20
-1.31559286E+02
 11
2.29810294E+02
 21
-1.31559286E+02
  0
LINE
  8
0
 62
7
 10
1.72810293E+02
 20
-1.31559286E+02
 11
1.72810293E+02
 21
-1.40559286E+02
  0
LINE
  8
0
 62
7
 10
1.73810293E+02
 20
-1.41559286E+02
 11
2.28810294E+02
 21
-1.41559286E+02
  0
LINE
  8
0
 62
7
 10
1.72810293E+02
 20
-1.40559286E+02
 11
1.73810293E+02
 21
-1.41559286E+02
  0
LINE
  8
0
 62
7
 10
1.72810293E+02
 20
-1.40559286E+02
 11
1.73024579E+02
 21
-1.40559286E+02
  0
LINE
  8
0
 62
7
 10
1.97810294E+02
 20
-1.40559286E+02
 11
2.04810294E+02
 21
-1.40559286E+02
  0
LINE
  8
0
 62
7
 10
1.90196008E+02
 20
-1.33559286E+02
 11
1.97810294E+02
 21
-1.33559286E+02
  0
LINE
  8
0
 62
7
 10
1.90953151E+02
 20
-1.34559286E+02
 11
1.97524580E+02
 21
-1.34559286E+02
  0
LINE
  8
0
 62
7
 10
1.97810294E+02
 20
-1.33559286E+02
 11
1.97810294E+02
 21
-1.40559286E+02
  0
LINE
  8
0
 62
7
 10
1.97524580E+02
 20
-1.34559286E+02
 11
1.97524580E+02
 21
-1.41559286E+02
  0
LINE
  8
0
 62
7
 10
1.90196008E+02
 20
-1.33559286E+02
 11
1.90196008E+02
 21
-1.40559286E+02
  0
LINE
  8
0
 62
7
 10
1.90953151E+02
 20
-1.34559286E+02
 11
1.90953151E+02
 21
-1.41559286E+02
  0
LINE
  8
0
 62
7
 10
1.84124579E+02
 20
-1.34559286E+02
 11
1.84124579E+02
 21
-1.41559286E+02
  0
LINE
  8
0
 62
7
 10
1.84410294E+02
 20
-1.33559286E+02
 11
1.84410294E+02
 21
-1.40559286E+02
  0
LINE
  8
0
 62
7
 10
1.84410294E+02
 20
-1.40559286E+02
 11
1.90196008E+02
 21
-1.40559286E+02
  0
LINE
  8
0
 62
7
 10
1.78553151E+02
 20
-1.33559286E+02
 11
1.78553151E+02
 21
-1.40559286E+02
  0
LINE
  8
0
 62
7
 10
1.79610294E+02
 20
-1.34559286E+02
 11
1.79610294E+02
 21
-1.41559286E+02
  0
LINE
  8
0
 62
7
 10
1.78553151E+02
 20
-1.33559286E+02
 11
1.84410294E+02
 21
-1.33559286E+02
  0
LINE
  8
0
 62
7
 10
1.79610294E+02
 20
-1.34559286E+02
 11
1.84124579E+02
 21
-1.34559286E+02
  0
LINE
  8
0
 62
7
 10
1.75053151E+02
 20
-1.33559286E+02
 11
1.75053151E+02
 21
-1.40559286E+02
  0
LINE
  8
0
 62
7
 10
1.73024579E+02
 20
-1.33559286E+02
 11
1.75053151E+02
 21
-1.33559286E+02
  0
LINE
  8
0
 62
7
 10
1.74067436E+02
 20
-1.34559286E+02
 11
1.75053151E+02
 21
-1.34559286E+02
  0
LINE
  8
0
 62
7
 10
1.75053151E+02
 20
-1.40559286E+02
 11
1.78553151E+02
 21
-1.40559286E+02
  0
LINE
  8
0
 62
7
 10
1.75053151E+02
 20
-1.40559286E+02
 11
1.75824579E+02
 21
-1.41559286E+02
  0
LINE
  8
0
 62
7
 10
1.74067436E+02
 20
-1.34559286E+02
 11
1.74067436E+02
 21
-1.41559286E+02
  0
LINE
  8
0
 62
7
 10
1.73024579E+02
 20
-1.33559286E+02
 11
1.73024579E+02
 21
-1.40559286E+02
  0
LINE
  8
0
 62
7
 10
1.73024579E+02
 20
-1.40559286E+02
 11
1.74067436E+02
 21
-1.41559286E+02
  0
LINE
  8
0
 62
7
 10
1.73024579E+02
 20
-1.33559286E+02
 11
1.74067436E+02
 21
-1.34559286E+02
  0
LINE
  8
0
 62
7
 10
1.78553151E+02
 20
-1.40559286E+02
 11
1.79610294E+02
 21
-1.41559286E+02
  0
LINE
  8
0
 62
7
 10
1.79610294E+02
 20
-1.34559286E+02
 11
1.78553151E+02
 21
-1.33559286E+02
  0
LINE
  8
0
 62
7
 10
1.84138865E+02
 20
-1.34559286E+02
 11
1.84410294E+02
 21
-1.33559286E+02
  0
LINE
  8
0
 62
7
 10
1.84138865E+02
 20
-1.41559286E+02
 11
1.84410294E+02
 21
-1.40559286E+02
  0
LINE
  8
0
 62
7
 10
1.90196008E+02
 20
-1.40559286E+02
 11
1.90953151E+02
 21
-1.41559286E+02
  0
LINE
  8
0
 62
7
 10
1.90196008E+02
 20
-1.33559286E+02
 11
1.90953151E+02
 21
-1.34559286E+02
  0
LINE
  8
0
 62
7
 10
1.97524580E+02
 20
-1.34559286E+02
 11
1.97810294E+02
 21
-1.33559286E+02
  0
LINE
  8
0
 62
7
 10
1.97810294E+02
 20
-1.40559286E+02
 11
1.97524580E+02
 21
-1.41559286E+02
  0
LINE
  8
0
 62
2
 10
1.79810294E+02
 20
-1.28359286E+02
 11
1.79810294E+02
 21
-1.31559286E+02
  0
LINE
  8
0
 62
7
 10
-9.77611403E+01
 20
-7.78449996E+01
 11
-4.77611394E+01
 21
-7.78449996E+01
  0
LINE
  8
0
 62
7
 10
-9.18039973E+01
 20
-1.41559286E+02
 11
-9.15039973E+01
 21
-1.49159287E+02
  0
LINE
  8
0
 62
7
 10
-7.86897114E+01
 20
-1.41559286E+02
 11
-7.86897114E+01
 21
-1.49730715E+02
  0
LINE
  8
0
 62
7
 10
-8.45182829E+01
 20
-1.41559286E+02
 11
-8.45182829E+01
 21
-1.48730715E+02
  0
LINE
  8
0
 62
7
 10
-9.52611402E+01
 20
-1.28359286E+02
 11
-9.52611402E+01
 21
-1.31559286E+02
  0
LINE
  8
0
 62
7
 10
-9.27611402E+01
 20
-7.53592853E+01
 11
-5.27611395E+01
 21
-7.53592853E+01
  0
LINE
  8
0
 62
7
 10
-9.62611402E+01
 20
-7.63592853E+01
 11
-4.92611394E+01
 21
-7.63592853E+01
  0
LINE
  8
0
 62
7
 10
-9.62611402E+01
 20
-1.26359286E+02
 11
-4.92611394E+01
 21
-1.26359286E+02
  0
LINE
  8
0
 62
7
 10
-1.00761140E+02
 20
-1.28359286E+02
 11
-4.47611394E+01
 21
-1.28359286E+02
  0
LINE
  8
0
 62
7
 10
-9.77611403E+01
 20
-7.78592853E+01
 11
-9.77611403E+01
 21
-1.24859286E+02
  0
LINE
  8
0
 62
7
 10
-9.25039973E+01
 20
-7.53592853E+01
 11
-9.25039973E+01
 21
-7.63592853E+01
  0
LINE
  8
0
 62
7
 10
-1.01761140E+02
 20
-1.09359286E+02
 11
-1.01761140E+02
 21
-1.27359286E+02
  0
LINE
  8
0
 62
7
 10
-1.01761140E+02
 20
-1.27359286E+02
 11
-1.00761140E+02
 21
-1.28359286E+02
  0
LINE
  8
0
 62
7
 10
-1.01761140E+02
 20
-1.27359286E+02
 11
-4.37611393E+01
 21
-1.27359286E+02
  0
LINE
  8
0
 62
7
 10
-9.77611403E+01
 20
-1.24859286E+02
 11
-9.62611402E+01
 21
-1.26359286E+02
  0
LINE
  8
0
 62
7
 10
-9.77611403E+01
 20
-7.78592853E+01
 11
-9.62611402E+01
 21
-7.63592853E+01
  0
LINE
  8
0
 62
7
 10
-9.77611403E+01
 20
-1.24859286E+02
 11
-4.77611394E+01
 21
-1.24859286E+02
  0
LINE
  8
0
 62
7
 10
-9.62611402E+01
 20
-1.26359286E+02
 11
-9.62611402E+01
 21
-7.63592853E+01
  0
LINE
  8
0
 62
7
 10
-1.00761140E+02
 20
-1.08359286E+02
 11
-1.00261140E+02
 21
-1.08359286E+02
  0
LINE
  8
0
 62
7
 10
-1.01761140E+02
 20
-1.09359286E+02
 11
-1.00761140E+02
 21
-1.08359286E+02
  0
LINE
  8
0
 62
7
 10
-1.01761140E+02
 20
-1.09359286E+02
 11
-1.00261140E+02
 21
-1.09359286E+02
  0
LINE
  8
0
 62
7
 10
-1.00261140E+02
 20
-9.23592856E+01
 11
-1.00261140E+02
 21
-1.10359286E+02
  0
LINE
  8
0
 62
7
 10
-9.92611403E+01
 20
-9.13592856E+01
 11
-9.77611403E+01
 21
-9.13592856E+01
  0
LINE
  8
0
 62
7
 10
-1.00261140E+02
 20
-9.23592856E+01
 11
-9.92611403E+01
 21
-9.13592856E+01
  0
LINE
  8
0
 62
7
 10
-9.92611403E+01
 20
-9.13592856E+01
 11
-9.92611403E+01
 21
-1.11359286E+02
  0
LINE
  8
0
 62
7
 10
-9.92611403E+01
 20
-1.11359286E+02
 11
-9.77611403E+01
 21
-1.11359286E+02
  0
LINE
  8
0
 62
7
 10
-1.00261140E+02
 20
-1.10359286E+02
 11
-9.92611403E+01
 21
-1.11359286E+02
  0
LINE
  8
0
  6
CENTER
 62
2
 10
-8.17611400E+01
 20
-9.83592857E+01
 11
-6.37611397E+01
 21
-9.83592857E+01
  0
LINE
  8
0
 62
7
 10
-9.17611402E+01
 20
-6.53592851E+01
 11
-5.37611395E+01
 21
-6.53592851E+01
  0
LINE
  8
0
 62
7
 10
-9.27611402E+01
 20
-6.63592851E+01
 11
-9.27611402E+01
 21
-7.53592853E+01
  0
LINE
  8
0
 62
7
 10
-9.27611402E+01
 20
-6.63592851E+01
 11
-9.17611402E+01
 21
-6.53592851E+01
  0
LINE
  8
0
 62
7
 10
-9.12611402E+01
 20
-7.23592852E+01
 11
-8.94325687E+01
 21
-7.23592852E+01
  0
LINE
  8
0
 62
7
 10
-9.23468545E+01
 20
-7.29307138E+01
 11
-8.94325687E+01
 21
-7.29307138E+01
  0
LINE
  8
0
 62
7
 10
-7.67611399E+01
 20
-6.63592851E+01
 11
-7.67611399E+01
 21
-7.29307138E+01
  0
LINE
  8
0
 62
7
 10
-7.70611399E+01
 20
-6.53592851E+01
 11
-7.70611399E+01
 21
-7.23592852E+01
  0
LINE
  8
0
 62
7
 10
-9.27611402E+01
 20
-6.63592851E+01
 11
-9.23468545E+01
 21
-6.63592851E+01
  0
LINE
  8
0
 62
7
 10
-7.67611399E+01
 20
-6.63592851E+01
 11
-6.87611398E+01
 21
-6.63592851E+01
  0
LINE
  8
0
 62
7
 10
-8.28182829E+01
 20
-6.53592851E+01
 11
-8.28182829E+01
 21
-7.23592852E+01
  0
LINE
  8
0
 62
7
 10
-8.28182829E+01
 20
-7.23592852E+01
 11
-7.70611399E+01
 21
-7.23592852E+01
  0
LINE
  8
0
 62
7
 10
-8.37897115E+01
 20
-6.63592851E+01
 11
-8.37897115E+01
 21
-7.29307138E+01
  0
LINE
  8
0
 62
7
 10
-8.37897115E+01
 20
-7.29307138E+01
 11
-7.67611399E+01
 21
-7.29307138E+01
  0
LINE
  8
0
 62
7
 10
-8.94325687E+01
 20
-6.63592851E+01
 11
-8.94325687E+01
 21
-7.29307138E+01
  0
LINE
  8
0
 62
7
 10
-8.94325687E+01
 20
-6.63592851E+01
 11
-8.37897115E+01
 21
-6.63592851E+01
  0
LINE
  8
0
 62
7
 10
-8.94325687E+01
 20
-6.63592851E+01
 11
-8.88754258E+01
 21
-6.53592851E+01
  0
LINE
  8
0
 62
7
 10
-9.12611402E+01
 20
-6.53592851E+01
 11
-9.12611402E+01
 21
-7.23592852E+01
  0
LINE
  8
0
 62
7
 10
-9.23468545E+01
 20
-6.63592851E+01
 11
-9.23468545E+01
 21
-7.29307138E+01
  0
LINE
  8
0
 62
7
 10
-9.12611402E+01
 20
-7.23592852E+01
 11
-9.23468545E+01
 21
-7.29307138E+01
  0
LINE
  8
0
 62
7
 10
-8.28182829E+01
 20
-7.23592852E+01
 11
-8.37897115E+01
 21
-7.29307138E+01
  0
LINE
  8
0
 62
7
 10
-8.37897115E+01
 20
-6.63592851E+01
 11
-8.28182829E+01
 21
-6.53592851E+01
  0
LINE
  8
0
 62
7
 10
-7.70611399E+01
 20
-6.53592851E+01
 11
-7.67611399E+01
 21
-6.63592851E+01
  0
LINE
  8
0
 62
7
 10
-7.70611399E+01
 20
-7.23592852E+01
 11
-7.67611399E+01
 21
-7.29307138E+01
  0
LINE
  8
0
 62
7
 10
-9.23468545E+01
 20
-6.63592851E+01
 11
-9.12611402E+01
 21
-6.53592851E+01
  0
LINE
  8
0
 62
7
 10
-1.01261140E+02
 20
-1.31559286E+02
 11
-4.42611394E+01
 21
-1.31559286E+02
  0
LINE
  8
0
 62
7
 10
-1.01261140E+02
 20
-1.31559286E+02
 11
-1.01261140E+02
 21
-1.40559286E+02
  0
LINE
  8
0
 62
7
 10
-1.00261140E+02
 20
-1.41559286E+02
 11
-4.52611394E+01
 21
-1.41559286E+02
  0
LINE
  8
0
 62
7
 10
-1.01261140E+02
 20
-1.40559286E+02
 11
-1.00261140E+02
 21
-1.41559286E+02
  0
LINE
  8
0
 62
7
 10
-1.01261140E+02
 20
-1.40559286E+02
 11
-1.01032569E+02
 21
-1.40559286E+02
  0
LINE
  8
0
 62
7
 10
-7.62611399E+01
 20
-1.40559286E+02
 11
-6.92611398E+01
 21
-1.40559286E+02
  0
LINE
  8
0
 62
7
 10
-8.38754257E+01
 20
-1.33559286E+02
 11
-7.62611399E+01
 21
-1.33559286E+02
  0
LINE
  8
0
 62
7
 10
-8.31182829E+01
 20
-1.34559286E+02
 11
-7.65468542E+01
 21
-1.34559286E+02
  0
LINE
  8
0
 62
7
 10
-7.62611399E+01
 20
-1.33559286E+02
 11
-7.62611399E+01
 21
-1.40559286E+02
  0
LINE
  8
0
 62
7
 10
-7.65468542E+01
 20
-1.34559286E+02
 11
-7.65468542E+01
 21
-1.41559286E+02
  0
LINE
  8
0
 62
7
 10
-8.38754257E+01
 20
-1.33559286E+02
 11
-8.38754257E+01
 21
-1.40559286E+02
  0
LINE
  8
0
 62
7
 10
-8.31182829E+01
 20
-1.34559286E+02
 11
-8.31182829E+01
 21
-1.41559286E+02
  0
LINE
  8
0
 62
7
 10
-8.99325687E+01
 20
-1.34559286E+02
 11
-8.99325687E+01
 21
-1.41559286E+02
  0
LINE
  8
0
 62
7
 10
-8.96468544E+01
 20
-1.33559286E+02
 11
-8.96468544E+01
 21
-1.40559286E+02
  0
LINE
  8
0
 62
7
 10
-8.96468544E+01
 20
-1.40559286E+02
 11
-8.38754257E+01
 21
-1.40559286E+02
  0
LINE
  8
0
 62
7
 10
-9.55039974E+01
 20
-1.33559286E+02
 11
-9.55039974E+01
 21
-1.40559286E+02
  0
LINE
  8
0
 62
7
 10
-9.44611402E+01
 20
-1.34559286E+02
 11
-9.44611402E+01
 21
-1.41559286E+02
  0
LINE
  8
0
 62
7
 10
-9.55039974E+01
 20
-1.33559286E+02
 11
-8.96468544E+01
 21
-1.33559286E+02
  0
LINE
  8
0
 62
7
 10
-9.44611402E+01
 20
-1.34559286E+02
 11
-8.99325687E+01
 21
-1.34559286E+02
  0
LINE
  8
0
 62
7
 10
-9.90039974E+01
 20
-1.33559286E+02
 11
-9.90039974E+01
 21
-1.40559286E+02
  0
LINE
  8
0
 62
7
 10
-1.01032569E+02
 20
-1.33559286E+02
 11
-9.90039974E+01
 21
-1.33559286E+02
  0
LINE
  8
0
 62
7
 10
-9.99897117E+01
 20
-1.34559286E+02
 11
-9.90039974E+01
 21
-1.34559286E+02
  0
LINE
  8
0
 62
7
 10
-9.90039974E+01
 20
-1.40559286E+02
 11
-9.55039974E+01
 21
-1.40559286E+02
  0
LINE
  8
0
 62
7
 10
-9.90039974E+01
 20
-1.40559286E+02
 11
-9.82325688E+01
 21
-1.41559286E+02
  0
LINE
  8
0
 62
7
 10
-9.99897117E+01
 20
-1.34559286E+02
 11
-9.99897117E+01
 21
-1.41559286E+02
  0
LINE
  8
0
 62
7
 10
-1.01032569E+02
 20
-1.33559286E+02
 11
-1.01032569E+02
 21
-1.40559286E+02
  0
LINE
  8
0
 62
7
 10
-1.01032569E+02
 20
-1.40559286E+02
 11
-9.99897117E+01
 21
-1.41559286E+02
  0
LINE
  8
0
 62
7
 10
-1.01032569E+02
 20
-1.33559286E+02
 11
-9.99897117E+01
 21
-1.34559286E+02
  0
LINE
  8
0
 62
7
 10
-9.55039974E+01
 20
-1.40559286E+02
 11
-9.44611402E+01
 21
-1.41559286E+02
  0
LINE
  8
0
 62
7
 10
-9.44611402E+01
 20
-1.34559286E+02
 11
-9.55039974E+01
 21
-1.33559286E+02
  0
LINE
  8
0
 62
7
 10
-8.99325687E+01
 20
-1.34559286E+02
 11
-8.96468544E+01
 21
-1.33559286E+02
  0
LINE
  8
0
 62
7
 10
-8.99325687E+01
 20
-1.41559286E+02
 11
-8.96468544E+01
 21
-1.40559286E+02
  0
LINE
  8
0
 62
7
 10
-8.38754257E+01
 20
-1.40559286E+02
 11
-8.31182829E+01
 21
-1.41559286E+02
  0
LINE
  8
0
 62
7
 10
-8.38754257E+01
 20
-1.33559286E+02
 11
-8.31182829E+01
 21
-1.34559286E+02
  0
LINE
  8
0
 62
7
 10
-7.65468542E+01
 20
-1.34559286E+02
 11
-7.62611399E+01
 21
-1.33559286E+02
  0
LINE
  8
0
 62
7
 10
-7.62611399E+01
 20
-1.40559286E+02
 11
-7.65468542E+01
 21
-1.41559286E+02
  0
LINE
  8
0
 62
2
 10
-9.42611402E+01
 20
-1.28359286E+02
 11
-9.42611402E+01
 21
-1.31559286E+02
  0
LINE
  8
0
  6
CENTER
 62
2
 10
-2.20475428E+02
 20
-5.73592850E+01
 11
-2.20475428E+02
 21
-1.51002144E+02
  0
LINE
  8
0
 62
7
 10
-7.27611398E+01
 20
-7.53592853E+01
 11
-7.27611398E+01
 21
-7.63592853E+01
  0
LINE
  8
0
 62
7
 10
-2.32232571E+02
 20
-1.41559286E+02
 11
-2.32232571E+02
 21
-1.48730715E+02
  0
LINE
  8
0
 62
7
 10
-2.39518286E+02
 20
-1.41559286E+02
 11
-2.39146857E+02
 21
-1.49145001E+02
  0
LINE
  8
0
 62
7
 10
-2.26389714E+02
 20
-1.41559286E+02
 11
-2.26389714E+02
 21
-1.49730715E+02
  0
LINE
  8
0
 62
7
 10
-2.14546857E+02
 20
-1.41559286E+02
 11
-2.14546857E+02
 21
-1.51645001E+02
  0
LINE
  8
0
 62
7
 10
-2.08704000E+02
 20
-1.41559286E+02
 11
-2.08704000E+02
 21
-1.51787858E+02
  0
LINE
  8
0
 62
7
 10
-2.01418285E+02
 20
-1.41559286E+02
 11
-2.01875428E+02
 21
-1.51630715E+02
  0
LINE
  8
0
 62
7
 10
-1.70475427E+02
 20
-7.78592853E+01
 11
-1.70475427E+02
 21
-1.24859286E+02
  0
LINE
  8
0
 62
7
 10
-2.68975429E+02
 20
-7.63592853E+01
 11
-2.28032571E+02
 21
-7.63592853E+01
  0
LINE
  8
0
 62
7
 10
-2.70475429E+02
 20
-7.78592853E+01
 11
-2.68975429E+02
 21
-7.63592853E+01
  0
LINE
  8
0
 62
7
 10
-1.70475427E+02
 20
-7.78592853E+01
 11
-1.71975428E+02
 21
-7.63592853E+01
  0
LINE
  8
0
 62
7
 10
-2.70475429E+02
 20
-7.78592853E+01
 11
-2.29189714E+02
 21
-7.78592853E+01
  0
LINE
  8
0
 62
7
 10
-2.40218286E+02
 20
-7.53592853E+01
 11
-2.40218286E+02
 21
-7.63592853E+01
  0
LINE
  8
0
 62
7
 10
-2.65475429E+02
 20
-7.53592853E+01
 11
-2.65475429E+02
 21
-7.63592853E+01
  0
LINE
  8
0
 62
7
 10
-2.54475429E+02
 20
-7.53592853E+01
 11
-2.54475429E+02
 21
-7.63592853E+01
  0
LINE
  8
0
 62
7
 10
-2.65475429E+02
 20
-7.53592853E+01
 11
-2.54475429E+02
 21
-7.53592853E+01
  0
LINE
  8
0
 62
7
 10
-2.68975429E+02
 20
-1.26359286E+02
 11
-2.36661143E+02
 21
-1.26359286E+02
  0
LINE
  8
0
 62
7
 10
-2.48475429E+02
 20
-1.28359286E+02
 11
-1.92475428E+02
 21
-1.28359286E+02
  0
LINE
  8
0
 62
7
 10
-2.70475429E+02
 20
-1.24859286E+02
 11
-2.68975429E+02
 21
-1.26359286E+02
  0
LINE
  8
0
 62
7
 10
-1.71975428E+02
 20
-1.26359286E+02
 11
-1.70475427E+02
 21
-1.24859286E+02
  0
LINE
  8
0
 62
7
 10
-2.70475429E+02
 20
-1.24859286E+02
 11
-2.35161143E+02
 21
-1.24859286E+02
  0
LINE
  8
0
 62
7
 10
-2.65475429E+02
 20
-1.27359286E+02
 11
-2.54475429E+02
 21
-1.27359286E+02
  0
LINE
  8
0
 62
7
 10
-2.65475429E+02
 20
-1.27359286E+02
 11
-2.65475429E+02
 21
-1.26359286E+02
  0
LINE
  8
0
 62
7
 10
-2.54475429E+02
 20
-1.27359286E+02
 11
-2.54475429E+02
 21
-1.26359286E+02
  0
LINE
  8
0
 62
7
 10
-2.49475429E+02
 20
-1.26359286E+02
 11
-2.49475429E+02
 21
-1.27359286E+02
  0
LINE
  8
0
 62
7
 10
-2.49475429E+02
 20
-1.27359286E+02
 11
-2.48475429E+02
 21
-1.28359286E+02
  0
LINE
  8
0
 62
7
 10
-1.92475428E+02
 20
-1.28359286E+02
 11
-1.91718285E+02
 21
-1.27602143E+02
  0
LINE
  8
0
 62
7
 10
-2.49475429E+02
 20
-1.27359286E+02
 11
-2.26275428E+02
 21
-1.27359286E+02
  0
LINE
  8
0
 62
7
 10
-2.35161143E+02
 20
-1.24859286E+02
 11
-2.35161143E+02
 21
-1.09359286E+02
  0
LINE
  8
0
 62
7
 10
-2.35161143E+02
 20
-1.24859286E+02
 11
-2.36661143E+02
 21
-1.26359286E+02
  0
LINE
  8
0
 62
7
 10
-2.34161143E+02
 20
-1.08359286E+02
 11
-2.35161143E+02
 21
-1.09359286E+02
  0
LINE
  8
0
 62
7
 10
-2.49475429E+02
 20
-8.63592855E+01
 11
-2.49475429E+02
 21
-1.16359286E+02
  0
LINE
  8
0
 62
7
 10
-2.70475429E+02
 20
-7.78592853E+01
 11
-2.70475429E+02
 21
-1.24859286E+02
  0
LINE
  8
0
 62
7
 10
-2.68975429E+02
 20
-1.26359286E+02
 11
-2.68975429E+02
 21
-7.63592853E+01
  0
LINE
  8
0
 62
7
 10
-2.63475429E+02
 20
-8.63592855E+01
 11
-2.49475429E+02
 21
-8.63592855E+01
  0
LINE
  8
0
 62
7
 10
-2.63475429E+02
 20
-1.16359286E+02
 11
-2.49475429E+02
 21
-1.16359286E+02
  0
LINE
  8
0
 62
7
 10
-2.50346857E+02
 20
-8.69735712E+01
 11
-2.50346857E+02
 21
-1.15745000E+02
  0
LINE
  8
0
 62
7
 10
-2.62589715E+02
 20
-8.69735712E+01
 11
-2.50346857E+02
 21
-8.69735712E+01
  0
LINE
  8
0
 62
7
 10
-2.62589715E+02
 20
-1.15745000E+02
 11
-2.50346857E+02
 21
-1.15745000E+02
  0
LINE
  8
0
 62
7
 10
-2.50346857E+02
 20
-1.15745000E+02
 11
-2.49475429E+02
 21
-1.16359286E+02
  0
LINE
  8
0
 62
7
 10
-2.49475429E+02
 20
-8.63592855E+01
 11
-2.50346857E+02
 21
-8.69735712E+01
  0
LINE
  8
0
 62
7
 10
-2.40475429E+02
 20
-7.53592853E+01
 11
-2.26275428E+02
 21
-7.53592853E+01
  0
LINE
  8
0
 62
7
 10
-2.09446857E+02
 20
-6.63592851E+01
 11
-2.10418285E+02
 21
-6.53592851E+01
  0
LINE
  8
0
 62
7
 10
-2.01961142E+02
 20
-7.23592852E+01
 11
-2.00875428E+02
 21
-7.29307138E+01
  0
LINE
  8
0
 62
7
 10
-2.16475428E+02
 20
-7.29307138E+01
 11
-2.16175428E+02
 21
-7.23592852E+01
  0
LINE
  8
0
 62
7
 10
-2.10418285E+02
 20
-7.23592852E+01
 11
-2.09446857E+02
 21
-7.29307138E+01
  0
LINE
  8
0
 62
7
 10
-2.39475429E+02
 20
-6.53592851E+01
 11
-2.01475428E+02
 21
-6.53592851E+01
  0
LINE
  8
0
 62
7
 10
-2.00475428E+02
 20
-6.63592851E+01
 11
-2.00475428E+02
 21
-7.51021424E+01
  0
LINE
  8
0
 62
7
 10
-2.40475429E+02
 20
-6.63592851E+01
 11
-2.40475429E+02
 21
-7.53592853E+01
  0
LINE
  8
0
 62
7
 10
-2.40475429E+02
 20
-6.63592851E+01
 11
-2.39475429E+02
 21
-6.53592851E+01
  0
LINE
  8
0
 62
7
 10
-2.00475428E+02
 20
-6.63592851E+01
 11
-2.01475428E+02
 21
-6.53592851E+01
  0
LINE
  8
0
 62
7
 10
-2.38975429E+02
 20
-7.23592852E+01
 11
-2.37161143E+02
 21
-7.23592852E+01
  0
LINE
  8
0
 62
7
 10
-2.40061143E+02
 20
-7.29307138E+01
 11
-2.37161143E+02
 21
-7.29307138E+01
  0
LINE
  8
0
 62
7
 10
-2.24475428E+02
 20
-6.63592851E+01
 11
-2.24475428E+02
 21
-7.29307138E+01
  0
LINE
  8
0
 62
7
 10
-2.16475428E+02
 20
-6.63592851E+01
 11
-2.16475428E+02
 21
-7.29307138E+01
  0
LINE
  8
0
 62
7
 10
-2.16175428E+02
 20
-6.53592851E+01
 11
-2.16175428E+02
 21
-7.23592852E+01
  0
LINE
  8
0
 62
7
 10
-2.24761143E+02
 20
-6.53592851E+01
 11
-2.24761143E+02
 21
-7.23592852E+01
  0
LINE
  8
0
 62
7
 10
-2.40475429E+02
 20
-6.63592851E+01
 11
-2.40061143E+02
 21
-6.63592851E+01
  0
LINE
  8
0
 62
7
 10
-2.24475428E+02
 20
-6.63592851E+01
 11
-2.16475428E+02
 21
-6.63592851E+01
  0
LINE
  8
0
 62
7
 10
-2.09446857E+02
 20
-6.63592851E+01
 11
-2.03789714E+02
 21
-6.63592851E+01
  0
LINE
  8
0
 62
7
 10
-2.16175428E+02
 20
-7.23592852E+01
 11
-2.10418285E+02
 21
-7.23592852E+01
  0
LINE
  8
0
 62
7
 10
-2.16475428E+02
 20
-7.29307138E+01
 11
-2.09446857E+02
 21
-7.29307138E+01
  0
LINE
  8
0
 62
7
 10
-2.30518286E+02
 20
-6.53592851E+01
 11
-2.30518286E+02
 21
-7.23592852E+01
  0
LINE
  8
0
 62
7
 10
-2.10418285E+02
 20
-6.53592851E+01
 11
-2.10418285E+02
 21
-7.23592852E+01
  0
LINE
  8
0
 62
7
 10
-2.30518286E+02
 20
-7.23592852E+01
 11
-2.24761143E+02
 21
-7.23592852E+01
  0
LINE
  8
0
 62
7
 10
-2.03789714E+02
 20
-7.23592852E+01
 11
-2.01961142E+02
 21
-7.23592852E+01
  0
LINE
  8
0
 62
7
 10
-2.31504000E+02
 20
-6.63592851E+01
 11
-2.31504000E+02
 21
-7.29307138E+01
  0
LINE
  8
0
 62
7
 10
-2.09446857E+02
 20
-6.63592851E+01
 11
-2.09446857E+02
 21
-7.29307138E+01
  0
LINE
  8
0
 62
7
 10
-2.31504000E+02
 20
-7.29307138E+01
 11
-2.24475428E+02
 21
-7.29307138E+01
  0
LINE
  8
0
 62
7
 10
-2.03789714E+02
 20
-7.29307138E+01
 11
-2.00875428E+02
 21
-7.29307138E+01
  0
LINE
  8
0
 62
7
 10
-2.03789714E+02
 20
-6.63592851E+01
 11
-2.03789714E+02
 21
-7.29307138E+01
  0
LINE
  8
0
 62
7
 10
-2.37161143E+02
 20
-6.63592851E+01
 11
-2.37161143E+02
 21
-7.29307138E+01
  0
LINE
  8
0
 62
7
 10
-2.00875428E+02
 20
-6.63592851E+01
 11
-2.00475428E+02
 21
-6.63592851E+01
  0
LINE
  8
0
 62
7
 10
-2.37161143E+02
 20
-6.63592851E+01
 11
-2.31504000E+02
 21
-6.63592851E+01
  0
LINE
  8
0
 62
7
 10
-2.37161143E+02
 20
-6.63592851E+01
 11
-2.36589714E+02
 21
-6.53592851E+01
  0
LINE
  8
0
 62
7
 10
-2.04346857E+02
 20
-6.53592851E+01
 11
-2.03789714E+02
 21
-6.63592851E+01
  0
LINE
  8
0
 62
7
 10
-2.01961142E+02
 20
-6.53592851E+01
 11
-2.01961142E+02
 21
-7.23592852E+01
  0
LINE
  8
0
 62
7
 10
-2.38975429E+02
 20
-6.53592851E+01
 11
-2.38975429E+02
 21
-7.23592852E+01
  0
LINE
  8
0
 62
7
 10
-2.00875428E+02
 20
-6.63592851E+01
 11
-2.00875428E+02
 21
-7.29307138E+01
  0
LINE
  8
0
 62
7
 10
-2.40061143E+02
 20
-6.63592851E+01
 11
-2.40061143E+02
 21
-7.29307138E+01
  0
LINE
  8
0
 62
7
 10
-2.38975429E+02
 20
-7.23592852E+01
 11
-2.40061143E+02
 21
-7.29307138E+01
  0
LINE
  8
0
 62
7
 10
-2.30518286E+02
 20
-7.23592852E+01
 11
-2.31504000E+02
 21
-7.29307138E+01
  0
LINE
  8
0
 62
7
 10
-2.31504000E+02
 20
-6.63592851E+01
 11
-2.30518286E+02
 21
-6.53592851E+01
  0
LINE
  8
0
 62
7
 10
-2.24761143E+02
 20
-6.53592851E+01
 11
-2.24475428E+02
 21
-6.63592851E+01
  0
LINE
  8
0
 62
7
 10
-2.24761143E+02
 20
-7.23592852E+01
 11
-2.24475428E+02
 21
-7.29307138E+01
  0
LINE
  8
0
 62
7
 10
-2.16475428E+02
 20
-6.63592851E+01
 11
-2.16175428E+02
 21
-6.53592851E+01
  0
LINE
  8
0
 62
7
 10
-2.00875428E+02
 20
-6.63592851E+01
 11
-2.01961142E+02
 21
-6.53592851E+01
  0
LINE
  8
0
 62
7
 10
-2.40061143E+02
 20
-6.63592851E+01
 11
-2.38975429E+02
 21
-6.53592851E+01
  0
LINE
  8
0
 62
7
 10
-2.48975429E+02
 20
-1.31559286E+02
 11
-1.91975428E+02
 21
-1.31559286E+02
  0
LINE
  8
0
 62
7
 10
-2.30961143E+02
 20
-1.31559286E+02
 11
-2.30961143E+02
 21
-1.40559286E+02
  0
LINE
  8
0
 62
7
 10
-2.09975428E+02
 20
-1.31559286E+02
 11
-2.09975428E+02
 21
-1.40559286E+02
  0
LINE
  8
0
 62
2
 10
-2.30961143E+02
 20
-1.31559286E+02
 11
-2.09975428E+02
 21
-1.40559286E+02
  0
LINE
  8
0
 62
2
 10
-2.09975428E+02
 20
-1.31559286E+02
 11
-2.30961143E+02
 21
-1.40559286E+02
  0
LINE
  8
0
 62
7
 10
-2.42975429E+02
 20
-1.28359286E+02
 11
-2.42975429E+02
 21
-1.31559286E+02
  0
LINE
  8
0
 62
2
 10
-2.41975429E+02
 20
-1.28359286E+02
 11
-2.41975429E+02
 21
-1.31559286E+02
  0
LINE
  8
0
 62
2
 10
-1.98975428E+02
 20
-1.28359286E+02
 11
-1.98975428E+02
 21
-1.31559286E+02
  0
LINE
  8
0
 62
7
 10
-1.97975428E+02
 20
-1.28359286E+02
 11
-1.97975428E+02
 21
-1.31559286E+02
  0
LINE
  8
0
 62
7
 10
-1.71975428E+02
 20
-1.26359286E+02
 11
-1.71975428E+02
 21
-7.63592853E+01
  0
LINE
  8
0
 62
7
 10
-2.48975429E+02
 20
-1.40559286E+02
 11
-2.48746857E+02
 21
-1.40559286E+02
  0
LINE
  8
0
 62
7
 10
-2.37646857E+02
 20
-1.34559286E+02
 11
-2.37646857E+02
 21
-1.41559286E+02
  0
LINE
  8
0
 62
7
 10
-2.37361143E+02
 20
-1.33559286E+02
 11
-2.37361143E+02
 21
-1.40559286E+02
  0
LINE
  8
0
 62
7
 10
-2.37361143E+02
 20
-1.40559286E+02
 11
-2.30961143E+02
 21
-1.40559286E+02
  0
LINE
  8
0
 62
7
 10
-2.43218286E+02
 20
-1.33559286E+02
 11
-2.43218286E+02
 21
-1.40559286E+02
  0
LINE
  8
0
 62
7
 10
-2.42175429E+02
 20
-1.34559286E+02
 11
-2.42175429E+02
 21
-1.41559286E+02
  0
LINE
  8
0
 62
7
 10
-2.43218286E+02
 20
-1.33559286E+02
 11
-2.37361143E+02
 21
-1.33559286E+02
  0
LINE
  8
0
 62
7
 10
-2.42175429E+02
 20
-1.34559286E+02
 11
-2.37646857E+02
 21
-1.34559286E+02
  0
LINE
  8
0
 62
7
 10
-2.46718286E+02
 20
-1.33559286E+02
 11
-2.46718286E+02
 21
-1.40559286E+02
  0
LINE
  8
0
 62
7
 10
-2.48746857E+02
 20
-1.33559286E+02
 11
-2.46718286E+02
 21
-1.33559286E+02
  0
LINE
  8
0
 62
7
 10
-2.47704000E+02
 20
-1.34559286E+02
 11
-2.46718286E+02
 21
-1.34559286E+02
  0
LINE
  8
0
 62
7
 10
-2.46718286E+02
 20
-1.40559286E+02
 11
-2.43218286E+02
 21
-1.40559286E+02
  0
LINE
  8
0
 62
7
 10
-2.46718286E+02
 20
-1.40559286E+02
 11
-2.45946857E+02
 21
-1.41559286E+02
  0
LINE
  8
0
 62
7
 10
-2.47704000E+02
 20
-1.34559286E+02
 11
-2.47704000E+02
 21
-1.41559286E+02
  0
LINE
  8
0
 62
7
 10
-2.48761143E+02
 20
-1.33559286E+02
 11
-2.48761143E+02
 21
-1.40559286E+02
  0
LINE
  8
0
 62
7
 10
-2.48761143E+02
 20
-1.40559286E+02
 11
-2.47704000E+02
 21
-1.41559286E+02
  0
LINE
  8
0
 62
7
 10
-2.48746857E+02
 20
-1.33559286E+02
 11
-2.47704000E+02
 21
-1.34559286E+02
  0
LINE
  8
0
 62
7
 10
-2.43218286E+02
 20
-1.40559286E+02
 11
-2.42175429E+02
 21
-1.41559286E+02
  0
LINE
  8
0
 62
7
 10
-2.42175429E+02
 20
-1.34559286E+02
 11
-2.43218286E+02
 21
-1.33559286E+02
  0
LINE
  8
0
 62
7
 10
-2.37646857E+02
 20
-1.34559286E+02
 11
-2.37361143E+02
 21
-1.33559286E+02
  0
LINE
  8
0
 62
7
 10
-2.37646857E+02
 20
-1.41559286E+02
 11
-2.37361143E+02
 21
-1.40559286E+02
  0
LINE
  8
0
 62
7
 10
-2.34161143E+02
 20
-1.08359286E+02
 11
-2.29718286E+02
 21
-1.08359286E+02
  0
LINE
  8
0
 62
7
 10
-2.35161143E+02
 20
-1.09359286E+02
 11
-2.29718286E+02
 21
-1.09359286E+02
  0
LINE
  8
0
 62
7
 10
-1.78918285E+02
 20
-7.63592853E+01
 11
-1.71975428E+02
 21
-7.63592853E+01
  0
LINE
  8
0
 62
7
 10
-1.77746856E+02
 20
-7.78592853E+01
 11
-1.70475427E+02
 21
-7.78592853E+01
  0
LINE
  8
0
 62
7
 10
-1.78918285E+02
 20
-1.26359286E+02
 11
-1.71975428E+02
 21
-1.26359286E+02
  0
LINE
  8
0
 62
7
 10
-1.77746856E+02
 20
-1.24859286E+02
 11
-1.70475427E+02
 21
-1.24859286E+02
  0
LINE
  8
0
 62
7
 10
-2.63475429E+02
 20
-8.63592855E+01
 11
-2.62589715E+02
 21
-8.69592855E+01
  0
LINE
  8
0
 62
7
 10
-2.62589715E+02
 20
-8.69735712E+01
 11
-2.62589715E+02
 21
-1.15745000E+02
  0
LINE
  8
0
 62
7
 10
-2.63475429E+02
 20
-8.63592855E+01
 11
-2.63475429E+02
 21
-1.16359286E+02
  0
LINE
  8
0
 62
7
 10
-2.62589715E+02
 20
-1.15745000E+02
 11
-2.63475429E+02
 21
-1.16359286E+02
  0
LINE
  8
0
 62
7
 10
-2.48975429E+02
 20
-1.31559286E+02
 11
-2.48975429E+02
 21
-1.40559286E+02
  0
LINE
  8
0
 62
7
 10
-2.48975429E+02
 20
-1.40559286E+02
 11
-2.47975429E+02
 21
-1.41559286E+02
  0
LINE
  8
0
 62
7
 10
-2.47975429E+02
 20
-1.41559286E+02
 11
-1.92975428E+02
 21
-1.41559286E+02
  0
LINE
  8
0
 62
7
 10
-1.91975428E+02
 20
-1.40559286E+02
 11
-1.92189714E+02
 21
-1.40559286E+02
  0
LINE
  8
0
 62
7
 10
-2.03289714E+02
 20
-1.34559286E+02
 11
-2.03289714E+02
 21
-1.41559286E+02
  0
LINE
  8
0
 62
7
 10
-2.03575428E+02
 20
-1.33559286E+02
 11
-2.03575428E+02
 21
-1.40559286E+02
  0
LINE
  8
0
 62
7
 10
-2.03575428E+02
 20
-1.40559286E+02
 11
-2.09975428E+02
 21
-1.40559286E+02
  0
LINE
  8
0
 62
7
 10
-1.97718285E+02
 20
-1.33559286E+02
 11
-1.97718285E+02
 21
-1.40559286E+02
  0
LINE
  8
0
 62
7
 10
-1.98775428E+02
 20
-1.34559286E+02
 11
-1.98775428E+02
 21
-1.41559286E+02
  0
LINE
  8
0
 62
7
 10
-1.97718285E+02
 20
-1.33559286E+02
 11
-2.03575428E+02
 21
-1.33559286E+02
  0
LINE
  8
0
 62
7
 10
-1.98775428E+02
 20
-1.34559286E+02
 11
-2.03289714E+02
 21
-1.34559286E+02
  0
LINE
  8
0
 62
7
 10
-1.94218285E+02
 20
-1.33559286E+02
 11
-1.94218285E+02
 21
-1.40559286E+02
  0
LINE
  8
0
 62
7
 10
-1.92189714E+02
 20
-1.33559286E+02
 11
-1.94218285E+02
 21
-1.33559286E+02
  0
LINE
  8
0
 62
7
 10
-1.93232571E+02
 20
-1.34559286E+02
 11
-1.94218285E+02
 21
-1.34559286E+02
  0
LINE
  8
0
 62
7
 10
-1.94218285E+02
 20
-1.40559286E+02
 11
-1.97718285E+02
 21
-1.40559286E+02
  0
LINE
  8
0
 62
7
 10
-1.94218285E+02
 20
-1.40559286E+02
 11
-1.94989714E+02
 21
-1.41559286E+02
  0
LINE
  8
0
 62
7
 10
-1.93232571E+02
 20
-1.34559286E+02
 11
-1.93232571E+02
 21
-1.41559286E+02
  0
LINE
  8
0
 62
7
 10
-1.92189714E+02
 20
-1.33559286E+02
 11
-1.92189714E+02
 21
-1.40559286E+02
  0
LINE
  8
0
 62
7
 10
-1.92189714E+02
 20
-1.40559286E+02
 11
-1.93232571E+02
 21
-1.41559286E+02
  0
LINE
  8
0
 62
7
 10
-1.92189714E+02
 20
-1.33559286E+02
 11
-1.93232571E+02
 21
-1.34559286E+02
  0
LINE
  8
0
 62
7
 10
-1.97718285E+02
 20
-1.40559286E+02
 11
-1.98775428E+02
 21
-1.41559286E+02
  0
LINE
  8
0
 62
7
 10
-1.98775428E+02
 20
-1.34559286E+02
 11
-1.97718285E+02
 21
-1.33559286E+02
  0
LINE
  8
0
 62
7
 10
-2.03289714E+02
 20
-1.34559286E+02
 11
-2.03575428E+02
 21
-1.33559286E+02
  0
LINE
  8
0
 62
7
 10
-2.03289714E+02
 20
-1.41559286E+02
 11
-2.03575428E+02
 21
-1.40559286E+02
  0
LINE
  8
0
 62
7
 10
-1.91975428E+02
 20
-1.31559286E+02
 11
-1.91975428E+02
 21
-1.40559286E+02
  0
LINE
  8
0
 62
7
 10
-1.91975428E+02
 20
-1.40559286E+02
 11
-1.92975428E+02
 21
-1.41559286E+02
  0
LINE
  8
0
 62
7
 10
-5.37182824E+01
 20
-1.41559286E+02
 11
-5.41182824E+01
 21
-1.51630715E+02
  0
LINE
  8
0
 62
7
 10
-6.68468540E+01
 20
-1.41559286E+02
 11
-6.68468540E+01
 21
-1.51645001E+02
  0
LINE
  8
0
 62
7
 10
-6.10039968E+01
 20
-1.41559286E+02
 11
-6.10039968E+01
 21
-1.51787858E+02
  0
LINE
  8
0
 62
7
 10
-5.02611395E+01
 20
-1.28359286E+02
 11
-5.02611395E+01
 21
-1.31559286E+02
  0
LINE
  8
0
 62
7
 10
-4.77611394E+01
 20
-7.78592853E+01
 11
-4.77611394E+01
 21
-1.24859286E+02
  0
LINE
  8
0
 62
7
 10
-5.30182824E+01
 20
-7.53592853E+01
 11
-5.30182824E+01
 21
-7.63592853E+01
  0
LINE
  8
0
 62
7
 10
-4.37611393E+01
 20
-1.09359286E+02
 11
-4.37611393E+01
 21
-1.27359286E+02
  0
LINE
  8
0
 62
7
 10
-4.37611393E+01
 20
-1.27359286E+02
 11
-4.47611394E+01
 21
-1.28359286E+02
  0
LINE
  8
0
 62
7
 10
-4.77611394E+01
 20
-1.24859286E+02
 11
-4.92611394E+01
 21
-1.26359286E+02
  0
LINE
  8
0
 62
7
 10
-4.77611394E+01
 20
-7.78592853E+01
 11
-4.92611394E+01
 21
-7.63592853E+01
  0
LINE
  8
0
 62
7
 10
-4.92611394E+01
 20
-1.26359286E+02
 11
-4.92611394E+01
 21
-7.63592853E+01
  0
LINE
  8
0
 62
7
 10
-4.47611394E+01
 20
-1.08359286E+02
 11
-4.52611394E+01
 21
-1.08359286E+02
  0
LINE
  8
0
 62
7
 10
-4.37611393E+01
 20
-1.09359286E+02
 11
-4.47611394E+01
 21
-1.08359286E+02
  0
LINE
  8
0
 62
7
 10
-4.37611393E+01
 20
-1.09359286E+02
 11
-4.52611394E+01
 21
-1.09359286E+02
  0
LINE
  8
0
 62
2
 10
-5.12611395E+01
 20
-1.28359286E+02
 11
-5.12611395E+01
 21
-1.31559286E+02
  0
LINE
  8
0
 62
7
 10
-4.62611394E+01
 20
-9.13592856E+01
 11
-4.77611394E+01
 21
-9.13592856E+01
  0
LINE
  8
0
 62
7
 10
-4.52611394E+01
 20
-9.23592856E+01
 11
-4.62611394E+01
 21
-9.13592856E+01
  0
LINE
  8
0
 62
7
 10
-4.62611394E+01
 20
-9.13592856E+01
 11
-4.62611394E+01
 21
-1.11359286E+02
  0
LINE
  8
0
 62
7
 10
-4.62611394E+01
 20
-1.11359286E+02
 11
-4.77611394E+01
 21
-1.11359286E+02
  0
LINE
  8
0
 62
7
 10
-4.52611394E+01
 20
-1.10359286E+02
 11
-4.62611394E+01
 21
-1.11359286E+02
  0
LINE
  8
0
 62
7
 10
-5.27611395E+01
 20
-6.63592851E+01
 11
-5.27611395E+01
 21
-7.53592853E+01
  0
LINE
  8
0
 62
7
 10
-5.27611395E+01
 20
-6.63592851E+01
 11
-5.37611395E+01
 21
-6.53592851E+01
  0
LINE
  8
0
 62
7
 10
-5.42611395E+01
 20
-7.23592852E+01
 11
-5.60897110E+01
 21
-7.23592852E+01
  0
LINE
  8
0
 62
7
 10
-5.31754252E+01
 20
-7.29307138E+01
 11
-5.60897110E+01
 21
-7.29307138E+01
  0
LINE
  8
0
 62
7
 10
-6.87611398E+01
 20
-6.63592851E+01
 11
-6.87611398E+01
 21
-7.29307138E+01
  0
LINE
  8
0
 62
7
 10
-6.84754255E+01
 20
-6.53592851E+01
 11
-6.84754255E+01
 21
-7.23592852E+01
  0
LINE
  8
0
 62
7
 10
-5.27611395E+01
 20
-6.63592851E+01
 11
-5.31754252E+01
 21
-6.63592851E+01
  0
LINE
  8
0
 62
7
 10
-6.27182825E+01
 20
-6.53592851E+01
 11
-6.27182825E+01
 21
-7.23592852E+01
  0
LINE
  8
0
 62
7
 10
-6.27182825E+01
 20
-7.23592852E+01
 11
-6.84754255E+01
 21
-7.23592852E+01
  0
LINE
  8
0
 62
7
 10
-6.17325682E+01
 20
-6.63592851E+01
 11
-6.17325682E+01
 21
-7.29307138E+01
  0
LINE
  8
0
 62
7
 10
-6.17325682E+01
 20
-7.29307138E+01
 11
-6.87611398E+01
 21
-7.29307138E+01
  0
LINE
  8
0
 62
7
 10
-5.60897110E+01
 20
-6.63592851E+01
 11
-5.60897110E+01
 21
-7.29307138E+01
  0
LINE
  8
0
 62
7
 10
-5.60897110E+01
 20
-6.63592851E+01
 11
-6.17325682E+01
 21
-6.63592851E+01
  0
LINE
  8
0
 62
7
 10
-5.60897110E+01
 20
-6.63592851E+01
 11
-5.66468539E+01
 21
-6.53592851E+01
  0
LINE
  8
0
 62
7
 10
-5.42611395E+01
 20
-6.53592851E+01
 11
-5.42611395E+01
 21
-7.23592852E+01
  0
LINE
  8
0
 62
7
 10
-5.31754252E+01
 20
-6.63592851E+01
 11
-5.31754252E+01
 21
-7.29307138E+01
  0
LINE
  8
0
 62
7
 10
-5.42611395E+01
 20
-7.23592852E+01
 11
-5.31754252E+01
 21
-7.29307138E+01
  0
LINE
  8
0
 62
7
 10
-6.27182825E+01
 20
-7.23592852E+01
 11
-6.17325682E+01
 21
-7.29307138E+01
  0
LINE
  8
0
 62
7
 10
-6.17325682E+01
 20
-6.63592851E+01
 11
-6.27182825E+01
 21
-6.53592851E+01
  0
LINE
  8
0
 62
7
 10
-6.84754255E+01
 20
-6.53592851E+01
 11
-6.87611398E+01
 21
-6.63592851E+01
  0
LINE
  8
0
 62
7
 10
-6.84754255E+01
 20
-7.23592852E+01
 11
-6.87611398E+01
 21
-7.29307138E+01
  0
LINE
  8
0
 62
7
 10
-5.31754252E+01
 20
-6.63592851E+01
 11
-5.42611395E+01
 21
-6.53592851E+01
  0
LINE
  8
0
 62
7
 10
-4.42611394E+01
 20
-1.31559286E+02
 11
-4.42611394E+01
 21
-1.40559286E+02
  0
LINE
  8
0
 62
7
 10
-4.42611394E+01
 20
-1.40559286E+02
 11
-4.52611394E+01
 21
-1.41559286E+02
  0
LINE
  8
0
 62
7
 10
-4.42611394E+01
 20
-1.40559286E+02
 11
-4.44897108E+01
 21
-1.40559286E+02
  0
LINE
  8
0
 62
7
 10
-6.16611397E+01
 20
-1.33559286E+02
 11
-6.92611398E+01
 21
-1.33559286E+02
  0
LINE
  8
0
 62
7
 10
-6.24182825E+01
 20
-1.34559286E+02
 11
-6.89897112E+01
 21
-1.34559286E+02
  0
LINE
  8
0
 62
7
 10
-6.92611398E+01
 20
-1.33559286E+02
 11
-6.92611398E+01
 21
-1.40559286E+02
  0
LINE
  8
0
 62
7
 10
-6.89897112E+01
 20
-1.34559286E+02
 11
-6.89897112E+01
 21
-1.41559286E+02
  0
LINE
  8
0
 62
7
 10
-6.16611397E+01
 20
-1.33559286E+02
 11
-6.16611397E+01
 21
-1.40559286E+02
  0
LINE
  8
0
 62
7
 10
-6.24182825E+01
 20
-1.34559286E+02
 11
-6.24182825E+01
 21
-1.41559286E+02
  0
LINE
  8
0
 62
7
 10
-5.55897110E+01
 20
-1.34559286E+02
 11
-5.55897110E+01
 21
-1.41559286E+02
  0
LINE
  8
0
 62
7
 10
-5.58754253E+01
 20
-1.33559286E+02
 11
-5.58754253E+01
 21
-1.40559286E+02
  0
LINE
  8
0
 62
7
 10
-5.58754253E+01
 20
-1.40559286E+02
 11
-6.16611397E+01
 21
-1.40559286E+02
  0
LINE
  8
0
 62
7
 10
-5.00182823E+01
 20
-1.33559286E+02
 11
-5.00182823E+01
 21
-1.40559286E+02
  0
LINE
  8
0
 62
7
 10
-5.10611395E+01
 20
-1.34559286E+02
 11
-5.10611395E+01
 21
-1.41559286E+02
  0
LINE
  8
0
 62
7
 10
-5.00182823E+01
 20
-1.33559286E+02
 11
-5.58754253E+01
 21
-1.33559286E+02
  0
LINE
  8
0
 62
7
 10
-5.10611395E+01
 20
-1.34559286E+02
 11
-5.55897110E+01
 21
-1.34559286E+02
  0
LINE
  8
0
 62
7
 10
-4.65182823E+01
 20
-1.33559286E+02
 11
-4.65182823E+01
 21
-1.40559286E+02
  0
LINE
  8
0
 62
7
 10
-4.44897108E+01
 20
-1.33559286E+02
 11
-4.65182823E+01
 21
-1.33559286E+02
  0
LINE
  8
0
 62
7
 10
-4.55325680E+01
 20
-1.34559286E+02
 11
-4.65182823E+01
 21
-1.34559286E+02
  0
LINE
  8
0
 62
7
 10
-4.65182823E+01
 20
-1.40559286E+02
 11
-5.00182823E+01
 21
-1.40559286E+02
  0
LINE
  8
0
 62
7
 10
-4.65182823E+01
 20
-1.40559286E+02
 11
-4.72897108E+01
 21
-1.41559286E+02
  0
LINE
  8
0
 62
7
 10
-4.55325680E+01
 20
-1.34559286E+02
 11
-4.55325680E+01
 21
-1.41559286E+02
  0
LINE
  8
0
 62
7
 10
-4.44897108E+01
 20
-1.33559286E+02
 11
-4.44897108E+01
 21
-1.40559286E+02
  0
LINE
  8
0
 62
7
 10
-4.44897108E+01
 20
-1.40559286E+02
 11
-4.55325680E+01
 21
-1.41559286E+02
  0
LINE
  8
0
 62
7
 10
-4.44897108E+01
 20
-1.33559286E+02
 11
-4.55325680E+01
 21
-1.34559286E+02
  0
LINE
  8
0
 62
7
 10
-5.00182823E+01
 20
-1.40559286E+02
 11
-5.10611395E+01
 21
-1.41559286E+02
  0
LINE
  8
0
 62
7
 10
-5.10611395E+01
 20
-1.34559286E+02
 11
-5.00182823E+01
 21
-1.33559286E+02
  0
LINE
  8
0
 62
7
 10
-5.55897110E+01
 20
-1.34559286E+02
 11
-5.58754253E+01
 21
-1.33559286E+02
  0
LINE
  8
0
 62
7
 10
-5.55897110E+01
 20
-1.41559286E+02
 11
-5.58754253E+01
 21
-1.40559286E+02
  0
LINE
  8
0
 62
7
 10
-6.16611397E+01
 20
-1.40559286E+02
 11
-6.24182825E+01
 21
-1.41559286E+02
  0
LINE
  8
0
 62
7
 10
-6.16611397E+01
 20
-1.33559286E+02
 11
-6.24182825E+01
 21
-1.34559286E+02
  0
LINE
  8
0
 62
7
 10
-6.89897112E+01
 20
-1.34559286E+02
 11
-6.92611398E+01
 21
-1.33559286E+02
  0
LINE
  8
0
 62
7
 10
-6.92611398E+01
 20
-1.40559286E+02
 11
-6.89897112E+01
 21
-1.41559286E+02
  0
LINE
  8
0
 62
7
 10
-4.52611394E+01
 20
-9.23592856E+01
 11
-4.52611394E+01
 21
-1.10359286E+02
  0
LINE
  8
0
 62
7
 10
-7.71039971E+01
 20
-9.28592856E+01
 11
-6.84325683E+01
 21
-9.28592856E+01
  0
LINE
  8
0
 62
7
 10
-7.71039971E+01
 20
-1.03859286E+02
 11
-6.84325683E+01
 21
-1.03859286E+02
  0
LINE
  8
0
 62
7
 10
1.96967437E+02
 20
-1.03859286E+02
 11
2.05638865E+02
 21
-1.03859286E+02
  0
LINE
  8
0
 62
7
 10
1.96967437E+02
 20
-9.28592856E+01
 11
2.05638865E+02
 21
-9.28592856E+01
  0
ARC
  8
0
 62
7
 10
6.60888627E+01
 20
-8.60584166E+01
 40
5.55017555E+01
 50
2.59102388E+02
 51
2.80897612E+02
  0
CIRCLE
  8
0
 62
7
 10
2.01310346E+02
 20
-1.01359212E+02
 40
2.10000001E+01
  0
ARC
  8
0
 62
7
 10
2.01310346E+02
 20
-9.83592857E+01
 40
7.00791440E+00
 50
1.28295324E+02
 51
2.31704676E+02
  0
CIRCLE
  8
0
 62
7
 10
2.01310346E+02
 20
-1.01359277E+02
 40
1.20585008E+01
  0
CIRCLE
  8
0
 62
2
 10
2.01310346E+02
 20
-1.01359277E+02
 40
1.32204998E+01
  0
ARC
  8
0
 62
7
 10
-7.27611704E+01
 20
-9.83592857E+01
 40
7.00786307E+00
 50
1.28294792E+02
 51
2.31705208E+02
  0
CIRCLE
  8
0
 62
2
 10
-7.27611704E+01
 20
-1.01359277E+02
 40
1.32204998E+01
  0
CIRCLE
  8
0
 62
7
 10
-7.27611704E+01
 20
-1.01359277E+02
 40
1.20585008E+01
  0
CIRCLE
  8
0
 62
7
 10
-7.27611704E+01
 20
-1.01359212E+02
 40
2.10000001E+01
  0
ARC
  8
0
 62
7
 10
-2.20468285E+02
 20
-8.60584166E+01
 40
5.55017555E+01
 50
2.59102388E+02
 51
2.80897612E+02
  0
ARC
  8
0
 62
7
 10
-7.27611704E+01
 20
-9.83592857E+01
 40
6.99905683E+00
 50
3.08203401E+02
 51
5.17965986E+01
  0
ARC
  8
0
 62
7
 10
2.01310346E+02
 20
-9.83592857E+01
 40
6.99900560E+00
 50
3.08202869E+02
 51
5.17971315E+01
  0
LINE
  8
0
  6
CENTER
 62
2
 10
6.60960055E+01
 20
-5.87993015E+01
 11
6.60960055E+01
 21
-1.51004435E+02
  0
LINE
  8
0
 62
7
 10
8.58531487E+01
 20
-7.53592853E+01
 11
8.58531487E+01
 21
-7.63592853E+01
  0
LINE
  8
0
 62
7
 10
1.16096006E+02
 20
-1.24859286E+02
 11
8.07960058E+01
 21
-1.24859286E+02
  0
LINE
  8
0
 62
7
 10
8.07960058E+01
 20
-1.24859286E+02
 11
8.07960058E+01
 21
-1.22485552E+02
  0
LINE
  8
0
 62
7
 10
8.07960058E+01
 20
-1.24859286E+02
 11
8.22960058E+01
 21
-1.26359286E+02
  0
LINE
  8
0
 62
7
 10
-4.42911398E+01
 20
-1.07969338E+02
 11
-4.35911398E+01
 21
-1.06759338E+02
  0
LINE
  8
0
 62
7
 10
-4.52611398E+01
 20
-1.07939338E+02
 11
-4.42911398E+01
 21
-1.07969338E+02
  0
LINE
  8
0
 62
2
 10
-4.52611398E+01
 20
-1.07089338E+02
 11
-4.38111398E+01
 21
-1.07129338E+02
  0
LINE
  8
0
 62
7
 10
-4.42911398E+01
 20
-9.47593376E+01
 11
-4.35911398E+01
 21
-9.59693376E+01
  0
LINE
  8
0
 62
7
 10
-4.52611398E+01
 20
-9.47893376E+01
 11
-4.42911398E+01
 21
-9.47593376E+01
  0
LINE
  8
0
 62
2
 10
-4.52611398E+01
 20
-9.56393376E+01
 11
-4.38111398E+01
 21
-9.55993376E+01
  0
LINE
  8
0
 62
7
 10
-4.42911398E+01
 20
-9.47593376E+01
 11
-4.42911398E+01
 21
-1.07969338E+02
  0
LINE
  8
0
 62
7
 10
-4.35911398E+01
 20
-9.59693376E+01
 11
-4.35911398E+01
 21
-1.06759338E+02
  0
LINE
  8
0
 62
7
 10
2.82099854E+02
 20
1.95500000E+02
 11
2.82099854E+02
 21
-1.95000000E+02
  0
LINE
  8
0
 62
7
 10
-2.81250000E+02
 20
1.95500000E+02
 11
2.82099854E+02
 21
1.95500000E+02
  0
LINE
  8
0
 62
7
 10
-2.81250000E+02
 20
1.95500000E+02
 11
-2.81250000E+02
 21
-1.95000000E+02
  0
LINE
  8
0
 62
7
 10
-2.81250000E+02
 20
-1.95000000E+02
 11
2.82099854E+02
 21
-1.95000000E+02
  0
LINE
  8
0
 62
7
 10
1.62099976E+02
 20
-1.75000000E+02
 11
1.62099976E+02
 21
-1.95000000E+02
  0
LINE
  8
0
 62
7
 10
1.62099976E+02
 20
-1.75000000E+02
 11
2.82099854E+02
 21
-1.75000000E+02
  0
TEXT
  8
0
 62
7
 10
1.69885289E+02
 20
-1.89500000E+02
 40
9.00000000E+00
  1
KOGANEI CORP.
 41
1.04838710E+00
  7
MONOTXT
  0
TEXT
  8
0
 62
7
 10
-2.67600562E+02
 20
1.57350000E+02
 40
6.30000019E+00
  1
MODEL:RN650-06
 41
1.00000000E+00
  7
MONOTXT
  0
ENDSEC
  0
EOF
