  0
SECTION
  2
HEADER
  9
$ACADVER
  1
AC1003
  9
$EXTMIN
 10
-3.99250000E+02
 20
-2.76750000E+02
  9
$EXTMAX
 10
3.99799805E+02
 20
2.76250000E+02
  9
$LIMMIN
 10
-3.99251000E+02
 20
-2.76751000E+02
  9
$LIMMAX
 10
3.99800805E+02
 20
2.76251000E+02
  9
$SNAPUNIT
 10
1
 20
1
  9
$SNAPBASE
 10
0
 20
0
  9
$GRIDMODE
 70
0
  9
$GRIDUNIT
 10
0
 20
0
  9
$LTSCALE
 40
1.33174967E+01
  9
$TEXTSIZE
 40
3.2
  9
$DIMTAD
 70
0
  9
$LUNITS
 70
2
  9
$LUPREC
 70
4
  9
$FILLETRAD
 40
0
  9
$AUNITS
 70
0
  9
$AUPREC
 70
0
  0
ENDSEC
  0
SECTION
  2
TABLES
  0
TABLE
  2
LTYPE
 70
2
  0
LTYPE
  2
CONTINUOUS
 70
64
  3
Solid-Line
 72
65
 73
0
 40
0
  0
LTYPE
  2
DASHED
 70
64
  3
DASHED
 72
65
 73
2
 40
.75
 49
.5
 49
-.25
  0
LTYPE
  2
HIDDEN
 70
64
  3
HIDDEN
 72
65
 73
2
 40
.375
 49
.25
 49
-.125
  0
LTYPE
  2
CENTER
 70
64
  3
CENTER
 72
65
 73
4
 40
2
 49
1.25
 49
-.25
 49
.25
 49
-.25
  0
LTYPE
  2
PHANTOM
 70
64
  3
PHANTOM
 72
65
 73
6
 40
2.5
 49
1.25
 49
-.25
 49
.25
 49
-.25
 49
.25
 49
-.25
  0
ENDTAB
  0
TABLE
  2
LAYER
 70
1
  0
LAYER
  2
0
 70
0
 62
3
  6
CONTINUOUS
 0
ENDTAB
  0
TABLE
  2
STYLE
 70
2
  0
STYLE
  2
MONOTXT
 70
0
 40
0
 41
1
 50
0
 71
0
 42
.2
  3
monotxt
  0
STYLE
  2
BIGFONT
 70
0
 40
0
 41
1
 50
0
 71
0
 42
.2
  3
txt
  4
bigfont
  0
ENDTAB
  0
ENDSEC
  0
SECTION
  2
ENTITIES
  0
LINE
  8
0
  6
CENTER
 62
2
 10
-2.75978030E+02
 20
1.48474681E+02
 11
-3.85978032E+02
 21
1.48474681E+02
  0
LINE
  8
0
 62
4
 10
-3.30978031E+02
 20
1.44974681E+02
 11
-3.27935174E+02
 21
1.46717538E+02
  0
LINE
  8
0
 62
4
 10
-3.34006603E+02
 20
1.50217538E+02
 11
-3.30978031E+02
 21
1.51974681E+02
  0
LINE
  8
0
 62
4
 10
-3.34006603E+02
 20
1.46717538E+02
 11
-3.30978031E+02
 21
1.44974681E+02
  0
LINE
  8
0
 62
4
 10
-3.34006603E+02
 20
1.50217538E+02
 11
-3.34006603E+02
 21
1.46717538E+02
  0
CIRCLE
  8
0
 62
4
 10
-3.30965536E+02
 20
1.48474655E+02
 40
5.36606389E+00
  0
CIRCLE
  8
0
 62
4
 10
-3.30965536E+02
 20
1.48474655E+02
 40
6.57850004E+00
  0
CIRCLE
  8
0
 62
4
 10
-3.30965536E+02
 20
1.48474655E+02
 40
3.49999979E+00
  0
LINE
  8
0
 62
4
 10
-3.27935174E+02
 20
1.50217538E+02
 11
-3.27935174E+02
 21
1.46717538E+02
  0
LINE
  8
0
 62
4
 10
-3.30978031E+02
 20
1.51974681E+02
 11
-3.27935174E+02
 21
1.50217538E+02
  0
LINE
  8
0
 62
7
 10
-3.53349460E+02
 20
9.31746798E+01
 11
-3.52878032E+02
 21
8.24746796E+01
  0
LINE
  8
0
 62
7
 10
-3.48720889E+02
 20
3.24746788E+01
 11
-3.13220888E+02
 21
3.24746788E+01
  0
LINE
  8
0
 62
7
 10
-3.13578031E+02
 20
3.53603931E+01
 11
-3.12278031E+02
 21
7.24746795E+01
  0
LINE
  8
0
 62
7
 10
-3.49663746E+02
 20
7.24746795E+01
 11
-3.48363746E+02
 21
3.53603931E+01
  0
LINE
  8
0
 62
7
 10
-3.54863746E+02
 20
8.24746796E+01
 11
-3.07078031E+02
 21
8.24746796E+01
  0
LINE
  8
0
 62
7
 10
-3.55020889E+02
 20
7.24746795E+01
 11
-3.54778032E+02
 21
7.23318223E+01
  0
LINE
  8
0
 62
7
 10
-3.54778032E+02
 20
7.23318223E+01
 11
-3.53878032E+02
 21
4.64746790E+01
  0
LINE
  8
0
 62
6
 10
-3.73978032E+02
 20
1.09174680E+02
 11
-3.73978032E+02
 21
8.41746797E+01
  0
LINE
  8
0
 62
6
 10
-3.68978032E+02
 20
7.91746796E+01
 11
-3.55249460E+02
 21
7.91746796E+01
  0
LINE
  8
0
 62
6
 10
-3.68978032E+02
 20
7.91746796E+01
 11
-3.73978032E+02
 21
8.41746797E+01
  0
LINE
  8
0
  6
CENTER
 62
6
 10
-3.68720889E+02
 20
8.91746797E+01
 11
-3.53220889E+02
 21
8.91746797E+01
  0
LINE
  8
0
 62
6
 10
-3.63478032E+02
 20
9.34175370E+01
 11
-3.58478032E+02
 21
9.34175370E+01
  0
LINE
  8
0
 62
6
 10
-3.63478032E+02
 20
8.49175368E+01
 11
-3.58478032E+02
 21
8.49175368E+01
  0
LINE
  8
0
  6
CENTER
 62
6
 10
-3.58478032E+02
 20
9.44175370E+01
 11
-3.58478032E+02
 21
8.39175368E+01
  0
LINE
  8
0
 62
6
 10
-2.87978030E+02
 20
1.09174680E+02
 11
-2.87978030E+02
 21
8.41746797E+01
  0
LINE
  8
0
 62
6
 10
-2.92978031E+02
 20
7.91746796E+01
 11
-3.06692317E+02
 21
7.91746796E+01
  0
LINE
  8
0
 62
6
 10
-2.92978031E+02
 20
7.91746796E+01
 11
-2.87978030E+02
 21
8.41746797E+01
  0
LINE
  8
0
  6
CENTER
 62
6
 10
-2.93220888E+02
 20
8.91746797E+01
 11
-3.08720888E+02
 21
8.91746797E+01
  0
LINE
  8
0
 62
6
 10
-2.98478031E+02
 20
9.34175370E+01
 11
-3.03478031E+02
 21
9.34175370E+01
  0
LINE
  8
0
 62
6
 10
-2.98478031E+02
 20
8.49175368E+01
 11
-3.03478031E+02
 21
8.49175368E+01
  0
LINE
  8
0
  6
CENTER
 62
6
 10
-3.00978031E+02
 20
9.44175370E+01
 11
-3.00978031E+02
 21
8.39175368E+01
  0
LINE
  8
0
 62
7
 10
-3.54863746E+02
 20
8.24746796E+01
 11
-3.55349460E+02
 21
8.19889653E+01
  0
LINE
  8
0
 62
7
 10
-3.07078031E+02
 20
8.24746796E+01
 11
-3.06592317E+02
 21
8.19889653E+01
  0
LINE
  8
0
 62
6
 10
-3.73978032E+02
 20
1.09174680E+02
 11
-3.61978032E+02
 21
1.09174680E+02
  0
LINE
  8
0
 62
6
 10
-3.73978032E+02
 20
1.05974680E+02
 11
-3.60978032E+02
 21
1.05974680E+02
  0
LINE
  8
0
 62
6
 10
-2.87978030E+02
 20
1.09174680E+02
 11
-2.99978031E+02
 21
1.09174680E+02
  0
LINE
  8
0
 62
6
 10
-2.87978030E+02
 20
1.05974680E+02
 11
-3.00978031E+02
 21
1.05974680E+02
  0
LINE
  8
0
 62
7
 10
-3.08592317E+02
 20
9.31746798E+01
 11
-3.09063745E+02
 21
8.24746796E+01
  0
LINE
  8
0
 62
7
 10
-3.15706602E+02
 20
8.24746796E+01
 11
-3.15478031E+02
 21
9.31746798E+01
  0
LINE
  8
0
 62
7
 10
-3.46478031E+02
 20
9.31746798E+01
 11
-3.46235174E+02
 21
8.24746796E+01
  0
LINE
  8
0
 62
7
 10
-3.26978031E+02
 20
7.24746795E+01
 11
-3.26978031E+02
 21
3.53603931E+01
  0
LINE
  8
0
 62
7
 10
-3.34978031E+02
 20
7.24746795E+01
 11
-3.34978031E+02
 21
3.53603931E+01
  0
LINE
  8
0
 62
7
 10
-3.34978031E+02
 20
3.53603931E+01
 11
-3.26978031E+02
 21
3.53603931E+01
  0
LINE
  8
0
 62
7
 10
-3.26978031E+02
 20
7.24746795E+01
 11
-3.12278031E+02
 21
7.24746795E+01
  0
LINE
  8
0
 62
7
 10
-3.36449460E+02
 20
4.26746789E+01
 11
-3.36449460E+02
 21
3.24746788E+01
  0
LINE
  8
0
 62
7
 10
-3.25492317E+02
 20
4.26746789E+01
 11
-3.25492317E+02
 21
3.24746788E+01
  0
LINE
  8
0
 62
7
 10
-3.26978031E+02
 20
3.53603931E+01
 11
-3.25492317E+02
 21
3.24746788E+01
  0
LINE
  8
0
 62
7
 10
-3.34978031E+02
 20
3.53603931E+01
 11
-3.36449460E+02
 21
3.24746788E+01
  0
LINE
  8
0
 62
7
 10
-3.13578031E+02
 20
3.53603931E+01
 11
-3.19092317E+02
 21
3.24746788E+01
  0
LINE
  8
0
 62
7
 10
-3.34978031E+02
 20
7.24746795E+01
 11
-3.49663746E+02
 21
7.24746795E+01
  0
LINE
  8
0
 62
7
 10
-3.34978031E+02
 20
4.64746790E+01
 11
-3.48749460E+02
 21
4.64746790E+01
  0
LINE
  8
0
 62
7
 10
-3.36449460E+02
 20
4.26746789E+01
 11
-3.43620889E+02
 21
4.26746789E+01
  0
LINE
  8
0
 62
7
 10
-3.48363746E+02
 20
3.53603931E+01
 11
-3.42849460E+02
 21
3.24746788E+01
  0
LINE
  8
0
 62
7
 10
-3.48363746E+02
 20
3.53603931E+01
 11
-3.53220889E+02
 21
3.53603931E+01
  0
LINE
  8
0
 62
7
 10
-3.26978031E+02
 20
4.64746790E+01
 11
-3.25492317E+02
 21
4.26746789E+01
  0
LINE
  8
0
 62
7
 10
-3.34978031E+02
 20
4.64746790E+01
 11
-3.36449460E+02
 21
4.26746789E+01
  0
LINE
  8
0
 62
7
 10
-3.55349460E+02
 20
8.19889653E+01
 11
-3.55020889E+02
 21
7.24746795E+01
  0
LINE
  8
0
 62
7
 10
-3.43620889E+02
 20
4.26746789E+01
 11
-3.42849460E+02
 21
3.24746788E+01
  0
LINE
  8
0
 62
7
 10
-3.48749460E+02
 20
4.64746790E+01
 11
-3.43620889E+02
 21
4.26746789E+01
  0
LINE
  8
0
 62
7
 10
-3.25492317E+02
 20
4.26746789E+01
 11
-3.18320888E+02
 21
4.26746789E+01
  0
LINE
  8
0
 62
7
 10
-3.26978031E+02
 20
4.64746790E+01
 11
-3.13192317E+02
 21
4.64746790E+01
  0
LINE
  8
0
 62
7
 10
-3.13192317E+02
 20
4.64746790E+01
 11
-3.18320888E+02
 21
4.26746789E+01
  0
LINE
  8
0
 62
7
 10
-3.18320888E+02
 20
4.26746789E+01
 11
-3.19092317E+02
 21
3.24746788E+01
  0
LINE
  8
0
 62
7
 10
-3.53606603E+02
 20
4.64746790E+01
 11
-3.53220889E+02
 21
3.53746788E+01
  0
LINE
  8
0
 62
7
 10
-3.53878032E+02
 20
4.64746790E+01
 11
-3.53606603E+02
 21
4.64746790E+01
  0
LINE
  8
0
 62
7
 10
-3.48720889E+02
 20
3.24746788E+01
 11
-3.53220889E+02
 21
3.53603931E+01
  0
LINE
  8
0
 62
7
 10
-3.06592317E+02
 20
8.19889653E+01
 11
-3.06920888E+02
 21
7.24746795E+01
  0
LINE
  8
0
 62
7
 10
-3.07178031E+02
 20
7.23318223E+01
 11
-3.08078031E+02
 21
4.64746790E+01
  0
LINE
  8
0
 62
7
 10
-3.06920888E+02
 20
7.24746795E+01
 11
-3.07178031E+02
 21
7.23318223E+01
  0
LINE
  8
0
 62
7
 10
-3.08078031E+02
 20
4.64746790E+01
 11
-3.08335174E+02
 21
4.64746790E+01
  0
LINE
  8
0
 62
7
 10
-3.08335174E+02
 20
4.64746790E+01
 11
-3.08720888E+02
 21
3.53746788E+01
  0
LINE
  8
0
 62
7
 10
-3.13220888E+02
 20
3.24746788E+01
 11
-3.08720888E+02
 21
3.53603931E+01
  0
LINE
  8
0
  6
CENTER
 62
6
 10
-3.60978032E+02
 20
9.44175370E+01
 11
-3.60978032E+02
 21
8.39175368E+01
  0
LINE
  8
0
  6
CENTER
 62
6
 10
-3.63478032E+02
 20
9.44175370E+01
 11
-3.63478032E+02
 21
8.39175368E+01
  0
LINE
  8
0
  6
CENTER
 62
6
 10
-3.03478031E+02
 20
9.44175370E+01
 11
-3.03478031E+02
 21
8.39175368E+01
  0
LINE
  8
0
  6
CENTER
 62
6
 10
-2.98478031E+02
 20
9.44175370E+01
 11
-2.98478031E+02
 21
8.39175368E+01
  0
LINE
  8
0
 62
7
 10
-3.35478031E+02
 20
9.31746798E+01
 11
-3.35478031E+02
 21
8.24746796E+01
  0
LINE
  8
0
 62
7
 10
-3.26478031E+02
 20
9.31746798E+01
 11
-3.26478031E+02
 21
8.24746796E+01
  0
LINE
  8
0
 62
7
 10
-3.19478031E+02
 20
8.66746797E+01
 11
-3.22978031E+02
 21
8.66746797E+01
  0
LINE
  8
0
 62
7
 10
-3.22978031E+02
 20
8.66746797E+01
 11
-3.22978031E+02
 21
8.24746796E+01
  0
LINE
  8
0
 62
7
 10
-3.38978031E+02
 20
8.66746797E+01
 11
-3.38978031E+02
 21
8.24746796E+01
  0
LINE
  8
0
 62
7
 10
-3.38978031E+02
 20
8.66746797E+01
 11
-3.42478031E+02
 21
8.66746797E+01
  0
LINE
  8
0
 62
7
 10
-3.20978031E+02
 20
8.66746797E+01
 11
-3.20978031E+02
 21
8.24746796E+01
  0
LINE
  8
0
 62
7
 10
-3.19478031E+02
 20
8.66746797E+01
 11
-3.19478031E+02
 21
8.24746796E+01
  0
LINE
  8
0
 62
7
 10
-3.40978031E+02
 20
8.66746797E+01
 11
-3.40978031E+02
 21
8.24746796E+01
  0
LINE
  8
0
 62
7
 10
-3.42478031E+02
 20
8.66746797E+01
 11
-3.42478031E+02
 21
8.24746796E+01
  0
LINE
  8
0
 62
7
 10
-3.06978031E+02
 20
1.07174680E+02
 11
-3.54978032E+02
 21
1.07174680E+02
  0
LINE
  8
0
 62
7
 10
-3.06978031E+02
 20
9.31746798E+01
 11
-3.54978032E+02
 21
9.31746798E+01
  0
LINE
  8
0
 62
7
 10
-3.54978032E+02
 20
9.51746798E+01
 11
-3.06978031E+02
 21
9.51746798E+01
  0
LINE
  8
0
 62
6
 10
-3.57220889E+02
 20
1.09174680E+02
 11
-3.57220889E+02
 21
1.05974680E+02
  0
LINE
  8
0
 62
7
 10
-3.01506602E+02
 20
9.69746799E+01
 11
-3.60449460E+02
 21
9.69746799E+01
  0
LINE
  8
0
 62
7
 10
-3.60978032E+02
 20
1.05974680E+02
 11
-3.60978032E+02
 21
1.04974680E+02
  0
LINE
  8
0
 62
7
 10
-3.00978031E+02
 20
1.05974680E+02
 11
-3.00978031E+02
 21
1.04974680E+02
  0
LINE
  8
0
 62
7
 10
-3.63449460E+02
 20
1.04974680E+02
 11
-2.98506602E+02
 21
1.04974680E+02
  0
LINE
  8
0
 62
7
 10
-3.00978031E+02
 20
1.05974680E+02
 11
-3.60978032E+02
 21
1.05974680E+02
  0
LINE
  8
0
 62
7
 10
-3.30978031E+02
 20
1.04974680E+02
 11
-3.30978031E+02
 21
9.87032513E+01
  0
LINE
  8
0
 62
7
 10
-3.63449460E+02
 20
9.87032513E+01
 11
-2.98506602E+02
 21
9.87032513E+01
  0
LINE
  8
0
 62
7
 10
-3.06978031E+02
 20
1.09174680E+02
 11
-3.06978031E+02
 21
1.05974680E+02
  0
LINE
  8
0
 62
7
 10
-3.54978032E+02
 20
1.09174680E+02
 11
-3.54978032E+02
 21
1.05974680E+02
  0
LINE
  8
0
 62
7
 10
-3.54978032E+02
 20
9.69746799E+01
 11
-3.54978032E+02
 21
9.31746798E+01
  0
LINE
  8
0
 62
7
 10
-3.06978031E+02
 20
9.69746799E+01
 11
-3.06978031E+02
 21
9.31746798E+01
  0
LINE
  8
0
 62
7
 10
-3.53935174E+02
 20
1.04974680E+02
 11
-3.53935174E+02
 21
9.87032513E+01
  0
LINE
  8
0
 62
7
 10
-3.08006602E+02
 20
1.04974680E+02
 11
-3.08006602E+02
 21
9.87032513E+01
  0
LINE
  8
0
 62
7
 10
-2.99978031E+02
 20
1.09174680E+02
 11
-3.61978032E+02
 21
1.09174680E+02
  0
LINE
  8
0
 62
7
 10
-2.85978030E+02
 20
1.68474681E+02
 11
-2.85978030E+02
 21
1.28474680E+02
  0
LINE
  8
0
 62
7
 10
-3.75978032E+02
 20
1.68474681E+02
 11
-3.75978032E+02
 21
1.28474680E+02
  0
LINE
  8
0
 62
7
 10
-3.63978032E+02
 20
1.23174680E+02
 11
-2.97978031E+02
 21
1.23174680E+02
  0
LINE
  8
0
 62
7
 10
-2.99978031E+02
 20
1.89474681E+02
 11
-3.61978032E+02
 21
1.89474681E+02
  0
LINE
  8
0
 62
7
 10
-3.63978032E+02
 20
1.87474681E+02
 11
-3.63978032E+02
 21
1.63474681E+02
  0
LINE
  8
0
 62
7
 10
-2.97978031E+02
 20
1.87474681E+02
 11
-2.97978031E+02
 21
1.63474681E+02
  0
LINE
  8
0
 62
7
 10
-2.97978031E+02
 20
1.23174680E+02
 11
-2.97978031E+02
 21
1.11174680E+02
  0
LINE
  8
0
 62
7
 10
-3.63978032E+02
 20
1.23174680E+02
 11
-3.63978032E+02
 21
1.11174680E+02
  0
LINE
  8
0
 62
7
 10
-3.63220889E+02
 20
1.16174680E+02
 11
-3.53978032E+02
 21
1.16174680E+02
  0
LINE
  8
0
 62
7
 10
-3.53978032E+02
 20
1.16174680E+02
 11
-3.53978032E+02
 21
1.11174680E+02
  0
LINE
  8
0
  6
CENTER
 62
2
 10
-3.58978032E+02
 20
1.17174680E+02
 11
-3.58978032E+02
 21
1.08174680E+02
  0
LINE
  8
0
 62
7
 10
-3.63220889E+02
 20
1.82474681E+02
 11
-3.53978032E+02
 21
1.82474681E+02
  0
LINE
  8
0
  6
CENTER
 62
2
 10
-3.58978032E+02
 20
1.81474681E+02
 11
-3.58978032E+02
 21
1.90474681E+02
  0
LINE
  8
0
 62
7
 10
-3.53978032E+02
 20
1.82474681E+02
 11
-3.53978032E+02
 21
1.87474681E+02
  0
LINE
  8
0
  6
CENTER
 62
2
 10
-3.30978031E+02
 20
1.94474682E+02
 11
-3.30978031E+02
 21
2.94746787E+01
  0
LINE
  8
0
 62
7
 10
-3.07978031E+02
 20
1.16174680E+02
 11
-3.07978031E+02
 21
1.11174680E+02
  0
LINE
  8
0
 62
7
 10
-2.98720888E+02
 20
1.16174680E+02
 11
-3.07978031E+02
 21
1.16174680E+02
  0
LINE
  8
0
  6
CENTER
 62
2
 10
-3.02978031E+02
 20
1.17174680E+02
 11
-3.02978031E+02
 21
1.08174680E+02
  0
LINE
  8
0
 62
7
 10
-2.98720888E+02
 20
1.82474681E+02
 11
-3.07978031E+02
 21
1.82474681E+02
  0
LINE
  8
0
  6
CENTER
 62
2
 10
-3.02978031E+02
 20
1.81474681E+02
 11
-3.02978031E+02
 21
1.90474681E+02
  0
LINE
  8
0
 62
7
 10
-3.07978031E+02
 20
1.82474681E+02
 11
-3.07978031E+02
 21
1.87474681E+02
  0
LINE
  8
0
 62
7
 10
-3.70978032E+02
 20
1.73474681E+02
 11
-2.90978031E+02
 21
1.73474681E+02
  0
LINE
  8
0
 62
7
 10
-3.70978032E+02
 20
1.23474680E+02
 11
-2.90978031E+02
 21
1.23474680E+02
  0
LINE
  8
0
 62
7
 10
-3.62978032E+02
 20
1.23474680E+02
 11
-3.62978032E+02
 21
1.23174680E+02
  0
LINE
  8
0
 62
7
 10
-2.98978031E+02
 20
1.23474680E+02
 11
-2.98978031E+02
 21
1.23174680E+02
  0
LINE
  8
0
 62
4
 10
-2.85978030E+02
 20
1.33474680E+02
 11
-3.75978032E+02
 21
1.33474680E+02
  0
LINE
  8
0
 62
4
 10
-2.85978030E+02
 20
1.63474681E+02
 11
-3.75978032E+02
 21
1.63474681E+02
  0
LINE
  8
0
 62
7
 10
-3.63978032E+02
 20
1.33474680E+02
 11
-3.63978032E+02
 21
1.23474680E+02
  0
LINE
  8
0
 62
7
 10
-2.97978031E+02
 20
1.33474680E+02
 11
-2.97978031E+02
 21
1.23474680E+02
  0
LINE
  8
0
  6
CENTER
 62
2
 10
-3.05978031E+02
 20
1.55974681E+02
 11
-3.05978031E+02
 21
1.40974681E+02
  0
LINE
  8
0
  6
CENTER
 62
2
 10
-3.55978032E+02
 20
1.55974681E+02
 11
-3.55978032E+02
 21
1.40974681E+02
  0
LINE
  8
0
 62
7
 10
-3.63449460E+02
 20
1.04974680E+02
 11
-3.63449460E+02
 21
9.87032513E+01
  0
LINE
  8
0
 62
7
 10
-3.63449460E+02
 20
9.87032513E+01
 11
-3.60449460E+02
 21
9.69746799E+01
  0
LINE
  8
0
 62
7
 10
-2.98506602E+02
 20
1.04974680E+02
 11
-2.98506602E+02
 21
9.87032513E+01
  0
LINE
  8
0
 62
7
 10
-3.01506602E+02
 20
9.69746799E+01
 11
-2.98506602E+02
 21
9.87032513E+01
  0
LINE
  8
0
 62
6
 10
-3.04720888E+02
 20
1.09174680E+02
 11
-3.04720888E+02
 21
1.05974680E+02
  0
ARC
  8
0
 62
6
 10
-3.63478032E+02
 20
8.91675369E+01
 40
4.25000007E+00
 50
9.00000002E+01
 51
2.70000000E+02
  0
ARC
  8
0
 62
6
 10
-3.58478032E+02
 20
8.91675369E+01
 40
4.25000007E+00
 50
2.70000000E+02
 51
9.00000002E+01
  0
ARC
  8
0
 62
6
 10
-2.98478031E+02
 20
8.91675369E+01
 40
4.25000007E+00
 50
2.70000000E+02
 51
9.00000002E+01
  0
ARC
  8
0
 62
6
 10
-3.03478031E+02
 20
8.91675369E+01
 40
4.25000007E+00
 50
9.00000002E+01
 51
2.70000000E+02
  0
CIRCLE
  8
0
 62
4
 10
-3.05978031E+02
 20
1.48474659E+02
 40
5.49999928E+00
  0
CIRCLE
  8
0
 62
4
 10
-3.55978032E+02
 20
1.48474659E+02
 40
5.49999928E+00
  0
ARC
  8
0
 62
7
 10
-2.90978041E+02
 20
1.68474670E+02
 40
5.00001098E+00
 50
1.24894751E-04
 51
9.00000002E+01
  0
ARC
  8
0
 62
7
 10
-2.90978020E+02
 20
1.28474670E+02
 40
4.99998919E+00
 50
2.70000000E+02
 51
1.24895024E-04
  0
ARC
  8
0
 62
7
 10
-3.70978010E+02
 20
1.68474659E+02
 40
5.00002188E+00
 50
9.00000002E+01
 51
1.79999750E+02
  0
ARC
  8
0
 62
7
 10
-3.70978032E+02
 20
1.28474680E+02
 40
5.00000009E+00
 50
1.80000000E+02
 51
2.70000000E+02
  0
ARC
  8
0
 62
7
 10
-3.61978010E+02
 20
1.87474660E+02
 40
2.00002183E+00
 50
9.00000002E+01
 51
1.79999375E+02
  0
ARC
  8
0
 62
7
 10
-2.99978052E+02
 20
1.87474660E+02
 40
2.00002183E+00
 50
6.24469812E-04
 51
9.00000002E+01
  0
ARC
  8
0
 62
7
 10
-2.99978032E+02
 20
1.11174682E+02
 40
2.00000178E+00
 50
2.70000000E+02
 51
3.59999950E+02
  0
ARC
  8
0
 62
7
 10
-3.61978030E+02
 20
1.11174682E+02
 40
2.00000178E+00
 50
1.80000050E+02
 51
2.70000000E+02
  0
ARC
  8
0
 62
7
 10
-3.61978034E+02
 20
1.18174678E+02
 40
1.99999742E+00
 50
1.79999925E+02
 51
2.70000000E+02
  0
ARC
  8
0
 62
7
 10
-3.51978030E+02
 20
1.11174682E+02
 40
2.00000178E+00
 50
1.80000050E+02
 51
2.70000000E+02
  0
ARC
  8
0
 62
7
 10
-3.61978036E+02
 20
1.80474686E+02
 40
1.99999567E+00
 50
9.00000002E+01
 51
1.80000125E+02
  0
ARC
  8
0
 62
7
 10
-3.51978010E+02
 20
1.87474660E+02
 40
2.00002183E+00
 50
9.00000002E+01
 51
1.79999375E+02
  0
ARC
  8
0
 62
7
 10
-3.09978033E+02
 20
1.11174682E+02
 40
2.00000178E+00
 50
2.70000000E+02
 51
3.59999950E+02
  0
ARC
  8
0
 62
7
 10
-2.99978028E+02
 20
1.18174678E+02
 40
1.99999742E+00
 50
2.70000000E+02
 51
7.49366819E-05
  0
ARC
  8
0
 62
7
 10
-2.99978026E+02
 20
1.80474686E+02
 40
1.99999567E+00
 50
3.59999875E+02
 51
9.00000002E+01
  0
ARC
  8
0
 62
7
 10
-3.09978053E+02
 20
1.87474660E+02
 40
2.00002183E+00
 50
6.24469812E-04
 51
9.00000002E+01
  0
LINE
  8
0
 62
7
 10
-3.54728020E+02
 20
1.11474678E+02
 11
-3.54728019E+02
 21
1.16174678E+02
  0
LINE
  8
0
 62
7
 10
-3.54728020E+02
 20
1.11474678E+02
 11
-3.55248020E+02
 21
1.11174678E+02
  0
LINE
  8
0
 62
7
 10
-3.63228020E+02
 20
1.11474681E+02
 11
-3.54728020E+02
 21
1.11474678E+02
  0
LINE
  8
0
 62
7
 10
-3.62708020E+02
 20
1.11174680E+02
 11
-3.55248020E+02
 21
1.11174678E+02
  0
LINE
  8
0
 62
7
 10
-3.63228020E+02
 20
1.11474681E+02
 11
-3.62708020E+02
 21
1.11174680E+02
  0
LINE
  8
0
 62
7
 10
-3.63228020E+02
 20
1.11474681E+02
 11
-3.63228019E+02
 21
1.16174681E+02
  0
CIRCLE
  8
0
 62
4
 10
-3.55978032E+02
 20
1.48474659E+02
 40
2.89829731E+00
  0
CIRCLE
  8
0
 62
4
 10
-3.55978032E+02
 20
1.48474659E+02
 40
3.96076870E+00
  0
CIRCLE
  8
0
 62
4
 10
-3.55978032E+02
 20
1.48474659E+02
 40
5.00000000E+00
  0
LINE
  8
0
 62
4
 10
-3.58488032E+02
 20
1.47034659E+02
 11
-3.55978032E+02
 21
1.45584659E+02
  0
LINE
  8
0
 62
4
 10
-3.55978032E+02
 20
1.51364659E+02
 11
-3.53468032E+02
 21
1.49914659E+02
  0
LINE
  8
0
 62
4
 10
-3.55978032E+02
 20
1.45584659E+02
 11
-3.53468032E+02
 21
1.47034659E+02
  0
LINE
  8
0
 62
4
 10
-3.58488032E+02
 20
1.49914659E+02
 11
-3.55978032E+02
 21
1.51364659E+02
  0
LINE
  8
0
 62
4
 10
-3.53468032E+02
 20
1.49914659E+02
 11
-3.53468032E+02
 21
1.47034659E+02
  0
LINE
  8
0
 62
4
 10
-3.58488032E+02
 20
1.49914659E+02
 11
-3.58488032E+02
 21
1.47034659E+02
  0
CIRCLE
  8
0
 62
4
 10
-3.05978031E+02
 20
1.48474659E+02
 40
2.89829731E+00
  0
CIRCLE
  8
0
 62
4
 10
-3.05978031E+02
 20
1.48474659E+02
 40
3.96076870E+00
  0
CIRCLE
  8
0
 62
4
 10
-3.05978031E+02
 20
1.48474659E+02
 40
5.00000000E+00
  0
LINE
  8
0
 62
4
 10
-3.08488031E+02
 20
1.47034659E+02
 11
-3.05978031E+02
 21
1.45584659E+02
  0
LINE
  8
0
 62
4
 10
-3.05978031E+02
 20
1.51364659E+02
 11
-3.03468031E+02
 21
1.49914659E+02
  0
LINE
  8
0
 62
4
 10
-3.05978031E+02
 20
1.45584659E+02
 11
-3.03468031E+02
 21
1.47034659E+02
  0
LINE
  8
0
 62
4
 10
-3.08488031E+02
 20
1.49914659E+02
 11
-3.05978031E+02
 21
1.51364659E+02
  0
LINE
  8
0
 62
4
 10
-3.03468031E+02
 20
1.49914659E+02
 11
-3.03468031E+02
 21
1.47034659E+02
  0
LINE
  8
0
 62
4
 10
-3.08488031E+02
 20
1.49914659E+02
 11
-3.08488031E+02
 21
1.47034659E+02
  0
LINE
  8
0
 62
7
 10
-2.98728023E+02
 20
1.11474678E+02
 11
-2.98728022E+02
 21
1.16174678E+02
  0
LINE
  8
0
 62
7
 10
-2.98728023E+02
 20
1.11474678E+02
 11
-2.99248024E+02
 21
1.11174678E+02
  0
LINE
  8
0
 62
7
 10
-3.07228023E+02
 20
1.11474681E+02
 11
-2.98728023E+02
 21
1.11474678E+02
  0
LINE
  8
0
 62
7
 10
-3.06708024E+02
 20
1.11174680E+02
 11
-2.99248024E+02
 21
1.11174678E+02
  0
LINE
  8
0
 62
7
 10
-3.07228023E+02
 20
1.11474681E+02
 11
-3.06708024E+02
 21
1.11174680E+02
  0
LINE
  8
0
 62
7
 10
-3.07228023E+02
 20
1.11474681E+02
 11
-3.07228022E+02
 21
1.16174681E+02
  0
LINE
  8
0
 62
7
 10
-3.06978023E+02
 20
1.87174641E+02
 11
-3.06978022E+02
 21
1.82474641E+02
  0
LINE
  8
0
 62
7
 10
-3.07228023E+02
 20
1.87174641E+02
 11
-3.07228022E+02
 21
1.82474641E+02
  0
LINE
  8
0
 62
7
 10
-3.07228023E+02
 20
1.87174641E+02
 11
-3.06708024E+02
 21
1.87474641E+02
  0
LINE
  8
0
 62
7
 10
-2.98728023E+02
 20
1.87174643E+02
 11
-3.07228023E+02
 21
1.87174641E+02
  0
LINE
  8
0
 62
7
 10
-2.99248024E+02
 20
1.87474643E+02
 11
-3.06708024E+02
 21
1.87474641E+02
  0
LINE
  8
0
 62
7
 10
-2.98728023E+02
 20
1.87174643E+02
 11
-2.99248024E+02
 21
1.87474643E+02
  0
LINE
  8
0
 62
7
 10
-2.98728023E+02
 20
1.87174643E+02
 11
-2.98728022E+02
 21
1.82474643E+02
  0
LINE
  8
0
 62
7
 10
-3.63228020E+02
 20
1.87174641E+02
 11
-3.63228019E+02
 21
1.82474641E+02
  0
LINE
  8
0
 62
7
 10
-3.63228020E+02
 20
1.87174641E+02
 11
-3.62708020E+02
 21
1.87474641E+02
  0
LINE
  8
0
 62
7
 10
-3.54728020E+02
 20
1.87174643E+02
 11
-3.63228020E+02
 21
1.87174641E+02
  0
LINE
  8
0
 62
7
 10
-3.55248020E+02
 20
1.87474643E+02
 11
-3.62708020E+02
 21
1.87474641E+02
  0
LINE
  8
0
 62
7
 10
-3.54728020E+02
 20
1.87174643E+02
 11
-3.55248020E+02
 21
1.87474643E+02
  0
LINE
  8
0
 62
7
 10
-3.54728020E+02
 20
1.87174643E+02
 11
-3.54728019E+02
 21
1.82474643E+02
  0
LINE
  8
0
  6
CENTER
 62
2
 10
-1.91449456E+02
 20
1.48474681E+02
 11
-2.71620886E+02
 21
1.48474681E+02
  0
LINE
  8
0
  6
CENTER
 62
6
 10
-1.75720884E+02
 20
8.91746797E+01
 11
-1.65720884E+02
 21
8.91746797E+01
  0
LINE
  8
0
 62
2
 10
-2.39120885E+02
 20
9.69746799E+01
 11
-2.19120885E+02
 21
9.51746798E+01
  0
LINE
  8
0
 62
2
 10
-2.19120885E+02
 20
9.69746799E+01
 11
-2.39120885E+02
 21
9.51746798E+01
  0
LINE
  8
0
 62
2
 10
-2.39120885E+02
 20
1.07174680E+02
 11
-2.19120885E+02
 21
1.05974680E+02
  0
LINE
  8
0
 62
2
 10
-2.19120885E+02
 20
1.07174680E+02
 11
-2.39120885E+02
 21
1.05974680E+02
  0
LINE
  8
0
 62
7
 10
-2.19120885E+02
 20
1.05974680E+02
 11
-2.19120885E+02
 21
1.07174680E+02
  0
LINE
  8
0
 62
7
 10
-2.39120885E+02
 20
1.05974680E+02
 11
-2.39120885E+02
 21
1.07174680E+02
  0
LINE
  8
0
 62
7
 10
-2.19120885E+02
 20
9.51746798E+01
 11
-2.03120885E+02
 21
9.51746798E+01
  0
LINE
  8
0
 62
7
 10
-2.39120885E+02
 20
9.51746798E+01
 11
-2.39120885E+02
 21
9.69746799E+01
  0
LINE
  8
0
 62
7
 10
-2.19120885E+02
 20
9.51746798E+01
 11
-2.19120885E+02
 21
9.69746799E+01
  0
ARC
  8
0
 62
7
 10
-2.29120885E+02
 20
1.19174679E+02
 40
2.59999996E+01
 50
2.47380134E+02
 51
2.92619866E+02
  0
ARC
  8
0
 62
4
 10
-2.60127104E+02
 20
1.61480899E+02
 40
1.99379170E+00
 50
8.98213118E+01
 51
1.80178688E+02
  0
ARC
  8
0
 62
4
 10
-2.51627138E+02
 20
1.35480933E+02
 40
2.00626251E+00
 50
2.70178569E+02
 51
3.59821432E+02
  0
LINE
  8
0
 62
4
 10
-2.49620885E+02
 20
1.61474681E+02
 11
-2.49620885E+02
 21
1.35474681E+02
  0
LINE
  8
0
 62
4
 10
-2.60120886E+02
 20
1.33474680E+02
 11
-2.51620885E+02
 21
1.33474680E+02
  0
LINE
  8
0
 62
4
 10
-2.63106600E+02
 20
1.41917538E+02
 11
-2.62120886E+02
 21
1.41946109E+02
  0
LINE
  8
0
 62
6
 10
-2.63592314E+02
 20
1.42746109E+02
 11
-2.62120886E+02
 21
1.42803252E+02
  0
LINE
  8
0
 62
4
 10
-2.63106600E+02
 20
1.41917538E+02
 11
-2.63792314E+02
 21
1.43103252E+02
  0
LINE
  8
0
  6
DASHED
 62
6
 10
-2.62120886E+02
 20
1.44974681E+02
 11
-2.63792314E+02
 21
1.44974681E+02
  0
LINE
  8
0
  6
DASHED
 62
6
 10
-2.62120886E+02
 20
1.46717538E+02
 11
-2.63792314E+02
 21
1.46717538E+02
  0
ARC
  8
0
 62
4
 10
-2.60127104E+02
 20
1.35468462E+02
 40
1.99379170E+00
 50
1.79821311E+02
 51
2.70178688E+02
  0
LINE
  8
0
  6
DASHED
 62
6
 10
-2.62120886E+02
 20
1.50217538E+02
 11
-2.63792314E+02
 21
1.50217538E+02
  0
LINE
  8
0
  6
DASHED
 62
6
 10
-2.62120886E+02
 20
1.51974681E+02
 11
-2.63792314E+02
 21
1.51974681E+02
  0
LINE
  8
0
 62
6
 10
-2.63592314E+02
 20
1.54188967E+02
 11
-2.62120886E+02
 21
1.54146109E+02
  0
LINE
  8
0
 62
4
 10
-2.63106600E+02
 20
1.55031824E+02
 11
-2.63792314E+02
 21
1.53831824E+02
  0
LINE
  8
0
 62
4
 10
-2.63106600E+02
 20
1.55031824E+02
 11
-2.62120886E+02
 21
1.54988967E+02
  0
LINE
  8
0
 62
4
 10
-2.63792314E+02
 20
1.53831824E+02
 11
-2.63792314E+02
 21
1.43103252E+02
  0
LINE
  8
0
 62
4
 10
-2.63106600E+02
 20
1.55031824E+02
 11
-2.63106600E+02
 21
1.41917538E+02
  0
LINE
  8
0
 62
4
 10
-2.62120886E+02
 20
1.61474681E+02
 11
-2.62120886E+02
 21
1.35474681E+02
  0
LINE
  8
0
 62
4
 10
-2.60120886E+02
 20
1.63474681E+02
 11
-2.51620885E+02
 21
1.63474681E+02
  0
ARC
  8
0
 62
4
 10
-2.51627138E+02
 20
1.61468428E+02
 40
2.00626251E+00
 50
1.78568597E-01
 51
8.98214316E+01
  0
LINE
  8
0
 62
7
 10
-2.62120886E+02
 20
1.87474681E+02
 11
-2.62120886E+02
 21
1.64217538E+02
  0
LINE
  8
0
 62
7
 10
-2.62120886E+02
 20
1.32717538E+02
 11
-2.62120886E+02
 21
1.11174680E+02
  0
LINE
  8
0
 62
2
 10
-2.04192313E+02
 20
1.07174680E+02
 11
-2.04192313E+02
 21
1.05974680E+02
  0
LINE
  8
0
 62
7
 10
-2.03120885E+02
 20
1.07174680E+02
 11
-2.03120885E+02
 21
1.05974680E+02
  0
LINE
  8
0
 62
7
 10
-2.03120885E+02
 20
9.51746798E+01
 11
-2.05120885E+02
 21
9.31746798E+01
  0
LINE
  8
0
 62
7
 10
-2.55120886E+02
 20
1.07174680E+02
 11
-2.55120886E+02
 21
1.05974680E+02
  0
LINE
  8
0
 62
2
 10
-2.54035171E+02
 20
1.07174680E+02
 11
-2.54035171E+02
 21
1.05974680E+02
  0
LINE
  8
0
 62
7
 10
-2.55120886E+02
 20
9.51746798E+01
 11
-2.53120885E+02
 21
9.31746798E+01
  0
LINE
  8
0
 62
7
 10
-2.53120885E+02
 20
9.31746798E+01
 11
-2.05120885E+02
 21
9.31746798E+01
  0
LINE
  8
0
 62
7
 10
-2.03120885E+02
 20
1.07174680E+02
 11
-2.55120886E+02
 21
1.07174680E+02
  0
LINE
  8
0
 62
7
 10
-2.54035171E+02
 20
1.09174680E+02
 11
-2.54035171E+02
 21
1.07174680E+02
  0
LINE
  8
0
 62
7
 10
-2.04192313E+02
 20
1.09174680E+02
 11
-2.04192313E+02
 21
1.07174680E+02
  0
LINE
  8
0
 62
6
 10
-2.60120886E+02
 20
1.05974680E+02
 11
-2.59120886E+02
 21
1.05974680E+02
  0
LINE
  8
0
 62
7
 10
-2.58592314E+02
 20
9.69746799E+01
 11
-1.99649456E+02
 21
9.69746799E+01
  0
LINE
  8
0
 62
6
 10
-2.55363743E+02
 20
1.09174680E+02
 11
-2.55363743E+02
 21
1.05974680E+02
  0
LINE
  8
0
 62
6
 10
-1.73820884E+02
 20
1.09174680E+02
 11
-1.98120885E+02
 21
1.09174680E+02
  0
LINE
  8
0
 62
6
 10
-1.73820884E+02
 20
1.05974680E+02
 11
-1.99120885E+02
 21
1.05974680E+02
  0
LINE
  8
0
 62
6
 10
-2.02863742E+02
 20
1.09174680E+02
 11
-2.02863742E+02
 21
1.05974680E+02
  0
LINE
  8
0
 62
6
 10
-1.69120884E+02
 20
1.04474680E+02
 11
-1.69120884E+02
 21
7.91746796E+01
  0
LINE
  8
0
 62
6
 10
-1.72320884E+02
 20
1.04474680E+02
 11
-1.72320884E+02
 21
7.91746796E+01
  0
LINE
  8
0
 62
6
 10
-1.69120884E+02
 20
7.91746796E+01
 11
-1.72320884E+02
 21
7.91746796E+01
  0
LINE
  8
0
 62
6
 10
-1.69120884E+02
 20
8.41746797E+01
 11
-1.72320884E+02
 21
8.41746797E+01
  0
LINE
  8
0
 62
6
 10
-1.78435170E+02
 20
1.05974680E+02
 11
-1.72320884E+02
 21
9.98461085E+01
  0
LINE
  8
0
 62
6
 10
-2.60120886E+02
 20
1.09174680E+02
 11
-2.60120886E+02
 21
1.05974680E+02
  0
LINE
  8
0
 62
7
 10
-2.54120886E+02
 20
1.68474681E+02
 11
-2.54120886E+02
 21
1.63474681E+02
  0
LINE
  8
0
 62
7
 10
-2.42363742E+02
 20
1.28474680E+02
 11
-2.15863742E+02
 21
1.28474680E+02
  0
LINE
  8
0
 62
7
 10
-2.61620886E+02
 20
1.63717538E+02
 11
-2.54120886E+02
 21
1.63717538E+02
  0
LINE
  8
0
 62
7
 10
-2.61620886E+02
 20
1.33217538E+02
 11
-2.54120886E+02
 21
1.33217538E+02
  0
LINE
  8
0
 62
7
 10
-2.30920885E+02
 20
1.44074681E+02
 11
-2.30920885E+02
 21
1.41703252E+02
  0
LINE
  8
0
 62
7
 10
-2.54120886E+02
 20
1.33474680E+02
 11
-2.54120886E+02
 21
1.28474680E+02
  0
LINE
  8
0
 62
7
 10
-2.44363742E+02
 20
1.23974680E+02
 11
-2.44363742E+02
 21
1.26474680E+02
  0
LINE
  8
0
 62
7
 10
-2.13863742E+02
 20
1.23974680E+02
 11
-2.13863742E+02
 21
1.26474680E+02
  0
LINE
  8
0
 62
7
 10
-1.98120885E+02
 20
1.89474681E+02
 11
-2.60120886E+02
 21
1.89474681E+02
  0
LINE
  8
0
 62
7
 10
-2.60120886E+02
 20
1.09174680E+02
 11
-1.98120885E+02
 21
1.09174680E+02
  0
LINE
  8
0
 62
7
 10
-2.62120886E+02
 20
1.23174680E+02
 11
-1.96120885E+02
 21
1.23174680E+02
  0
LINE
  8
0
 62
7
 10
-2.04120885E+02
 20
1.68474681E+02
 11
-2.04120885E+02
 21
1.63474681E+02
  0
LINE
  8
0
 62
7
 10
-2.42363742E+02
 20
1.68474681E+02
 11
-2.15863742E+02
 21
1.68474681E+02
  0
LINE
  8
0
 62
7
 10
-2.44363742E+02
 20
1.70474681E+02
 11
-2.44363742E+02
 21
1.72974681E+02
  0
LINE
  8
0
 62
7
 10
-2.13863742E+02
 20
1.70474681E+02
 11
-2.13863742E+02
 21
1.72974681E+02
  0
LINE
  8
0
 62
7
 10
-2.62120886E+02
 20
1.73474681E+02
 11
-1.96120885E+02
 21
1.73474681E+02
  0
LINE
  8
0
 62
7
 10
-2.62120886E+02
 20
1.23474680E+02
 11
-1.96120885E+02
 21
1.23474680E+02
  0
LINE
  8
0
 62
7
 10
-2.27320885E+02
 20
1.44074681E+02
 11
-2.27320885E+02
 21
1.41703252E+02
  0
LINE
  8
0
 62
7
 10
-2.08620885E+02
 20
1.61474681E+02
 11
-2.08620885E+02
 21
1.35474681E+02
  0
LINE
  8
0
 62
7
 10
-1.96120885E+02
 20
1.87474681E+02
 11
-1.96120885E+02
 21
1.64217538E+02
  0
LINE
  8
0
 62
7
 10
-1.98120885E+02
 20
1.63474681E+02
 11
-2.06620885E+02
 21
1.63474681E+02
  0
LINE
  8
0
 62
7
 10
-1.98120885E+02
 20
1.33474680E+02
 11
-2.06620885E+02
 21
1.33474680E+02
  0
LINE
  8
0
 62
7
 10
-2.04120885E+02
 20
1.33474680E+02
 11
-2.04120885E+02
 21
1.28474680E+02
  0
LINE
  8
0
 62
7
 10
-2.04120885E+02
 20
1.63717538E+02
 11
-1.96620885E+02
 21
1.63717538E+02
  0
LINE
  8
0
 62
7
 10
-2.04120885E+02
 20
1.33217538E+02
 11
-1.96620885E+02
 21
1.33217538E+02
  0
LINE
  8
0
 62
7
 10
-1.96120885E+02
 20
1.61474681E+02
 11
-1.96120885E+02
 21
1.35474681E+02
  0
LINE
  8
0
 62
7
 10
-1.96120885E+02
 20
1.32717538E+02
 11
-1.96120885E+02
 21
1.11174680E+02
  0
LINE
  8
0
 62
2
 10
-2.54035171E+02
 20
9.69746799E+01
 11
-2.54035171E+02
 21
9.40889655E+01
  0
LINE
  8
0
 62
7
 10
-2.55120886E+02
 20
9.69746799E+01
 11
-2.55120886E+02
 21
9.51746798E+01
  0
LINE
  8
0
 62
7
 10
-2.03120885E+02
 20
9.69746799E+01
 11
-2.03120885E+02
 21
9.51746798E+01
  0
LINE
  8
0
 62
2
 10
-2.04192313E+02
 20
9.69746799E+01
 11
-2.04192313E+02
 21
9.40889655E+01
  0
LINE
  8
0
 62
7
 10
-2.59120886E+02
 20
1.05974680E+02
 11
-2.59120886E+02
 21
1.04974680E+02
  0
LINE
  8
0
 62
7
 10
-2.61592314E+02
 20
1.04974680E+02
 11
-1.96649456E+02
 21
1.04974680E+02
  0
LINE
  8
0
 62
7
 10
-2.59120886E+02
 20
1.05974680E+02
 11
-1.99120885E+02
 21
1.05974680E+02
  0
LINE
  8
0
 62
7
 10
-1.99120885E+02
 20
1.05974680E+02
 11
-1.99120885E+02
 21
1.04974680E+02
  0
LINE
  8
0
 62
7
 10
-2.61592314E+02
 20
9.87032513E+01
 11
-1.96649456E+02
 21
9.87032513E+01
  0
LINE
  8
0
 62
7
 10
-2.29120885E+02
 20
1.04974680E+02
 11
-2.29120885E+02
 21
9.87032513E+01
  0
LINE
  8
0
 62
7
 10
-2.55120886E+02
 20
9.51746798E+01
 11
-2.39120885E+02
 21
9.51746798E+01
  0
LINE
  8
0
  6
CENTER
 62
2
 10
-2.57120886E+02
 20
1.17174680E+02
 11
-2.57120886E+02
 21
1.08174680E+02
  0
LINE
  8
0
 62
7
 10
-2.61363743E+02
 20
1.16174680E+02
 11
-2.52120885E+02
 21
1.16174680E+02
  0
LINE
  8
0
 62
7
 10
-2.52120885E+02
 20
1.16174680E+02
 11
-2.52120885E+02
 21
1.11174680E+02
  0
LINE
  8
0
 62
7
 10
-1.96863742E+02
 20
1.16174680E+02
 11
-2.06120885E+02
 21
1.16174680E+02
  0
LINE
  8
0
 62
7
 10
-2.06120885E+02
 20
1.16174680E+02
 11
-2.06120885E+02
 21
1.11174680E+02
  0
LINE
  8
0
  6
CENTER
 62
2
 10
-2.01120885E+02
 20
1.17174680E+02
 11
-2.01120885E+02
 21
1.08174680E+02
  0
LINE
  8
0
 62
7
 10
-2.61363743E+02
 20
1.82474681E+02
 11
-2.52120885E+02
 21
1.82474681E+02
  0
LINE
  8
0
  6
CENTER
 62
2
 10
-2.57120886E+02
 20
1.81474681E+02
 11
-2.57120886E+02
 21
1.90474681E+02
  0
LINE
  8
0
 62
7
 10
-2.52120885E+02
 20
1.82474681E+02
 11
-2.52120885E+02
 21
1.87474681E+02
  0
LINE
  8
0
 62
7
 10
-2.06120885E+02
 20
1.82474681E+02
 11
-2.06120885E+02
 21
1.87474681E+02
  0
LINE
  8
0
 62
7
 10
-1.96863742E+02
 20
1.82474681E+02
 11
-2.06120885E+02
 21
1.82474681E+02
  0
LINE
  8
0
  6
CENTER
 62
2
 10
-2.01120885E+02
 20
1.81474681E+02
 11
-2.01120885E+02
 21
1.90474681E+02
  0
LINE
  8
0
 62
7
 10
-2.51492314E+02
 20
9.31746798E+01
 11
-2.51020885E+02
 21
8.24746796E+01
  0
LINE
  8
0
 62
7
 10
-2.46863743E+02
 20
3.24746788E+01
 11
-2.11363742E+02
 21
3.24746788E+01
  0
LINE
  8
0
 62
7
 10
-2.11720885E+02
 20
3.53603931E+01
 11
-2.10420885E+02
 21
7.24746795E+01
  0
LINE
  8
0
 62
7
 10
-2.47806600E+02
 20
7.24746795E+01
 11
-2.46506600E+02
 21
3.53603931E+01
  0
LINE
  8
0
 62
7
 10
-2.53006600E+02
 20
8.24746796E+01
 11
-2.05220885E+02
 21
8.24746796E+01
  0
LINE
  8
0
 62
7
 10
-2.53163743E+02
 20
7.24746795E+01
 11
-2.52920885E+02
 21
7.23318223E+01
  0
LINE
  8
0
 62
7
 10
-2.52920885E+02
 20
7.23318223E+01
 11
-2.52020885E+02
 21
4.64746790E+01
  0
LINE
  8
0
 62
7
 10
-2.53006600E+02
 20
8.24746796E+01
 11
-2.53492314E+02
 21
8.19889653E+01
  0
LINE
  8
0
 62
7
 10
-2.05220885E+02
 20
8.24746796E+01
 11
-2.04735170E+02
 21
8.19889653E+01
  0
LINE
  8
0
 62
7
 10
-2.06735170E+02
 20
9.31746798E+01
 11
-2.07206599E+02
 21
8.24746796E+01
  0
LINE
  8
0
 62
7
 10
-2.15349456E+02
 20
8.24746796E+01
 11
-2.15120885E+02
 21
9.31746798E+01
  0
LINE
  8
0
 62
7
 10
-2.43120885E+02
 20
9.31746798E+01
 11
-2.42878028E+02
 21
8.24746796E+01
  0
LINE
  8
0
 62
7
 10
-2.25120885E+02
 20
7.24746795E+01
 11
-2.25120885E+02
 21
3.53603931E+01
  0
LINE
  8
0
 62
7
 10
-2.33120885E+02
 20
7.24746795E+01
 11
-2.33120885E+02
 21
3.53603931E+01
  0
LINE
  8
0
 62
7
 10
-2.33120885E+02
 20
3.53603931E+01
 11
-2.25120885E+02
 21
3.53603931E+01
  0
LINE
  8
0
 62
7
 10
-2.25120885E+02
 20
7.24746795E+01
 11
-2.10420885E+02
 21
7.24746795E+01
  0
LINE
  8
0
 62
7
 10
-2.34592314E+02
 20
4.26746789E+01
 11
-2.34592314E+02
 21
3.24746788E+01
  0
LINE
  8
0
 62
7
 10
-2.23635171E+02
 20
4.26746789E+01
 11
-2.23635171E+02
 21
3.24746788E+01
  0
LINE
  8
0
 62
7
 10
-2.25120885E+02
 20
3.53603931E+01
 11
-2.23635171E+02
 21
3.24746788E+01
  0
LINE
  8
0
 62
7
 10
-2.33120885E+02
 20
3.53603931E+01
 11
-2.34592314E+02
 21
3.24746788E+01
  0
LINE
  8
0
 62
7
 10
-2.11720885E+02
 20
3.53603931E+01
 11
-2.17235171E+02
 21
3.24746788E+01
  0
LINE
  8
0
 62
7
 10
-2.33120885E+02
 20
7.24746795E+01
 11
-2.47806600E+02
 21
7.24746795E+01
  0
LINE
  8
0
 62
7
 10
-2.33120885E+02
 20
4.64746790E+01
 11
-2.46892314E+02
 21
4.64746790E+01
  0
LINE
  8
0
 62
7
 10
-2.34592314E+02
 20
4.26746789E+01
 11
-2.41763742E+02
 21
4.26746789E+01
  0
LINE
  8
0
 62
7
 10
-2.46506600E+02
 20
3.53603931E+01
 11
-2.40992314E+02
 21
3.24746788E+01
  0
LINE
  8
0
 62
7
 10
-2.46506600E+02
 20
3.53603931E+01
 11
-2.51363743E+02
 21
3.53603931E+01
  0
LINE
  8
0
 62
7
 10
-2.11363742E+02
 20
3.24746788E+01
 11
-2.06863742E+02
 21
3.53603931E+01
  0
LINE
  8
0
 62
7
 10
-2.25120885E+02
 20
4.64746790E+01
 11
-2.23635171E+02
 21
4.26746789E+01
  0
LINE
  8
0
 62
7
 10
-2.33120885E+02
 20
4.64746790E+01
 11
-2.34592314E+02
 21
4.26746789E+01
  0
LINE
  8
0
 62
7
 10
-2.53492314E+02
 20
8.19889653E+01
 11
-2.53163743E+02
 21
7.24746795E+01
  0
LINE
  8
0
 62
7
 10
-2.41763742E+02
 20
4.26746789E+01
 11
-2.40992314E+02
 21
3.24746788E+01
  0
LINE
  8
0
 62
7
 10
-2.46892314E+02
 20
4.64746790E+01
 11
-2.41763742E+02
 21
4.26746789E+01
  0
LINE
  8
0
 62
7
 10
-2.23635171E+02
 20
4.26746789E+01
 11
-2.16463742E+02
 21
4.26746789E+01
  0
LINE
  8
0
 62
7
 10
-2.25120885E+02
 20
4.64746790E+01
 11
-2.11335170E+02
 21
4.64746790E+01
  0
LINE
  8
0
 62
7
 10
-2.11335170E+02
 20
4.64746790E+01
 11
-2.16463742E+02
 21
4.26746789E+01
  0
LINE
  8
0
 62
7
 10
-2.16463742E+02
 20
4.26746789E+01
 11
-2.17235171E+02
 21
3.24746788E+01
  0
LINE
  8
0
 62
7
 10
-2.51749457E+02
 20
4.64746790E+01
 11
-2.51363743E+02
 21
3.53746788E+01
  0
LINE
  8
0
 62
7
 10
-2.52020885E+02
 20
4.64746790E+01
 11
-2.51749457E+02
 21
4.64746790E+01
  0
LINE
  8
0
 62
7
 10
-2.46863743E+02
 20
3.24746788E+01
 11
-2.51363743E+02
 21
3.53603931E+01
  0
LINE
  8
0
 62
7
 10
-2.04735170E+02
 20
8.19889653E+01
 11
-2.05063742E+02
 21
7.24746795E+01
  0
LINE
  8
0
 62
7
 10
-2.05320885E+02
 20
7.23318223E+01
 11
-2.06220885E+02
 21
4.64746790E+01
  0
LINE
  8
0
 62
7
 10
-2.05063742E+02
 20
7.24746795E+01
 11
-2.05320885E+02
 21
7.23318223E+01
  0
LINE
  8
0
 62
7
 10
-2.06220885E+02
 20
4.64746790E+01
 11
-2.06478028E+02
 21
4.64746790E+01
  0
LINE
  8
0
 62
7
 10
-2.06478028E+02
 20
4.64746790E+01
 11
-2.06863742E+02
 21
3.53746788E+01
  0
LINE
  8
0
  6
CENTER
 62
2
 10
-2.29120885E+02
 20
1.94474682E+02
 11
-2.29120885E+02
 21
2.74746787E+01
  0
LINE
  8
0
 62
7
 10
-2.36120885E+02
 20
9.31746798E+01
 11
-2.36120885E+02
 21
8.24746796E+01
  0
LINE
  8
0
 62
7
 10
-2.22120885E+02
 20
9.31746798E+01
 11
-2.22120885E+02
 21
8.24746796E+01
  0
LINE
  8
0
 62
7
 10
-2.45963743E+02
 20
8.66746797E+01
 11
-2.45878028E+02
 21
8.24746796E+01
  0
LINE
  8
0
 62
7
 10
-2.47963743E+02
 20
8.66746797E+01
 11
-2.47878028E+02
 21
8.24746796E+01
  0
LINE
  8
0
 62
7
 10
-2.48978028E+02
 20
8.66746797E+01
 11
-2.48878028E+02
 21
8.24746796E+01
  0
LINE
  8
0
 62
7
 10
-2.48978028E+02
 20
8.66746797E+01
 11
-2.45963743E+02
 21
8.66746797E+01
  0
LINE
  8
0
 62
7
 10
-2.09263742E+02
 20
8.66746797E+01
 11
-2.12263742E+02
 21
8.66746797E+01
  0
LINE
  8
0
 62
7
 10
-2.10263742E+02
 20
8.66746797E+01
 11
-2.10349456E+02
 21
8.24746796E+01
  0
LINE
  8
0
 62
7
 10
-2.09263742E+02
 20
8.66746797E+01
 11
-2.09349456E+02
 21
8.24746796E+01
  0
LINE
  8
0
 62
7
 10
-2.12263742E+02
 20
8.66746797E+01
 11
-2.12349456E+02
 21
8.24746796E+01
  0
LINE
  8
0
 62
7
 10
-2.52078028E+02
 20
1.04974680E+02
 11
-2.52078028E+02
 21
9.87032513E+01
  0
LINE
  8
0
 62
7
 10
-2.06149456E+02
 20
1.04974680E+02
 11
-2.06149456E+02
 21
9.87032513E+01
  0
LINE
  8
0
 62
7
 10
-2.61592314E+02
 20
1.04974680E+02
 11
-2.61592314E+02
 21
9.87032513E+01
  0
LINE
  8
0
 62
7
 10
-2.61592314E+02
 20
9.87032513E+01
 11
-2.58592314E+02
 21
9.69746799E+01
  0
LINE
  8
0
 62
7
 10
-1.96649456E+02
 20
1.04974680E+02
 11
-1.96649456E+02
 21
9.87032513E+01
  0
LINE
  8
0
 62
7
 10
-1.99649456E+02
 20
9.69746799E+01
 11
-1.96649456E+02
 21
9.87032513E+01
  0
LINE
  8
0
 62
7
 10
-1.95135170E+02
 20
1.55031824E+02
 11
-1.96120885E+02
 21
1.54988967E+02
  0
LINE
  8
0
 62
7
 10
-1.95135170E+02
 20
1.55031824E+02
 11
-1.94449456E+02
 21
1.53831824E+02
  0
LINE
  8
0
 62
2
 10
-1.94649456E+02
 20
1.54188967E+02
 11
-1.96120885E+02
 21
1.54146109E+02
  0
LINE
  8
0
 62
7
 10
-1.94449456E+02
 20
1.53831824E+02
 11
-1.94449456E+02
 21
1.43103252E+02
  0
LINE
  8
0
  6
DASHED
 62
2
 10
-1.96120885E+02
 20
1.51974681E+02
 11
-1.94449456E+02
 21
1.51974681E+02
  0
LINE
  8
0
  6
DASHED
 62
2
 10
-1.96120885E+02
 20
1.50217538E+02
 11
-1.94449456E+02
 21
1.50217538E+02
  0
LINE
  8
0
 62
7
 10
-1.95135170E+02
 20
1.55031824E+02
 11
-1.95135170E+02
 21
1.41917538E+02
  0
LINE
  8
0
  6
DASHED
 62
2
 10
-1.96120885E+02
 20
1.46717538E+02
 11
-1.94449456E+02
 21
1.46717538E+02
  0
LINE
  8
0
  6
DASHED
 62
2
 10
-1.96120885E+02
 20
1.44974681E+02
 11
-1.94449456E+02
 21
1.44974681E+02
  0
LINE
  8
0
 62
7
 10
-1.95135170E+02
 20
1.41917538E+02
 11
-1.94449456E+02
 21
1.43103252E+02
  0
LINE
  8
0
 62
2
 10
-1.94649456E+02
 20
1.42746109E+02
 11
-1.96120885E+02
 21
1.42803252E+02
  0
LINE
  8
0
 62
7
 10
-1.95135170E+02
 20
1.41917538E+02
 11
-1.96120885E+02
 21
1.41946109E+02
  0
ARC
  8
0
 62
7
 10
-2.60114618E+02
 20
1.87468413E+02
 40
2.00627778E+00
 50
9.01790019E+01
 51
1.79820998E+02
  0
ARC
  8
0
 62
7
 10
-2.60114638E+02
 20
1.11180928E+02
 40
2.00625772E+00
 50
1.80178433E+02
 51
2.69821567E+02
  0
ARC
  8
0
 62
6
 10
-1.73814658E+02
 20
1.04480906E+02
 40
1.49378689E+00
 50
3.59761190E+02
 51
9.02388096E+01
  0
ARC
  8
0
 62
6
 10
-1.73814649E+02
 20
1.04480915E+02
 40
4.69376927E+00
 50
3.59923891E+02
 51
9.00761085E+01
  0
ARC
  8
0
 62
7
 10
-2.49114634E+02
 20
1.68468430E+02
 40
5.00625525E+00
 50
9.00715449E+01
 51
1.79928455E+02
  0
ARC
  8
0
 62
7
 10
-2.49114656E+02
 20
1.28480910E+02
 40
5.00623345E+00
 50
1.80071296E+02
 51
2.69928704E+02
  0
ARC
  8
0
 62
7
 10
-2.44861063E+02
 20
1.23972001E+02
 40
4.97327522E-01
 50
2.69691277E+02
 51
3.08723292E-01
  0
ARC
  8
0
 62
7
 10
-2.13361070E+02
 20
1.23977353E+02
 40
5.02679340E-01
 50
1.80304584E+02
 51
2.69695416E+02
  0
ARC
  8
0
 62
7
 10
-2.42361054E+02
 20
1.26471992E+02
 40
2.00269048E+00
 50
9.00769203E+01
 51
1.79923080E+02
  0
ARC
  8
0
 62
7
 10
-2.15861079E+02
 20
1.26477344E+02
 40
1.99733855E+00
 50
3.59923601E+02
 51
9.00763984E+01
  0
ARC
  8
0
 62
7
 10
-2.61611086E+02
 20
1.64227338E+02
 40
5.09894024E-01
 50
1.81101256E+02
 51
2.68898744E+02
  0
ARC
  8
0
 62
7
 10
-2.61618118E+02
 20
1.32714770E+02
 40
5.02775302E-01
 50
9.03154031E+01
 51
1.79684597E+02
  0
ARC
  8
0
 62
7
 10
-1.96618300E+02
 20
1.64214954E+02
 40
4.97422316E-01
 50
2.69702313E+02
 51
2.97687112E-01
  0
ARC
  8
0
 62
7
 10
-1.96611090E+02
 20
1.32727332E+02
 40
4.90303600E-01
 50
3.58855391E+02
 51
9.11446094E+01
  0
ARC
  8
0
 62
7
 10
-1.98114680E+02
 20
1.87480886E+02
 40
1.99380478E+00
 50
3.59821690E+02
 51
9.01783104E+01
  0
ARC
  8
0
 62
7
 10
-1.98114660E+02
 20
1.11168455E+02
 40
1.99378473E+00
 50
2.69821110E+02
 51
1.78890079E-01
  0
ARC
  8
0
 62
7
 10
-2.09114663E+02
 20
1.68480903E+02
 40
4.99378228E+00
 50
3.59928616E+02
 51
9.00713838E+01
  0
ARC
  8
0
 62
7
 10
-2.09114641E+02
 20
1.28468437E+02
 40
4.99376048E+00
 50
2.69928365E+02
 51
7.16347496E-02
  0
ARC
  8
0
 62
7
 10
-2.13361070E+02
 20
1.72972009E+02
 40
5.02679340E-01
 50
9.03045840E+01
 51
1.79695416E+02
  0
ARC
  8
0
 62
7
 10
-2.44861063E+02
 20
1.72977361E+02
 40
4.97327522E-01
 50
3.59691277E+02
 51
9.03087230E+01
  0
ARC
  8
0
 62
7
 10
-2.15861079E+02
 20
1.70472018E+02
 40
1.99733855E+00
 50
2.69923601E+02
 51
7.63985660E-02
  0
ARC
  8
0
 62
7
 10
-2.42361054E+02
 20
1.70477370E+02
 40
2.00269048E+00
 50
1.80076921E+02
 51
2.69923079E+02
  0
CIRCLE
  8
0
 62
2
 10
-2.29108412E+02
 20
1.48474659E+02
 40
1.04774995E+01
  0
CIRCLE
  8
0
 62
7
 10
-2.29108412E+02
 20
1.48474659E+02
 40
9.31550042E+00
  0
CIRCLE
  8
0
 62
7
 10
-2.29108412E+02
 20
1.48474659E+02
 40
6.99999957E+00
  0
CIRCLE
  8
0
 62
7
 10
-2.29108412E+02
 20
1.44074678E+02
 40
1.09999846E+00
  0
CIRCLE
  8
0
 62
7
 10
-2.29108412E+02
 20
1.44074678E+02
 40
1.80000308E+00
  0
ARC
  8
0
 62
7
 10
-1.98114667E+02
 20
1.61480899E+02
 40
1.99379170E+00
 50
3.59821312E+02
 51
9.01786885E+01
  0
ARC
  8
0
 62
7
 10
-1.98114667E+02
 20
1.35468462E+02
 40
1.99379170E+00
 50
2.69821312E+02
 51
1.78688373E-01
  0
ARC
  8
0
 62
7
 10
-2.06614632E+02
 20
1.61468428E+02
 40
2.00626251E+00
 50
9.01785688E+01
 51
1.79821431E+02
  0
ARC
  8
0
 62
7
 10
-2.06614632E+02
 20
1.35480933E+02
 40
2.00626251E+00
 50
1.80178568E+02
 51
2.69821431E+02
  0
ARC
  8
0
 62
7
 10
-2.60114642E+02
 20
1.18180924E+02
 40
2.00625336E+00
 50
1.80178309E+02
 51
2.69821691E+02
  0
ARC
  8
0
 62
7
 10
-2.50114637E+02
 20
1.11180928E+02
 40
2.00625772E+00
 50
1.80178433E+02
 51
2.69821567E+02
  0
ARC
  8
0
 62
7
 10
-2.08114660E+02
 20
1.11168455E+02
 40
1.99378473E+00
 50
2.69821110E+02
 51
1.78890079E-01
  0
ARC
  8
0
 62
7
 10
-1.98114655E+02
 20
1.18168451E+02
 40
1.99378037E+00
 50
2.69820984E+02
 51
1.79016145E-01
  0
ARC
  8
0
 62
7
 10
-2.60114644E+02
 20
1.80468439E+02
 40
2.00625162E+00
 50
9.01782594E+01
 51
1.79821741E+02
  0
ARC
  8
0
 62
7
 10
-2.50114617E+02
 20
1.87468413E+02
 40
2.00627778E+00
 50
9.01790019E+01
 51
1.79820998E+02
  0
ARC
  8
0
 62
7
 10
-2.08114680E+02
 20
1.87480886E+02
 40
1.99380478E+00
 50
3.59821690E+02
 51
9.01783104E+01
  0
ARC
  8
0
 62
7
 10
-1.98114653E+02
 20
1.80480912E+02
 40
1.99377862E+00
 50
3.59820934E+02
 51
9.01790667E+01
  0
LINE
  8
0
 62
7
 10
-2.05358404E+02
 20
1.87174641E+02
 11
-2.05358403E+02
 21
1.82474641E+02
  0
LINE
  8
0
 62
7
 10
-2.05358404E+02
 20
1.87174641E+02
 11
-2.04838404E+02
 21
1.87474641E+02
  0
LINE
  8
0
 62
7
 10
-1.96858404E+02
 20
1.87174643E+02
 11
-2.05358404E+02
 21
1.87174641E+02
  0
LINE
  8
0
 62
7
 10
-1.97378404E+02
 20
1.87474643E+02
 11
-2.04838404E+02
 21
1.87474641E+02
  0
LINE
  8
0
 62
7
 10
-1.96858404E+02
 20
1.87174643E+02
 11
-1.97378404E+02
 21
1.87474643E+02
  0
LINE
  8
0
 62
7
 10
-1.96858404E+02
 20
1.87174643E+02
 11
-1.96858403E+02
 21
1.82474643E+02
  0
LINE
  8
0
 62
7
 10
-2.61358423E+02
 20
1.87174641E+02
 11
-2.61358421E+02
 21
1.82474641E+02
  0
LINE
  8
0
 62
7
 10
-2.61358423E+02
 20
1.87174641E+02
 11
-2.60838423E+02
 21
1.87474641E+02
  0
LINE
  8
0
 62
7
 10
-2.52858423E+02
 20
1.87174643E+02
 11
-2.61358423E+02
 21
1.87174641E+02
  0
LINE
  8
0
 62
7
 10
-2.53378423E+02
 20
1.87474643E+02
 11
-2.60838423E+02
 21
1.87474641E+02
  0
LINE
  8
0
 62
7
 10
-2.52858423E+02
 20
1.87174643E+02
 11
-2.53378423E+02
 21
1.87474643E+02
  0
LINE
  8
0
 62
7
 10
-2.52858423E+02
 20
1.87174643E+02
 11
-2.52858421E+02
 21
1.82474643E+02
  0
LINE
  8
0
 62
7
 10
-1.96858404E+02
 20
1.11474678E+02
 11
-1.96858403E+02
 21
1.16174678E+02
  0
LINE
  8
0
 62
7
 10
-1.96858404E+02
 20
1.11474678E+02
 11
-1.97378404E+02
 21
1.11174678E+02
  0
LINE
  8
0
 62
7
 10
-2.05358404E+02
 20
1.11474681E+02
 11
-1.96858404E+02
 21
1.11474678E+02
  0
LINE
  8
0
 62
7
 10
-2.04838404E+02
 20
1.11174680E+02
 11
-1.97378404E+02
 21
1.11174678E+02
  0
LINE
  8
0
 62
7
 10
-2.05358404E+02
 20
1.11474681E+02
 11
-2.04838404E+02
 21
1.11174680E+02
  0
LINE
  8
0
 62
7
 10
-2.05358404E+02
 20
1.11474681E+02
 11
-2.05358403E+02
 21
1.16174681E+02
  0
LINE
  8
0
 62
7
 10
-2.52858423E+02
 20
1.11474678E+02
 11
-2.52858421E+02
 21
1.16174678E+02
  0
LINE
  8
0
 62
7
 10
-2.52858423E+02
 20
1.11474678E+02
 11
-2.53378423E+02
 21
1.11174678E+02
  0
LINE
  8
0
 62
7
 10
-2.61358423E+02
 20
1.11474681E+02
 11
-2.52858423E+02
 21
1.11474678E+02
  0
LINE
  8
0
 62
7
 10
-2.60838423E+02
 20
1.11174680E+02
 11
-2.53378423E+02
 21
1.11174678E+02
  0
LINE
  8
0
 62
7
 10
-2.61358423E+02
 20
1.11474681E+02
 11
-2.60838423E+02
 21
1.11174680E+02
  0
LINE
  8
0
 62
7
 10
-2.61358423E+02
 20
1.11474681E+02
 11
-2.61358421E+02
 21
1.16174681E+02
  0
LINE
  8
0
  6
CENTER
 62
2
 10
2.02196973E+00
 20
1.48474681E+02
 11
-1.07978032E+02
 21
1.48474681E+02
  0
LINE
  8
0
 62
7
 10
-7.67280201E+01
 20
1.87174643E+02
 11
-7.67280186E+01
 21
1.82474643E+02
  0
LINE
  8
0
 62
7
 10
-7.67280201E+01
 20
1.87174643E+02
 11
-7.72480202E+01
 21
1.87474643E+02
  0
LINE
  8
0
 62
7
 10
-7.72480202E+01
 20
1.87474643E+02
 11
-8.47080202E+01
 21
1.87474641E+02
  0
LINE
  8
0
 62
7
 10
-7.67280201E+01
 20
1.87174643E+02
 11
-8.52280201E+01
 21
1.87174641E+02
  0
LINE
  8
0
 62
7
 10
-8.52280201E+01
 20
1.87174641E+02
 11
-8.47080202E+01
 21
1.87474641E+02
  0
LINE
  8
0
 62
7
 10
-8.52280201E+01
 20
1.87174641E+02
 11
-8.52280186E+01
 21
1.82474641E+02
  0
LINE
  8
0
 62
7
 10
-2.07280235E+01
 20
1.87174643E+02
 11
-2.07280220E+01
 21
1.82474643E+02
  0
LINE
  8
0
 62
7
 10
-2.07280235E+01
 20
1.87174643E+02
 11
-2.12480236E+01
 21
1.87474643E+02
  0
LINE
  8
0
 62
7
 10
-2.12480236E+01
 20
1.87474643E+02
 11
-2.87080236E+01
 21
1.87474641E+02
  0
LINE
  8
0
 62
7
 10
-2.07280235E+01
 20
1.87174643E+02
 11
-2.92280235E+01
 21
1.87174641E+02
  0
LINE
  8
0
 62
7
 10
-2.92280235E+01
 20
1.87174641E+02
 11
-2.87080236E+01
 21
1.87474641E+02
  0
LINE
  8
0
 62
7
 10
-2.92280235E+01
 20
1.87174641E+02
 11
-2.92280220E+01
 21
1.82474641E+02
  0
LINE
  8
0
 62
7
 10
-2.89780235E+01
 20
1.87174641E+02
 11
-2.89780220E+01
 21
1.82474641E+02
  0
LINE
  8
0
 62
7
 10
-2.92280235E+01
 20
1.11474681E+02
 11
-2.92280220E+01
 21
1.16174681E+02
  0
LINE
  8
0
 62
7
 10
-2.92280235E+01
 20
1.11474681E+02
 11
-2.87080236E+01
 21
1.11174680E+02
  0
LINE
  8
0
 62
7
 10
-2.87080236E+01
 20
1.11174680E+02
 11
-2.12480236E+01
 21
1.11174678E+02
  0
LINE
  8
0
 62
7
 10
-2.92280235E+01
 20
1.11474681E+02
 11
-2.07280235E+01
 21
1.11474678E+02
  0
LINE
  8
0
 62
7
 10
-2.07280235E+01
 20
1.11474678E+02
 11
-2.12480236E+01
 21
1.11174678E+02
  0
LINE
  8
0
 62
7
 10
-2.07280235E+01
 20
1.11474678E+02
 11
-2.07280220E+01
 21
1.16174678E+02
  0
LINE
  8
0
 62
4
 10
-3.04880308E+01
 20
1.49914659E+02
 11
-3.04880308E+01
 21
1.47034659E+02
  0
LINE
  8
0
 62
4
 10
-2.54680308E+01
 20
1.49914659E+02
 11
-2.54680308E+01
 21
1.47034659E+02
  0
LINE
  8
0
 62
4
 10
-3.04880308E+01
 20
1.49914659E+02
 11
-2.79780308E+01
 21
1.51364659E+02
  0
LINE
  8
0
 62
4
 10
-2.79780308E+01
 20
1.45584659E+02
 11
-2.54680308E+01
 21
1.47034659E+02
  0
LINE
  8
0
 62
4
 10
-2.79780308E+01
 20
1.51364659E+02
 11
-2.54680308E+01
 21
1.49914659E+02
  0
LINE
  8
0
 62
4
 10
-3.04880308E+01
 20
1.47034659E+02
 11
-2.79780308E+01
 21
1.45584659E+02
  0
CIRCLE
  8
0
 62
4
 10
-2.79780308E+01
 20
1.48474659E+02
 40
5.00000000E+00
  0
CIRCLE
  8
0
 62
4
 10
-2.79780308E+01
 20
1.48474659E+02
 40
3.96076870E+00
  0
CIRCLE
  8
0
 62
4
 10
-2.79780308E+01
 20
1.48474659E+02
 40
2.89829731E+00
  0
LINE
  8
0
 62
4
 10
-8.04880316E+01
 20
1.49914659E+02
 11
-8.04880316E+01
 21
1.47034659E+02
  0
LINE
  8
0
 62
4
 10
-7.54680316E+01
 20
1.49914659E+02
 11
-7.54680316E+01
 21
1.47034659E+02
  0
LINE
  8
0
 62
4
 10
-8.04880316E+01
 20
1.49914659E+02
 11
-7.79780316E+01
 21
1.51364659E+02
  0
LINE
  8
0
 62
4
 10
-7.79780316E+01
 20
1.45584659E+02
 11
-7.54680316E+01
 21
1.47034659E+02
  0
LINE
  8
0
 62
4
 10
-7.79780316E+01
 20
1.51364659E+02
 11
-7.54680316E+01
 21
1.49914659E+02
  0
LINE
  8
0
 62
4
 10
-8.04880316E+01
 20
1.47034659E+02
 11
-7.79780316E+01
 21
1.45584659E+02
  0
CIRCLE
  8
0
 62
4
 10
-7.79780316E+01
 20
1.48474659E+02
 40
5.00000000E+00
  0
CIRCLE
  8
0
 62
4
 10
-7.79780316E+01
 20
1.48474659E+02
 40
3.96076870E+00
  0
CIRCLE
  8
0
 62
4
 10
-7.79780316E+01
 20
1.48474659E+02
 40
2.89829731E+00
  0
LINE
  8
0
 62
7
 10
-8.52280201E+01
 20
1.11474681E+02
 11
-8.52280186E+01
 21
1.16174681E+02
  0
LINE
  8
0
 62
7
 10
-8.52280201E+01
 20
1.11474681E+02
 11
-8.47080202E+01
 21
1.11174680E+02
  0
LINE
  8
0
 62
7
 10
-8.47080202E+01
 20
1.11174680E+02
 11
-7.72480202E+01
 21
1.11174678E+02
  0
LINE
  8
0
 62
7
 10
-8.52280201E+01
 20
1.11474681E+02
 11
-7.67280201E+01
 21
1.11474678E+02
  0
LINE
  8
0
 62
7
 10
-7.67280201E+01
 20
1.11474678E+02
 11
-7.72480202E+01
 21
1.11174678E+02
  0
LINE
  8
0
 62
7
 10
-7.67280201E+01
 20
1.11474678E+02
 11
-7.67280186E+01
 21
1.16174678E+02
  0
ARC
  8
0
 62
7
 10
-3.19780526E+01
 20
1.87474660E+02
 40
2.00002183E+00
 50
6.24469812E-04
 51
9.00000002E+01
  0
ARC
  8
0
 62
7
 10
-2.19780263E+01
 20
1.80474686E+02
 40
1.99999567E+00
 50
3.59999875E+02
 51
9.00000002E+01
  0
ARC
  8
0
 62
7
 10
-2.19780281E+01
 20
1.18174678E+02
 40
1.99999742E+00
 50
2.70000000E+02
 51
7.49366819E-05
  0
ARC
  8
0
 62
7
 10
-3.19780326E+01
 20
1.11174682E+02
 40
2.00000178E+00
 50
2.70000000E+02
 51
3.59999950E+02
  0
ARC
  8
0
 62
7
 10
-7.39780098E+01
 20
1.87474660E+02
 40
2.00002183E+00
 50
9.00000002E+01
 51
1.79999375E+02
  0
ARC
  8
0
 62
7
 10
-8.39780361E+01
 20
1.80474686E+02
 40
1.99999567E+00
 50
9.00000002E+01
 51
1.80000125E+02
  0
ARC
  8
0
 62
7
 10
-7.39780298E+01
 20
1.11174682E+02
 40
2.00000178E+00
 50
1.80000050E+02
 51
2.70000000E+02
  0
ARC
  8
0
 62
7
 10
-8.39780343E+01
 20
1.18174678E+02
 40
1.99999742E+00
 50
1.79999925E+02
 51
2.70000000E+02
  0
ARC
  8
0
 62
7
 10
-8.39780300E+01
 20
1.11174682E+02
 40
2.00000178E+00
 50
1.80000050E+02
 51
2.70000000E+02
  0
ARC
  8
0
 62
7
 10
-2.19780324E+01
 20
1.11174682E+02
 40
2.00000178E+00
 50
2.70000000E+02
 51
3.59999950E+02
  0
ARC
  8
0
 62
7
 10
-2.19780525E+01
 20
1.87474660E+02
 40
2.00002183E+00
 50
6.24469812E-04
 51
9.00000002E+01
  0
ARC
  8
0
 62
7
 10
-8.39780099E+01
 20
1.87474660E+02
 40
2.00002183E+00
 50
9.00000002E+01
 51
1.79999375E+02
  0
ARC
  8
0
 62
7
 10
-9.29780319E+01
 20
1.28474680E+02
 40
5.00000009E+00
 50
1.80000000E+02
 51
2.70000000E+02
  0
ARC
  8
0
 62
7
 10
-9.29780101E+01
 20
1.68474659E+02
 40
5.00002188E+00
 50
9.00000002E+01
 51
1.79999750E+02
  0
ARC
  8
0
 62
7
 10
-1.29780196E+01
 20
1.28474670E+02
 40
4.99998919E+00
 50
2.70000000E+02
 51
1.24895024E-04
  0
ARC
  8
0
 62
7
 10
-1.29780414E+01
 20
1.68474670E+02
 40
5.00001098E+00
 50
1.24894751E-04
 51
9.00000002E+01
  0
CIRCLE
  8
0
 62
4
 10
-7.79780316E+01
 20
1.48474659E+02
 40
5.49999928E+00
  0
CIRCLE
  8
0
 62
4
 10
-2.79780308E+01
 20
1.48474659E+02
 40
5.49999928E+00
  0
LINE
  8
0
  6
CENTER
 62
2
 10
-7.79780316E+01
 20
1.55974681E+02
 11
-7.79780316E+01
 21
1.40974681E+02
  0
LINE
  8
0
  6
CENTER
 62
2
 10
-2.79780308E+01
 20
1.55974681E+02
 11
-2.79780308E+01
 21
1.40974681E+02
  0
LINE
  8
0
 62
7
 10
-1.99780306E+01
 20
1.33474680E+02
 11
-1.99780306E+01
 21
1.23474680E+02
  0
LINE
  8
0
 62
7
 10
-8.59780318E+01
 20
1.33474680E+02
 11
-8.59780318E+01
 21
1.23474680E+02
  0
LINE
  8
0
 62
4
 10
-7.97803044E+00
 20
1.63474681E+02
 11
-9.79780320E+01
 21
1.63474681E+02
  0
LINE
  8
0
 62
4
 10
-7.97803044E+00
 20
1.33474680E+02
 11
-9.79780320E+01
 21
1.33474680E+02
  0
LINE
  8
0
 62
7
 10
-2.09780307E+01
 20
1.23474680E+02
 11
-2.09780307E+01
 21
1.23174680E+02
  0
LINE
  8
0
 62
7
 10
-8.49780318E+01
 20
1.23474680E+02
 11
-8.49780318E+01
 21
1.23174680E+02
  0
LINE
  8
0
 62
7
 10
-9.29780319E+01
 20
1.23474680E+02
 11
-1.29780305E+01
 21
1.23474680E+02
  0
LINE
  8
0
 62
7
 10
-9.29780319E+01
 20
1.73474681E+02
 11
-1.29780305E+01
 21
1.73474681E+02
  0
LINE
  8
0
 62
7
 10
-2.99780308E+01
 20
1.82474681E+02
 11
-2.99780308E+01
 21
1.87474681E+02
  0
LINE
  8
0
  6
CENTER
 62
2
 10
-2.49780307E+01
 20
1.81474681E+02
 11
-2.49780307E+01
 21
1.90474681E+02
  0
LINE
  8
0
 62
7
 10
-2.07208878E+01
 20
1.82474681E+02
 11
-2.99780308E+01
 21
1.82474681E+02
  0
LINE
  8
0
  6
CENTER
 62
2
 10
-2.49780307E+01
 20
1.17174680E+02
 11
-2.49780307E+01
 21
1.08174680E+02
  0
LINE
  8
0
 62
7
 10
-2.07208878E+01
 20
1.16174680E+02
 11
-2.99780308E+01
 21
1.16174680E+02
  0
LINE
  8
0
 62
7
 10
-2.99780308E+01
 20
1.16174680E+02
 11
-2.99780308E+01
 21
1.11174680E+02
  0
LINE
  8
0
  6
CENTER
 62
2
 10
-5.29780312E+01
 20
1.94474682E+02
 11
-5.29780312E+01
 21
2.94746787E+01
  0
LINE
  8
0
 62
7
 10
-7.59780316E+01
 20
1.82474681E+02
 11
-7.59780316E+01
 21
1.87474681E+02
  0
LINE
  8
0
  6
CENTER
 62
2
 10
-8.09780317E+01
 20
1.81474681E+02
 11
-8.09780317E+01
 21
1.90474681E+02
  0
LINE
  8
0
 62
7
 10
-8.52208889E+01
 20
1.82474681E+02
 11
-7.59780316E+01
 21
1.82474681E+02
  0
LINE
  8
0
  6
CENTER
 62
2
 10
-8.09780317E+01
 20
1.17174680E+02
 11
-8.09780317E+01
 21
1.08174680E+02
  0
LINE
  8
0
 62
7
 10
-7.59780316E+01
 20
1.16174680E+02
 11
-7.59780316E+01
 21
1.11174680E+02
  0
LINE
  8
0
 62
7
 10
-8.52208889E+01
 20
1.16174680E+02
 11
-7.59780316E+01
 21
1.16174680E+02
  0
LINE
  8
0
 62
7
 10
-8.59780318E+01
 20
1.23174680E+02
 11
-8.59780318E+01
 21
1.11174680E+02
  0
LINE
  8
0
 62
7
 10
-1.99780306E+01
 20
1.23174680E+02
 11
-1.99780306E+01
 21
1.11174680E+02
  0
LINE
  8
0
 62
7
 10
-1.99780306E+01
 20
1.87474681E+02
 11
-1.99780306E+01
 21
1.63474681E+02
  0
LINE
  8
0
 62
7
 10
-8.59780318E+01
 20
1.87474681E+02
 11
-8.59780318E+01
 21
1.63474681E+02
  0
LINE
  8
0
 62
7
 10
-2.19780307E+01
 20
1.89474681E+02
 11
-8.39780317E+01
 21
1.89474681E+02
  0
LINE
  8
0
 62
7
 10
-8.59780318E+01
 20
1.23174680E+02
 11
-1.99780306E+01
 21
1.23174680E+02
  0
LINE
  8
0
 62
7
 10
-9.79780320E+01
 20
1.68474681E+02
 11
-9.79780320E+01
 21
1.28474680E+02
  0
LINE
  8
0
 62
7
 10
-7.97803044E+00
 20
1.68474681E+02
 11
-7.97803044E+00
 21
1.28474680E+02
  0
LINE
  8
0
 62
7
 10
-2.19780307E+01
 20
1.09174680E+02
 11
-8.39780317E+01
 21
1.09174680E+02
  0
LINE
  8
0
 62
7
 10
-7.69780316E+01
 20
9.31746798E+01
 11
-7.69780316E+01
 21
1.09174680E+02
  0
LINE
  8
0
 62
7
 10
-2.89780308E+01
 20
9.31746798E+01
 11
-2.89780308E+01
 21
1.09174680E+02
  0
LINE
  8
0
 62
7
 10
-7.69780316E+01
 20
9.51746798E+01
 11
-2.89780308E+01
 21
9.51746798E+01
  0
LINE
  8
0
 62
7
 10
-2.89780308E+01
 20
9.31746798E+01
 11
-7.69780316E+01
 21
9.31746798E+01
  0
LINE
  8
0
 62
7
 10
-2.89780308E+01
 20
1.07174680E+02
 11
-7.69780316E+01
 21
1.07174680E+02
  0
LINE
  8
0
 62
7
 10
-6.44780314E+01
 20
8.66746797E+01
 11
-6.44780314E+01
 21
8.24746796E+01
  0
LINE
  8
0
 62
7
 10
-6.29780314E+01
 20
8.66746797E+01
 11
-6.29780314E+01
 21
8.24746796E+01
  0
LINE
  8
0
 62
7
 10
-4.14780310E+01
 20
8.66746797E+01
 11
-4.14780310E+01
 21
8.24746796E+01
  0
LINE
  8
0
 62
7
 10
-4.29780310E+01
 20
8.66746797E+01
 11
-4.29780310E+01
 21
8.24746796E+01
  0
LINE
  8
0
 62
7
 10
-6.09780313E+01
 20
8.66746797E+01
 11
-6.44780314E+01
 21
8.66746797E+01
  0
LINE
  8
0
 62
7
 10
-6.09780313E+01
 20
8.66746797E+01
 11
-6.09780313E+01
 21
8.24746796E+01
  0
LINE
  8
0
 62
7
 10
-4.49780311E+01
 20
8.66746797E+01
 11
-4.49780311E+01
 21
8.24746796E+01
  0
LINE
  8
0
 62
7
 10
-4.14780310E+01
 20
8.66746797E+01
 11
-4.49780311E+01
 21
8.66746797E+01
  0
LINE
  8
0
 62
7
 10
-4.84780311E+01
 20
9.31746798E+01
 11
-4.84780311E+01
 21
8.24746796E+01
  0
LINE
  8
0
 62
7
 10
-5.74780313E+01
 20
9.31746798E+01
 11
-5.74780313E+01
 21
8.24746796E+01
  0
LINE
  8
0
 62
7
 10
-3.52208880E+01
 20
3.24746788E+01
 11
-3.07208880E+01
 21
3.53603931E+01
  0
LINE
  8
0
 62
7
 10
-3.03351737E+01
 20
4.64746790E+01
 11
-3.07208880E+01
 21
3.53746788E+01
  0
LINE
  8
0
 62
7
 10
-3.00780308E+01
 20
4.64746790E+01
 11
-3.03351737E+01
 21
4.64746790E+01
  0
LINE
  8
0
 62
7
 10
-2.89208879E+01
 20
7.24746795E+01
 11
-2.91780308E+01
 21
7.23318223E+01
  0
LINE
  8
0
 62
7
 10
-2.91780308E+01
 20
7.23318223E+01
 11
-3.00780308E+01
 21
4.64746790E+01
  0
LINE
  8
0
 62
7
 10
-2.85923165E+01
 20
8.19889653E+01
 11
-2.89208879E+01
 21
7.24746795E+01
  0
LINE
  8
0
 62
7
 10
-7.07208887E+01
 20
3.24746788E+01
 11
-7.52208887E+01
 21
3.53603931E+01
  0
LINE
  8
0
 62
7
 10
-7.58780316E+01
 20
4.64746790E+01
 11
-7.56066030E+01
 21
4.64746790E+01
  0
LINE
  8
0
 62
7
 10
-7.56066030E+01
 20
4.64746790E+01
 11
-7.52208887E+01
 21
3.53746788E+01
  0
LINE
  8
0
 62
7
 10
-4.03208881E+01
 20
4.26746789E+01
 11
-4.10923167E+01
 21
3.24746788E+01
  0
LINE
  8
0
 62
7
 10
-3.51923166E+01
 20
4.64746790E+01
 11
-4.03208881E+01
 21
4.26746789E+01
  0
LINE
  8
0
 62
7
 10
-4.89780311E+01
 20
4.64746790E+01
 11
-3.51923166E+01
 21
4.64746790E+01
  0
LINE
  8
0
 62
7
 10
-4.74923168E+01
 20
4.26746789E+01
 11
-4.03208881E+01
 21
4.26746789E+01
  0
LINE
  8
0
 62
7
 10
-7.07494601E+01
 20
4.64746790E+01
 11
-6.56208886E+01
 21
4.26746789E+01
  0
LINE
  8
0
 62
7
 10
-6.56208886E+01
 20
4.26746789E+01
 11
-6.48494600E+01
 21
3.24746788E+01
  0
LINE
  8
0
 62
7
 10
-7.73494602E+01
 20
8.19889653E+01
 11
-7.70208888E+01
 21
7.24746795E+01
  0
LINE
  8
0
 62
7
 10
-5.69780313E+01
 20
4.64746790E+01
 11
-5.84494599E+01
 21
4.26746789E+01
  0
LINE
  8
0
 62
7
 10
-4.89780311E+01
 20
4.64746790E+01
 11
-4.74923168E+01
 21
4.26746789E+01
  0
LINE
  8
0
 62
7
 10
-7.03637458E+01
 20
3.53603931E+01
 11
-7.52208887E+01
 21
3.53603931E+01
  0
LINE
  8
0
 62
7
 10
-7.03637458E+01
 20
3.53603931E+01
 11
-6.48494600E+01
 21
3.24746788E+01
  0
LINE
  8
0
 62
7
 10
-5.84494599E+01
 20
4.26746789E+01
 11
-6.56208886E+01
 21
4.26746789E+01
  0
LINE
  8
0
 62
7
 10
-5.69780313E+01
 20
4.64746790E+01
 11
-7.07494601E+01
 21
4.64746790E+01
  0
LINE
  8
0
 62
7
 10
-5.69780313E+01
 20
7.24746795E+01
 11
-7.16637458E+01
 21
7.24746795E+01
  0
LINE
  8
0
 62
7
 10
-3.55780309E+01
 20
3.53603931E+01
 11
-4.10923167E+01
 21
3.24746788E+01
  0
LINE
  8
0
 62
7
 10
-5.69780313E+01
 20
3.53603931E+01
 11
-5.84494599E+01
 21
3.24746788E+01
  0
LINE
  8
0
 62
7
 10
-4.89780311E+01
 20
3.53603931E+01
 11
-4.74923168E+01
 21
3.24746788E+01
  0
LINE
  8
0
 62
7
 10
-4.74923168E+01
 20
4.26746789E+01
 11
-4.74923168E+01
 21
3.24746788E+01
  0
LINE
  8
0
 62
7
 10
-5.84494599E+01
 20
4.26746789E+01
 11
-5.84494599E+01
 21
3.24746788E+01
  0
LINE
  8
0
 62
7
 10
-4.89780311E+01
 20
7.24746795E+01
 11
-3.42780309E+01
 21
7.24746795E+01
  0
LINE
  8
0
 62
7
 10
-5.69780313E+01
 20
3.53603931E+01
 11
-4.89780311E+01
 21
3.53603931E+01
  0
LINE
  8
0
 62
7
 10
-5.69780313E+01
 20
7.24746795E+01
 11
-5.69780313E+01
 21
3.53603931E+01
  0
LINE
  8
0
 62
7
 10
-4.89780311E+01
 20
7.24746795E+01
 11
-4.89780311E+01
 21
3.53603931E+01
  0
LINE
  8
0
 62
7
 10
-6.84780315E+01
 20
9.31746798E+01
 11
-6.82351743E+01
 21
8.24746796E+01
  0
LINE
  8
0
 62
7
 10
-3.77066024E+01
 20
8.24746796E+01
 11
-3.74780309E+01
 21
9.31746798E+01
  0
LINE
  8
0
 62
7
 10
-3.05923165E+01
 20
9.31746798E+01
 11
-3.10637451E+01
 21
8.24746796E+01
  0
LINE
  8
0
 62
7
 10
-2.90780308E+01
 20
8.24746796E+01
 11
-2.85923165E+01
 21
8.19889653E+01
  0
LINE
  8
0
 62
7
 10
-7.68637459E+01
 20
8.24746796E+01
 11
-7.73494602E+01
 21
8.19889653E+01
  0
LINE
  8
0
 62
7
 10
-7.67780316E+01
 20
7.23318223E+01
 11
-7.58780316E+01
 21
4.64746790E+01
  0
LINE
  8
0
 62
7
 10
-7.70208888E+01
 20
7.24746795E+01
 11
-7.67780316E+01
 21
7.23318223E+01
  0
LINE
  8
0
 62
7
 10
-7.68637459E+01
 20
8.24746796E+01
 11
-2.90780308E+01
 21
8.24746796E+01
  0
LINE
  8
0
 62
7
 10
-7.16637458E+01
 20
7.24746795E+01
 11
-7.03637458E+01
 21
3.53603931E+01
  0
LINE
  8
0
 62
7
 10
-3.55780309E+01
 20
3.53603931E+01
 11
-3.42780309E+01
 21
7.24746795E+01
  0
LINE
  8
0
 62
7
 10
-7.07208887E+01
 20
3.24746788E+01
 11
-3.52208880E+01
 21
3.24746788E+01
  0
LINE
  8
0
 62
7
 10
-7.53494602E+01
 20
9.31746798E+01
 11
-7.48780316E+01
 21
8.24746796E+01
  0
LINE
  8
0
 62
4
 10
-5.29780312E+01
 20
1.51974681E+02
 11
-4.99351740E+01
 21
1.50217538E+02
  0
LINE
  8
0
 62
4
 10
-4.99351740E+01
 20
1.50217538E+02
 11
-4.99351740E+01
 21
1.46717538E+02
  0
CIRCLE
  8
0
 62
4
 10
-5.29655364E+01
 20
1.48474655E+02
 40
3.49999979E+00
  0
CIRCLE
  8
0
 62
4
 10
-5.29655364E+01
 20
1.48474655E+02
 40
6.57850004E+00
  0
CIRCLE
  8
0
 62
4
 10
-5.29655364E+01
 20
1.48474655E+02
 40
5.36606389E+00
  0
LINE
  8
0
 62
4
 10
-5.60066027E+01
 20
1.50217538E+02
 11
-5.60066027E+01
 21
1.46717538E+02
  0
LINE
  8
0
 62
4
 10
-5.60066027E+01
 20
1.46717538E+02
 11
-5.29780312E+01
 21
1.44974681E+02
  0
LINE
  8
0
 62
4
 10
-5.60066027E+01
 20
1.50217538E+02
 11
-5.29780312E+01
 21
1.51974681E+02
  0
LINE
  8
0
 62
4
 10
-5.29780312E+01
 20
1.44974681E+02
 11
-4.99351740E+01
 21
1.46717538E+02
  0
LINE
  8
0
 62
7
 10
2.16415772E+01
 20
1.11474681E+02
 11
2.16415787E+01
 21
1.16174681E+02
  0
LINE
  8
0
 62
7
 10
2.16415772E+01
 20
1.11474681E+02
 11
2.21615771E+01
 21
1.11174680E+02
  0
LINE
  8
0
 62
7
 10
2.21615771E+01
 20
1.11174680E+02
 11
2.96215771E+01
 21
1.11174678E+02
  0
LINE
  8
0
 62
7
 10
2.16415772E+01
 20
1.11474681E+02
 11
3.01415772E+01
 21
1.11474678E+02
  0
LINE
  8
0
 62
7
 10
3.01415772E+01
 20
1.11474678E+02
 11
2.96215771E+01
 21
1.11174678E+02
  0
LINE
  8
0
 62
7
 10
3.01415772E+01
 20
1.11474678E+02
 11
3.01415787E+01
 21
1.16174678E+02
  0
LINE
  8
0
 62
7
 10
7.76415956E+01
 20
1.11474681E+02
 11
7.76415971E+01
 21
1.16174681E+02
  0
LINE
  8
0
 62
7
 10
7.76415956E+01
 20
1.11474681E+02
 11
7.81615955E+01
 21
1.11174680E+02
  0
LINE
  8
0
 62
7
 10
7.81615955E+01
 20
1.11174680E+02
 11
8.56215955E+01
 21
1.11174678E+02
  0
LINE
  8
0
 62
7
 10
7.76415956E+01
 20
1.11474681E+02
 11
8.61415956E+01
 21
1.11474678E+02
  0
LINE
  8
0
 62
7
 10
8.61415956E+01
 20
1.11474678E+02
 11
8.56215955E+01
 21
1.11174678E+02
  0
LINE
  8
0
 62
7
 10
8.61415956E+01
 20
1.11474678E+02
 11
8.61415971E+01
 21
1.16174678E+02
  0
LINE
  8
0
 62
7
 10
3.01415772E+01
 20
1.87174643E+02
 11
3.01415787E+01
 21
1.82474643E+02
  0
LINE
  8
0
 62
7
 10
3.01415772E+01
 20
1.87174643E+02
 11
2.96215771E+01
 21
1.87474643E+02
  0
LINE
  8
0
 62
7
 10
2.96215771E+01
 20
1.87474643E+02
 11
2.21615771E+01
 21
1.87474641E+02
  0
LINE
  8
0
 62
7
 10
3.01415772E+01
 20
1.87174643E+02
 11
2.16415772E+01
 21
1.87174641E+02
  0
LINE
  8
0
 62
7
 10
2.16415772E+01
 20
1.87174641E+02
 11
2.21615771E+01
 21
1.87474641E+02
  0
LINE
  8
0
 62
7
 10
2.16415772E+01
 20
1.87174641E+02
 11
2.16415787E+01
 21
1.82474641E+02
  0
LINE
  8
0
 62
7
 10
8.61415956E+01
 20
1.87174643E+02
 11
8.61415971E+01
 21
1.82474643E+02
  0
LINE
  8
0
 62
7
 10
8.61415956E+01
 20
1.87174643E+02
 11
8.56215955E+01
 21
1.87474643E+02
  0
LINE
  8
0
 62
7
 10
8.56215955E+01
 20
1.87474643E+02
 11
7.81615955E+01
 21
1.87474641E+02
  0
LINE
  8
0
 62
7
 10
8.61415956E+01
 20
1.87174643E+02
 11
7.76415956E+01
 21
1.87174641E+02
  0
LINE
  8
0
 62
7
 10
7.76415956E+01
 20
1.87174641E+02
 11
7.81615955E+01
 21
1.87474641E+02
  0
LINE
  8
0
 62
7
 10
7.76415956E+01
 20
1.87174641E+02
 11
7.76415971E+01
 21
1.82474641E+02
  0
ARC
  8
0
 62
7
 10
8.48853466E+01
 20
1.80480912E+02
 40
1.99377862E+00
 50
3.59820934E+02
 51
9.01790667E+01
  0
ARC
  8
0
 62
7
 10
7.48853202E+01
 20
1.87480886E+02
 40
1.99380478E+00
 50
3.59821690E+02
 51
9.01783104E+01
  0
ARC
  8
0
 62
7
 10
3.28853825E+01
 20
1.87468413E+02
 40
2.00627778E+00
 50
9.01790019E+01
 51
1.79820998E+02
  0
ARC
  8
0
 62
7
 10
2.28853563E+01
 20
1.80468439E+02
 40
2.00625162E+00
 50
9.01782594E+01
 51
1.79821741E+02
  0
ARC
  8
0
 62
7
 10
8.48853448E+01
 20
1.18168451E+02
 40
1.99378037E+00
 50
2.69820984E+02
 51
1.79016145E-01
  0
ARC
  8
0
 62
7
 10
7.48853403E+01
 20
1.11168455E+02
 40
1.99378473E+00
 50
2.69821110E+02
 51
1.78890079E-01
  0
ARC
  8
0
 62
7
 10
3.28853625E+01
 20
1.11180928E+02
 40
2.00625772E+00
 50
1.80178433E+02
 51
2.69821567E+02
  0
ARC
  8
0
 62
7
 10
2.28853580E+01
 20
1.18180924E+02
 40
2.00625336E+00
 50
1.80178309E+02
 51
2.69821691E+02
  0
ARC
  8
0
 62
7
 10
7.63853680E+01
 20
1.35480933E+02
 40
2.00626251E+00
 50
1.80178568E+02
 51
2.69821431E+02
  0
ARC
  8
0
 62
7
 10
7.63853680E+01
 20
1.61468428E+02
 40
2.00626251E+00
 50
9.01785688E+01
 51
1.79821431E+02
  0
ARC
  8
0
 62
7
 10
8.48853335E+01
 20
1.35468462E+02
 40
1.99379170E+00
 50
2.69821312E+02
 51
1.78688373E-01
  0
ARC
  8
0
 62
7
 10
8.48853335E+01
 20
1.61480899E+02
 40
1.99379170E+00
 50
3.59821312E+02
 51
9.01786885E+01
  0
CIRCLE
  8
0
 62
7
 10
5.38915879E+01
 20
1.44074678E+02
 40
1.80000308E+00
  0
CIRCLE
  8
0
 62
7
 10
5.38915879E+01
 20
1.44074678E+02
 40
1.09999846E+00
  0
CIRCLE
  8
0
 62
7
 10
5.38915879E+01
 20
1.48474659E+02
 40
6.99999957E+00
  0
CIRCLE
  8
0
 62
7
 10
5.38915879E+01
 20
1.48474659E+02
 40
9.31550042E+00
  0
CIRCLE
  8
0
 62
2
 10
5.38915879E+01
 20
1.48474659E+02
 40
1.04774995E+01
  0
ARC
  8
0
 62
7
 10
4.06389462E+01
 20
1.70477370E+02
 40
2.00269048E+00
 50
1.80076921E+02
 51
2.69923079E+02
  0
ARC
  8
0
 62
7
 10
6.71389213E+01
 20
1.70472018E+02
 40
1.99733855E+00
 50
2.69923601E+02
 51
7.63985660E-02
  0
ARC
  8
0
 62
7
 10
3.81389372E+01
 20
1.72977361E+02
 40
4.97327522E-01
 50
3.59691277E+02
 51
9.03087230E+01
  0
ARC
  8
0
 62
7
 10
6.96389303E+01
 20
1.72972009E+02
 40
5.02679340E-01
 50
9.03045840E+01
 51
1.79695416E+02
  0
ARC
  8
0
 62
7
 10
7.38853588E+01
 20
1.28468437E+02
 40
4.99376048E+00
 50
2.69928365E+02
 51
7.16347496E-02
  0
ARC
  8
0
 62
7
 10
7.38853369E+01
 20
1.68480903E+02
 40
4.99378228E+00
 50
3.59928616E+02
 51
9.00713838E+01
  0
ARC
  8
0
 62
7
 10
8.48853405E+01
 20
1.11168455E+02
 40
1.99378473E+00
 50
2.69821110E+02
 51
1.78890079E-01
  0
ARC
  8
0
 62
7
 10
8.48853204E+01
 20
1.87480886E+02
 40
1.99380478E+00
 50
3.59821690E+02
 51
9.01783104E+01
  0
ARC
  8
0
 62
7
 10
8.63889097E+01
 20
1.32727332E+02
 40
4.90303600E-01
 50
3.58855391E+02
 51
9.11446094E+01
  0
ARC
  8
0
 62
7
 10
8.63816999E+01
 20
1.64214954E+02
 40
4.97422316E-01
 50
2.69702313E+02
 51
2.97687112E-01
  0
ARC
  8
0
 62
7
 10
2.13818820E+01
 20
1.32714770E+02
 40
5.02775302E-01
 50
9.03154031E+01
 51
1.79684597E+02
  0
ARC
  8
0
 62
7
 10
2.13889142E+01
 20
1.64227338E+02
 40
5.09894024E-01
 50
1.81101256E+02
 51
2.68898744E+02
  0
ARC
  8
0
 62
7
 10
6.71389213E+01
 20
1.26477344E+02
 40
1.99733855E+00
 50
3.59923601E+02
 51
9.00763984E+01
  0
ARC
  8
0
 62
7
 10
4.06389462E+01
 20
1.26471992E+02
 40
2.00269048E+00
 50
9.00769203E+01
 51
1.79923080E+02
  0
ARC
  8
0
 62
7
 10
6.96389303E+01
 20
1.23977353E+02
 40
5.02679340E-01
 50
1.80304584E+02
 51
2.69695416E+02
  0
ARC
  8
0
 62
7
 10
3.81389372E+01
 20
1.23972001E+02
 40
4.97327522E-01
 50
2.69691277E+02
 51
3.08723292E-01
  0
ARC
  8
0
 62
7
 10
3.38853441E+01
 20
1.28480910E+02
 40
5.00623345E+00
 50
1.80071296E+02
 51
2.69928704E+02
  0
ARC
  8
0
 62
7
 10
3.38853658E+01
 20
1.68468430E+02
 40
5.00625525E+00
 50
9.00715449E+01
 51
1.79928455E+02
  0
ARC
  8
0
 62
7
 10
2.28853624E+01
 20
1.11180928E+02
 40
2.00625772E+00
 50
1.80178433E+02
 51
2.69821567E+02
  0
ARC
  8
0
 62
7
 10
2.28853823E+01
 20
1.87468413E+02
 40
2.00627778E+00
 50
9.01790019E+01
 51
1.79820998E+02
  0
LINE
  8
0
 62
7
 10
8.78648298E+01
 20
1.41917538E+02
 11
8.68791155E+01
 21
1.41946109E+02
  0
LINE
  8
0
 62
2
 10
8.83505441E+01
 20
1.42746109E+02
 11
8.68791155E+01
 21
1.42803252E+02
  0
LINE
  8
0
 62
7
 10
8.78648298E+01
 20
1.41917538E+02
 11
8.85505441E+01
 21
1.43103252E+02
  0
LINE
  8
0
  6
DASHED
 62
2
 10
8.68791155E+01
 20
1.44974681E+02
 11
8.85505441E+01
 21
1.44974681E+02
  0
LINE
  8
0
  6
DASHED
 62
2
 10
8.68791155E+01
 20
1.46717538E+02
 11
8.85505441E+01
 21
1.46717538E+02
  0
LINE
  8
0
 62
7
 10
8.78648298E+01
 20
1.55031824E+02
 11
8.78648298E+01
 21
1.41917538E+02
  0
LINE
  8
0
  6
DASHED
 62
2
 10
8.68791155E+01
 20
1.50217538E+02
 11
8.85505441E+01
 21
1.50217538E+02
  0
LINE
  8
0
  6
DASHED
 62
2
 10
8.68791155E+01
 20
1.51974681E+02
 11
8.85505441E+01
 21
1.51974681E+02
  0
LINE
  8
0
 62
7
 10
8.85505441E+01
 20
1.53831824E+02
 11
8.85505441E+01
 21
1.43103252E+02
  0
LINE
  8
0
 62
2
 10
8.83505441E+01
 20
1.54188967E+02
 11
8.68791155E+01
 21
1.54146109E+02
  0
LINE
  8
0
 62
7
 10
8.78648298E+01
 20
1.55031824E+02
 11
8.85505441E+01
 21
1.53831824E+02
  0
LINE
  8
0
 62
7
 10
8.78648298E+01
 20
1.55031824E+02
 11
8.68791155E+01
 21
1.54988967E+02
  0
LINE
  8
0
 62
7
 10
7.07362581E+01
 20
8.66746797E+01
 11
7.06505438E+01
 21
8.24746796E+01
  0
LINE
  8
0
 62
7
 10
7.37362581E+01
 20
8.66746797E+01
 11
7.36505438E+01
 21
8.24746796E+01
  0
LINE
  8
0
 62
7
 10
7.27362581E+01
 20
8.66746797E+01
 11
7.26505438E+01
 21
8.24746796E+01
  0
LINE
  8
0
 62
7
 10
7.37362581E+01
 20
8.66746797E+01
 11
7.07362581E+01
 21
8.66746797E+01
  0
LINE
  8
0
 62
7
 10
3.40219717E+01
 20
8.66746797E+01
 11
3.70362575E+01
 21
8.66746797E+01
  0
LINE
  8
0
 62
7
 10
3.40219717E+01
 20
8.66746797E+01
 11
3.41219717E+01
 21
8.24746796E+01
  0
LINE
  8
0
 62
7
 10
3.50362575E+01
 20
8.66746797E+01
 11
3.51219717E+01
 21
8.24746796E+01
  0
LINE
  8
0
 62
7
 10
3.70362575E+01
 20
8.66746797E+01
 11
3.71219718E+01
 21
8.24746796E+01
  0
LINE
  8
0
 62
7
 10
6.08791150E+01
 20
9.31746798E+01
 11
6.08791150E+01
 21
8.24746796E+01
  0
LINE
  8
0
 62
7
 10
4.68791148E+01
 20
9.31746798E+01
 11
4.68791148E+01
 21
8.24746796E+01
  0
LINE
  8
0
  6
CENTER
 62
2
 10
5.38791149E+01
 20
1.94474682E+02
 11
5.38791149E+01
 21
2.74746787E+01
  0
LINE
  8
0
 62
7
 10
7.65219724E+01
 20
4.64746790E+01
 11
7.61362582E+01
 21
3.53746788E+01
  0
LINE
  8
0
 62
7
 10
7.67791153E+01
 20
4.64746790E+01
 11
7.65219724E+01
 21
4.64746790E+01
  0
LINE
  8
0
 62
7
 10
7.79362582E+01
 20
7.24746795E+01
 11
7.76791153E+01
 21
7.23318223E+01
  0
LINE
  8
0
 62
7
 10
7.76791153E+01
 20
7.23318223E+01
 11
7.67791153E+01
 21
4.64746790E+01
  0
LINE
  8
0
 62
7
 10
7.82648296E+01
 20
8.19889653E+01
 11
7.79362582E+01
 21
7.24746795E+01
  0
LINE
  8
0
 62
7
 10
3.61362575E+01
 20
3.24746788E+01
 11
3.16362574E+01
 21
3.53603931E+01
  0
LINE
  8
0
 62
7
 10
3.09791145E+01
 20
4.64746790E+01
 11
3.12505431E+01
 21
4.64746790E+01
  0
LINE
  8
0
 62
7
 10
3.12505431E+01
 20
4.64746790E+01
 11
3.16362574E+01
 21
3.53746788E+01
  0
LINE
  8
0
 62
7
 10
6.65362580E+01
 20
4.26746789E+01
 11
6.57648294E+01
 21
3.24746788E+01
  0
LINE
  8
0
 62
7
 10
7.16648295E+01
 20
4.64746790E+01
 11
6.65362580E+01
 21
4.26746789E+01
  0
LINE
  8
0
 62
7
 10
5.78791150E+01
 20
4.64746790E+01
 11
7.16648295E+01
 21
4.64746790E+01
  0
LINE
  8
0
 62
7
 10
5.93648293E+01
 20
4.26746789E+01
 11
6.65362580E+01
 21
4.26746789E+01
  0
LINE
  8
0
 62
7
 10
3.61076860E+01
 20
4.64746790E+01
 11
4.12362576E+01
 21
4.26746789E+01
  0
LINE
  8
0
 62
7
 10
4.12362576E+01
 20
4.26746789E+01
 11
4.20076861E+01
 21
3.24746788E+01
  0
LINE
  8
0
 62
7
 10
2.95076859E+01
 20
8.19889653E+01
 11
2.98362574E+01
 21
7.24746795E+01
  0
LINE
  8
0
 62
7
 10
4.98791149E+01
 20
4.64746790E+01
 11
4.84076863E+01
 21
4.26746789E+01
  0
LINE
  8
0
 62
7
 10
5.78791150E+01
 20
4.64746790E+01
 11
5.93648293E+01
 21
4.26746789E+01
  0
LINE
  8
0
 62
7
 10
7.16362581E+01
 20
3.24746788E+01
 11
7.61362582E+01
 21
3.53603931E+01
  0
LINE
  8
0
 62
7
 10
3.64934003E+01
 20
3.53603931E+01
 11
3.16362574E+01
 21
3.53603931E+01
  0
LINE
  8
0
 62
7
 10
3.64934003E+01
 20
3.53603931E+01
 11
4.20076861E+01
 21
3.24746788E+01
  0
LINE
  8
0
 62
7
 10
4.84076863E+01
 20
4.26746789E+01
 11
4.12362576E+01
 21
4.26746789E+01
  0
LINE
  8
0
 62
7
 10
4.98791149E+01
 20
4.64746790E+01
 11
3.61076860E+01
 21
4.64746790E+01
  0
LINE
  8
0
 62
7
 10
4.98791149E+01
 20
7.24746795E+01
 11
3.51934003E+01
 21
7.24746795E+01
  0
LINE
  8
0
 62
7
 10
7.12791152E+01
 20
3.53603931E+01
 11
6.57648294E+01
 21
3.24746788E+01
  0
LINE
  8
0
 62
7
 10
4.98791149E+01
 20
3.53603931E+01
 11
4.84076863E+01
 21
3.24746788E+01
  0
LINE
  8
0
 62
7
 10
5.78791150E+01
 20
3.53603931E+01
 11
5.93648293E+01
 21
3.24746788E+01
  0
LINE
  8
0
 62
7
 10
5.93648293E+01
 20
4.26746789E+01
 11
5.93648293E+01
 21
3.24746788E+01
  0
LINE
  8
0
 62
7
 10
4.84076863E+01
 20
4.26746789E+01
 11
4.84076863E+01
 21
3.24746788E+01
  0
LINE
  8
0
 62
7
 10
5.78791150E+01
 20
7.24746795E+01
 11
7.25791152E+01
 21
7.24746795E+01
  0
LINE
  8
0
 62
7
 10
4.98791149E+01
 20
3.53603931E+01
 11
5.78791150E+01
 21
3.53603931E+01
  0
LINE
  8
0
 62
7
 10
4.98791149E+01
 20
7.24746795E+01
 11
4.98791149E+01
 21
3.53603931E+01
  0
LINE
  8
0
 62
7
 10
5.78791150E+01
 20
7.24746795E+01
 11
5.78791150E+01
 21
3.53603931E+01
  0
LINE
  8
0
 62
7
 10
3.98791147E+01
 20
9.31746798E+01
 11
4.01219718E+01
 21
8.24746796E+01
  0
LINE
  8
0
 62
7
 10
6.76505437E+01
 20
8.24746796E+01
 11
6.78791152E+01
 21
9.31746798E+01
  0
LINE
  8
0
 62
7
 10
7.62648296E+01
 20
9.31746798E+01
 11
7.57934010E+01
 21
8.24746796E+01
  0
LINE
  8
0
 62
7
 10
7.77791153E+01
 20
8.24746796E+01
 11
7.82648296E+01
 21
8.19889653E+01
  0
LINE
  8
0
 62
7
 10
2.99934002E+01
 20
8.24746796E+01
 11
2.95076859E+01
 21
8.19889653E+01
  0
LINE
  8
0
 62
7
 10
3.00791145E+01
 20
7.23318223E+01
 11
3.09791145E+01
 21
4.64746790E+01
  0
LINE
  8
0
 62
7
 10
2.98362574E+01
 20
7.24746795E+01
 11
3.00791145E+01
 21
7.23318223E+01
  0
LINE
  8
0
 62
7
 10
2.99934002E+01
 20
8.24746796E+01
 11
7.77791153E+01
 21
8.24746796E+01
  0
LINE
  8
0
 62
7
 10
3.51934003E+01
 20
7.24746795E+01
 11
3.64934003E+01
 21
3.53603931E+01
  0
LINE
  8
0
 62
7
 10
7.12791152E+01
 20
3.53603931E+01
 11
7.25791152E+01
 21
7.24746795E+01
  0
LINE
  8
0
 62
7
 10
3.61362575E+01
 20
3.24746788E+01
 11
7.16362581E+01
 21
3.24746788E+01
  0
LINE
  8
0
 62
7
 10
3.15076860E+01
 20
9.31746798E+01
 11
3.19791145E+01
 21
8.24746796E+01
  0
LINE
  8
0
  6
CENTER
 62
2
 10
8.18791154E+01
 20
1.81474681E+02
 11
8.18791154E+01
 21
1.90474681E+02
  0
LINE
  8
0
 62
7
 10
8.61362583E+01
 20
1.82474681E+02
 11
7.68791153E+01
 21
1.82474681E+02
  0
LINE
  8
0
 62
7
 10
7.68791153E+01
 20
1.82474681E+02
 11
7.68791153E+01
 21
1.87474681E+02
  0
LINE
  8
0
 62
7
 10
3.08791145E+01
 20
1.82474681E+02
 11
3.08791145E+01
 21
1.87474681E+02
  0
LINE
  8
0
  6
CENTER
 62
2
 10
2.58791144E+01
 20
1.81474681E+02
 11
2.58791144E+01
 21
1.90474681E+02
  0
LINE
  8
0
 62
7
 10
2.16362572E+01
 20
1.82474681E+02
 11
3.08791145E+01
 21
1.82474681E+02
  0
LINE
  8
0
  6
CENTER
 62
2
 10
8.18791154E+01
 20
1.17174680E+02
 11
8.18791154E+01
 21
1.08174680E+02
  0
LINE
  8
0
 62
7
 10
7.68791153E+01
 20
1.16174680E+02
 11
7.68791153E+01
 21
1.11174680E+02
  0
LINE
  8
0
 62
7
 10
8.61362583E+01
 20
1.16174680E+02
 11
7.68791153E+01
 21
1.16174680E+02
  0
LINE
  8
0
 62
7
 10
3.08791145E+01
 20
1.16174680E+02
 11
3.08791145E+01
 21
1.11174680E+02
  0
LINE
  8
0
 62
7
 10
2.16362572E+01
 20
1.16174680E+02
 11
3.08791145E+01
 21
1.16174680E+02
  0
LINE
  8
0
  6
CENTER
 62
2
 10
2.58791144E+01
 20
1.17174680E+02
 11
2.58791144E+01
 21
1.08174680E+02
  0
LINE
  8
0
 62
7
 10
2.78791145E+01
 20
9.51746798E+01
 11
4.38791149E+01
 21
9.51746798E+01
  0
LINE
  8
0
 62
7
 10
8.68791155E+01
 20
1.32717538E+02
 11
8.68791155E+01
 21
1.11174680E+02
  0
LINE
  8
0
 62
7
 10
8.68791155E+01
 20
1.61474681E+02
 11
8.68791155E+01
 21
1.35474681E+02
  0
LINE
  8
0
 62
7
 10
7.88791153E+01
 20
1.33217538E+02
 11
8.63791155E+01
 21
1.33217538E+02
  0
LINE
  8
0
 62
7
 10
7.88791153E+01
 20
1.63717538E+02
 11
8.63791155E+01
 21
1.63717538E+02
  0
LINE
  8
0
 62
7
 10
7.88791153E+01
 20
1.33474680E+02
 11
7.88791153E+01
 21
1.28474680E+02
  0
LINE
  8
0
 62
7
 10
8.48791154E+01
 20
1.33474680E+02
 11
7.63791153E+01
 21
1.33474680E+02
  0
LINE
  8
0
 62
7
 10
8.48791154E+01
 20
1.63474681E+02
 11
7.63791153E+01
 21
1.63474681E+02
  0
LINE
  8
0
 62
7
 10
8.68791155E+01
 20
1.87474681E+02
 11
8.68791155E+01
 21
1.64217538E+02
  0
LINE
  8
0
 62
7
 10
7.43791153E+01
 20
1.61474681E+02
 11
7.43791153E+01
 21
1.35474681E+02
  0
LINE
  8
0
 62
7
 10
5.56791149E+01
 20
1.44074681E+02
 11
5.56791149E+01
 21
1.41703252E+02
  0
LINE
  8
0
 62
7
 10
2.08791144E+01
 20
1.23474680E+02
 11
8.68791155E+01
 21
1.23474680E+02
  0
LINE
  8
0
 62
7
 10
2.08791144E+01
 20
1.73474681E+02
 11
8.68791155E+01
 21
1.73474681E+02
  0
LINE
  8
0
 62
7
 10
6.91362580E+01
 20
1.70474681E+02
 11
6.91362580E+01
 21
1.72974681E+02
  0
LINE
  8
0
 62
7
 10
3.86362575E+01
 20
1.70474681E+02
 11
3.86362575E+01
 21
1.72974681E+02
  0
LINE
  8
0
 62
7
 10
4.06362576E+01
 20
1.68474681E+02
 11
6.71362580E+01
 21
1.68474681E+02
  0
LINE
  8
0
 62
7
 10
7.88791153E+01
 20
1.68474681E+02
 11
7.88791153E+01
 21
1.63474681E+02
  0
LINE
  8
0
 62
7
 10
2.08791144E+01
 20
1.23174680E+02
 11
8.68791155E+01
 21
1.23174680E+02
  0
LINE
  8
0
 62
7
 10
2.28791144E+01
 20
1.09174680E+02
 11
8.48791154E+01
 21
1.09174680E+02
  0
LINE
  8
0
 62
7
 10
8.48791154E+01
 20
1.89474681E+02
 11
2.28791144E+01
 21
1.89474681E+02
  0
LINE
  8
0
  6
CENTER
 62
2
 10
9.15505441E+01
 20
1.48474681E+02
 11
1.13791142E+01
 21
1.48474681E+02
  0
LINE
  8
0
 62
7
 10
6.91362580E+01
 20
1.23974680E+02
 11
6.91362580E+01
 21
1.26474680E+02
  0
LINE
  8
0
 62
7
 10
3.86362575E+01
 20
1.23974680E+02
 11
3.86362575E+01
 21
1.26474680E+02
  0
LINE
  8
0
 62
7
 10
2.88791145E+01
 20
1.33474680E+02
 11
2.88791145E+01
 21
1.28474680E+02
  0
LINE
  8
0
 62
7
 10
5.20791149E+01
 20
1.44074681E+02
 11
5.20791149E+01
 21
1.41703252E+02
  0
LINE
  8
0
 62
7
 10
2.13791144E+01
 20
1.33217538E+02
 11
2.88791145E+01
 21
1.33217538E+02
  0
LINE
  8
0
 62
7
 10
2.13791144E+01
 20
1.63717538E+02
 11
2.88791145E+01
 21
1.63717538E+02
  0
LINE
  8
0
 62
7
 10
4.06362576E+01
 20
1.28474680E+02
 11
6.71362580E+01
 21
1.28474680E+02
  0
LINE
  8
0
 62
7
 10
2.88791145E+01
 20
1.68474681E+02
 11
2.88791145E+01
 21
1.63474681E+02
  0
LINE
  8
0
 62
7
 10
7.88076868E+01
 20
1.09174680E+02
 11
7.88076868E+01
 21
1.07174680E+02
  0
LINE
  8
0
 62
7
 10
2.89648288E+01
 20
1.09174680E+02
 11
2.89648288E+01
 21
1.07174680E+02
  0
LINE
  8
0
 62
7
 10
7.98791154E+01
 20
1.07174680E+02
 11
2.78791145E+01
 21
1.07174680E+02
  0
LINE
  8
0
 62
7
 10
2.98791145E+01
 20
9.31746798E+01
 11
7.78791153E+01
 21
9.31746798E+01
  0
LINE
  8
0
 62
7
 10
2.78791145E+01
 20
9.51746798E+01
 11
2.98791145E+01
 21
9.31746798E+01
  0
LINE
  8
0
 62
2
 10
2.89648288E+01
 20
9.40889655E+01
 11
2.89648288E+01
 21
1.07174680E+02
  0
LINE
  8
0
 62
7
 10
2.78791145E+01
 20
9.51746798E+01
 11
2.78791145E+01
 21
1.07174680E+02
  0
LINE
  8
0
 62
7
 10
7.98791154E+01
 20
9.51746798E+01
 11
7.78791153E+01
 21
9.31746798E+01
  0
LINE
  8
0
 62
7
 10
7.98791154E+01
 20
9.51746798E+01
 11
7.98791154E+01
 21
1.07174680E+02
  0
LINE
  8
0
 62
2
 10
7.88076868E+01
 20
9.40889655E+01
 11
7.88076868E+01
 21
1.07174680E+02
  0
LINE
  8
0
 62
7
 10
2.08791144E+01
 20
1.32717538E+02
 11
2.08791144E+01
 21
1.11174680E+02
  0
LINE
  8
0
 62
7
 10
2.08791144E+01
 20
1.87474681E+02
 11
2.08791144E+01
 21
1.64217538E+02
  0
ARC
  8
0
 62
4
 10
3.13728618E+01
 20
1.61468428E+02
 40
2.00626251E+00
 50
1.78568597E-01
 51
8.98214316E+01
  0
LINE
  8
0
 62
4
 10
2.28791144E+01
 20
1.63474681E+02
 11
3.13791145E+01
 21
1.63474681E+02
  0
LINE
  8
0
 62
4
 10
2.08791144E+01
 20
1.61474681E+02
 11
2.08791144E+01
 21
1.35474681E+02
  0
LINE
  8
0
 62
4
 10
1.98934001E+01
 20
1.55031824E+02
 11
1.98934001E+01
 21
1.41917538E+02
  0
LINE
  8
0
 62
4
 10
1.92076858E+01
 20
1.53831824E+02
 11
1.92076858E+01
 21
1.43103252E+02
  0
LINE
  8
0
 62
4
 10
1.98934001E+01
 20
1.55031824E+02
 11
2.08791144E+01
 21
1.54988967E+02
  0
LINE
  8
0
 62
4
 10
1.98934001E+01
 20
1.55031824E+02
 11
1.92076858E+01
 21
1.53831824E+02
  0
LINE
  8
0
 62
6
 10
1.94076858E+01
 20
1.54188967E+02
 11
2.08791144E+01
 21
1.54146109E+02
  0
LINE
  8
0
  6
DASHED
 62
6
 10
2.08791144E+01
 20
1.51974681E+02
 11
1.92076858E+01
 21
1.51974681E+02
  0
LINE
  8
0
  6
DASHED
 62
6
 10
2.08791144E+01
 20
1.50217538E+02
 11
1.92076858E+01
 21
1.50217538E+02
  0
ARC
  8
0
 62
4
 10
2.28728964E+01
 20
1.35468462E+02
 40
1.99379170E+00
 50
1.79821311E+02
 51
2.70178688E+02
  0
LINE
  8
0
  6
DASHED
 62
6
 10
2.08791144E+01
 20
1.46717538E+02
 11
1.92076858E+01
 21
1.46717538E+02
  0
LINE
  8
0
  6
DASHED
 62
6
 10
2.08791144E+01
 20
1.44974681E+02
 11
1.92076858E+01
 21
1.44974681E+02
  0
LINE
  8
0
 62
4
 10
1.98934001E+01
 20
1.41917538E+02
 11
1.92076858E+01
 21
1.43103252E+02
  0
LINE
  8
0
 62
6
 10
1.94076858E+01
 20
1.42746109E+02
 11
2.08791144E+01
 21
1.42803252E+02
  0
LINE
  8
0
 62
4
 10
1.98934001E+01
 20
1.41917538E+02
 11
2.08791144E+01
 21
1.41946109E+02
  0
LINE
  8
0
 62
4
 10
2.28791144E+01
 20
1.33474680E+02
 11
3.13791145E+01
 21
1.33474680E+02
  0
LINE
  8
0
 62
4
 10
3.33791146E+01
 20
1.61474681E+02
 11
3.33791146E+01
 21
1.35474681E+02
  0
ARC
  8
0
 62
4
 10
3.13728618E+01
 20
1.35480933E+02
 40
2.00626251E+00
 50
2.70178569E+02
 51
3.59821432E+02
  0
ARC
  8
0
 62
4
 10
2.28728964E+01
 20
1.61480899E+02
 40
1.99379170E+00
 50
8.98213118E+01
 51
1.80178688E+02
  0
ARC
  8
0
 62
7
 10
5.38791149E+01
 20
1.19174679E+02
 40
2.59999996E+01
 50
2.47380134E+02
 51
2.92619866E+02
  0
LINE
  8
0
 62
7
 10
6.38791149E+01
 20
9.51746798E+01
 11
7.98791154E+01
 21
9.51746798E+01
  0
LINE
  8
0
 62
7
 10
4.38791149E+01
 20
9.51746798E+01
 11
4.38791149E+01
 21
1.07174680E+02
  0
LINE
  8
0
 62
7
 10
6.38791149E+01
 20
9.51746798E+01
 11
6.38791149E+01
 21
1.07174680E+02
  0
LINE
  8
0
 62
2
 10
6.38791149E+01
 20
1.07174680E+02
 11
4.38791149E+01
 21
9.51746798E+01
  0
LINE
  8
0
 62
2
 10
4.38791149E+01
 20
1.07174680E+02
 11
6.38791149E+01
 21
9.51746798E+01
  0
LINE
  8
0
 62
7
 10
2.34050546E+02
 20
1.68474681E+02
 11
2.34050546E+02
 21
1.28474680E+02
  0
LINE
  8
0
 62
7
 10
1.44050545E+02
 20
1.68474681E+02
 11
1.44050545E+02
 21
1.28474680E+02
  0
LINE
  8
0
 62
7
 10
1.56050545E+02
 20
1.23174680E+02
 11
2.22050546E+02
 21
1.23174680E+02
  0
LINE
  8
0
 62
7
 10
2.20050546E+02
 20
1.89474681E+02
 11
1.58050545E+02
 21
1.89474681E+02
  0
LINE
  8
0
 62
7
 10
1.56050545E+02
 20
1.87474681E+02
 11
1.56050545E+02
 21
1.63474681E+02
  0
LINE
  8
0
 62
7
 10
2.22050546E+02
 20
1.87474681E+02
 11
2.22050546E+02
 21
1.63474681E+02
  0
LINE
  8
0
 62
7
 10
2.22050546E+02
 20
1.23174680E+02
 11
2.22050546E+02
 21
1.11174680E+02
  0
LINE
  8
0
 62
7
 10
2.20050546E+02
 20
1.09174680E+02
 11
1.58050545E+02
 21
1.09174680E+02
  0
LINE
  8
0
 62
7
 10
1.56050545E+02
 20
1.23174680E+02
 11
1.56050545E+02
 21
1.11174680E+02
  0
LINE
  8
0
 62
7
 10
1.56807688E+02
 20
1.16174680E+02
 11
1.66050545E+02
 21
1.16174680E+02
  0
LINE
  8
0
 62
7
 10
1.66050545E+02
 20
1.16174680E+02
 11
1.66050545E+02
 21
1.11174680E+02
  0
LINE
  8
0
  6
CENTER
 62
2
 10
1.61050545E+02
 20
1.17174680E+02
 11
1.61050545E+02
 21
1.08174680E+02
  0
LINE
  8
0
 62
7
 10
1.56807688E+02
 20
1.82474681E+02
 11
1.66050545E+02
 21
1.82474681E+02
  0
LINE
  8
0
  6
CENTER
 62
2
 10
1.61050545E+02
 20
1.81474681E+02
 11
1.61050545E+02
 21
1.90474681E+02
  0
LINE
  8
0
 62
7
 10
1.66050545E+02
 20
1.82474681E+02
 11
1.66050545E+02
 21
1.87474681E+02
  0
LINE
  8
0
  6
CENTER
 62
2
 10
1.89050545E+02
 20
1.96617539E+02
 11
1.89050545E+02
 21
2.74746787E+01
  0
LINE
  8
0
 62
7
 10
2.12050546E+02
 20
1.16174680E+02
 11
2.12050546E+02
 21
1.11174680E+02
  0
LINE
  8
0
 62
7
 10
2.21307689E+02
 20
1.16174680E+02
 11
2.12050546E+02
 21
1.16174680E+02
  0
LINE
  8
0
  6
CENTER
 62
2
 10
2.17050546E+02
 20
1.17174680E+02
 11
2.17050546E+02
 21
1.08174680E+02
  0
LINE
  8
0
 62
7
 10
2.21307689E+02
 20
1.82474681E+02
 11
2.12050546E+02
 21
1.82474681E+02
  0
LINE
  8
0
  6
CENTER
 62
2
 10
2.17050546E+02
 20
1.81474681E+02
 11
2.17050546E+02
 21
1.90474681E+02
  0
LINE
  8
0
 62
7
 10
2.12050546E+02
 20
1.82474681E+02
 11
2.12050546E+02
 21
1.87474681E+02
  0
LINE
  8
0
 62
7
 10
1.49050545E+02
 20
1.73474681E+02
 11
2.29050546E+02
 21
1.73474681E+02
  0
LINE
  8
0
 62
7
 10
1.49050545E+02
 20
1.23474680E+02
 11
2.29050546E+02
 21
1.23474680E+02
  0
LINE
  8
0
 62
7
 10
1.57050545E+02
 20
1.23474680E+02
 11
1.57050545E+02
 21
1.23174680E+02
  0
LINE
  8
0
 62
7
 10
2.21050546E+02
 20
1.23474680E+02
 11
2.21050546E+02
 21
1.23174680E+02
  0
LINE
  8
0
 62
4
 10
2.34050546E+02
 20
1.33474680E+02
 11
1.44050545E+02
 21
1.33474680E+02
  0
LINE
  8
0
 62
4
 10
2.34050546E+02
 20
1.63474681E+02
 11
1.44050545E+02
 21
1.63474681E+02
  0
LINE
  8
0
 62
7
 10
1.56050545E+02
 20
1.33474680E+02
 11
1.56050545E+02
 21
1.23474680E+02
  0
LINE
  8
0
 62
7
 10
2.22050546E+02
 20
1.33474680E+02
 11
2.22050546E+02
 21
1.23474680E+02
  0
LINE
  8
0
 62
4
 10
1.43793402E+02
 20
1.87474681E+02
 11
1.56050545E+02
 21
1.87474681E+02
  0
LINE
  8
0
 62
4
 10
1.39050544E+02
 20
1.82488967E+02
 11
1.39050544E+02
 21
1.38474681E+02
  0
LINE
  8
0
  6
CENTER
 62
6
 10
1.50050545E+02
 20
1.84488967E+02
 11
1.50050545E+02
 21
1.71488967E+02
  0
LINE
  8
0
  6
CENTER
 62
6
 10
1.52050545E+02
 20
1.84488967E+02
 11
1.52050545E+02
 21
1.71488967E+02
  0
LINE
  8
0
  6
CENTER
 62
6
 10
1.54050545E+02
 20
1.84488967E+02
 11
1.54050545E+02
 21
1.71488967E+02
  0
LINE
  8
0
 62
4
 10
2.22050546E+02
 20
1.87474681E+02
 11
2.34307689E+02
 21
1.87474681E+02
  0
LINE
  8
0
 62
4
 10
2.39050546E+02
 20
1.82488967E+02
 11
2.39050546E+02
 21
1.38474681E+02
  0
LINE
  8
0
  6
CENTER
 62
6
 10
2.28050546E+02
 20
1.84488967E+02
 11
2.28050546E+02
 21
1.71488967E+02
  0
LINE
  8
0
  6
CENTER
 62
6
 10
2.26050546E+02
 20
1.84488967E+02
 11
2.26050546E+02
 21
1.71488967E+02
  0
LINE
  8
0
  6
CENTER
 62
6
 10
2.24050546E+02
 20
1.84488967E+02
 11
2.24050546E+02
 21
1.71488967E+02
  0
LINE
  8
0
 62
4
 10
1.50050545E+02
 20
1.82488967E+02
 11
1.54050545E+02
 21
1.82488967E+02
  0
LINE
  8
0
  6
CENTER
 62
6
 10
1.43550545E+02
 20
1.77988967E+02
 11
1.58050545E+02
 21
1.77988967E+02
  0
LINE
  8
0
 62
4
 10
2.28050546E+02
 20
1.82488967E+02
 11
2.24050546E+02
 21
1.82488967E+02
  0
LINE
  8
0
 62
4
 10
1.50050545E+02
 20
1.73488967E+02
 11
1.54050545E+02
 21
1.73488967E+02
  0
LINE
  8
0
 62
4
 10
2.24050546E+02
 20
1.73488967E+02
 11
2.28050546E+02
 21
1.73488967E+02
  0
LINE
  8
0
  6
CENTER
 62
6
 10
2.34550546E+02
 20
1.77988967E+02
 11
2.20050546E+02
 21
1.77988967E+02
  0
ARC
  8
0
 62
7
 10
2.29054119E+02
 20
1.68478254E+02
 40
4.99642859E+00
 50
3.59959030E+02
 51
9.00409701E+01
  0
ARC
  8
0
 62
7
 10
2.29054118E+02
 20
1.28471109E+02
 40
4.99642947E+00
 50
2.69959040E+02
 51
4.09601564E-02
  0
ARC
  8
0
 62
7
 10
1.49054130E+02
 20
1.68471096E+02
 40
5.00358673E+00
 50
9.00410555E+01
 51
1.79958945E+02
  0
ARC
  8
0
 62
7
 10
1.49054131E+02
 20
1.28478267E+02
 40
5.00358760E+00
 50
1.80041066E+02
 51
2.69958934E+02
  0
ARC
  8
0
 62
7
 10
1.58054132E+02
 20
1.87471094E+02
 40
2.00359050E+00
 50
9.01025831E+01
 51
1.79897417E+02
  0
ARC
  8
0
 62
7
 10
2.20054106E+02
 20
1.87478241E+02
 40
1.99644327E+00
 50
3.59897833E+02
 51
9.01021666E+01
  0
ARC
  8
0
 62
7
 10
2.20054103E+02
 20
1.11171123E+02
 40
1.99644588E+00
 50
2.69897909E+02
 51
1.02091223E-01
  0
ARC
  8
0
 62
7
 10
1.58054135E+02
 20
1.11178270E+02
 40
2.00359311E+00
 50
1.80102658E+02
 51
2.69897343E+02
  0
ARC
  8
0
 62
7
 10
1.58054130E+02
 20
1.18178266E+02
 40
2.00358875E+00
 50
1.80102533E+02
 51
2.69897466E+02
  0
ARC
  8
0
 62
7
 10
1.68054135E+02
 20
1.11178270E+02
 40
2.00359311E+00
 50
1.80102658E+02
 51
2.69897343E+02
  0
ARC
  8
0
 62
7
 10
1.58054106E+02
 20
1.80471120E+02
 40
2.00356434E+00
 50
9.01018377E+01
 51
1.79898162E+02
  0
ARC
  8
0
 62
7
 10
1.68054132E+02
 20
1.87471094E+02
 40
2.00359050E+00
 50
9.01025831E+01
 51
1.79897417E+02
  0
ARC
  8
0
 62
7
 10
2.10054103E+02
 20
1.11171123E+02
 40
1.99644588E+00
 50
2.69897909E+02
 51
1.02091223E-01
  0
ARC
  8
0
 62
7
 10
2.20054107E+02
 20
1.18171119E+02
 40
1.99644152E+00
 50
2.69897783E+02
 51
1.02216787E-01
  0
ARC
  8
0
 62
7
 10
2.20054132E+02
 20
1.80478267E+02
 40
1.99641711E+00
 50
3.59897080E+02
 51
9.01029200E+01
  0
ARC
  8
0
 62
7
 10
2.10054106E+02
 20
1.87478241E+02
 40
1.99644327E+00
 50
3.59897833E+02
 51
9.01021666E+01
  0
ARC
  8
0
 62
4
 10
1.44057836E+02
 20
1.82481676E+02
 40
5.00729692E+00
 50
9.00834332E+01
 51
1.79916567E+02
  0
ARC
  8
0
 62
4
 10
1.50050545E+02
 20
1.77988967E+02
 40
4.50000578E+00
 50
9.00000002E+01
 51
2.70000000E+02
  0
ARC
  8
0
 62
4
 10
2.34050407E+02
 20
1.82488828E+02
 40
5.00013883E+00
 50
1.58977572E-03
 51
9.00000002E+01
  0
ARC
  8
0
 62
4
 10
2.28050546E+02
 20
1.77988967E+02
 40
4.50000576E+00
 50
2.70000000E+02
 51
9.00000002E+01
  0
ARC
  8
0
 62
4
 10
1.54044371E+02
 20
1.77984637E+02
 40
4.50433408E+00
 50
6.35518724E+01
 51
8.99214700E+01
  0
ARC
  8
0
 62
4
 10
1.54047700E+02
 20
1.77979175E+02
 40
4.49020853E+00
 50
2.70036301E+02
 51
2.96490357E+02
  0
ARC
  8
0
 62
4
 10
2.24057468E+02
 20
1.77981460E+02
 40
4.50751240E+00
 50
9.00879939E+01
 51
1.16438663E+02
  0
ARC
  8
0
 62
4
 10
2.24054142E+02
 20
1.77982362E+02
 40
4.49339629E+00
 50
2.43519197E+02
 51
2.69954146E+02
  0
ARC
  8
0
 62
4
 10
2.34054129E+02
 20
1.38471098E+02
 40
4.99641858E+00
 50
2.69958915E+02
 51
4.10851406E-02
  0
ARC
  8
0
 62
4
 10
2.34054130E+02
 20
1.58478265E+02
 40
4.99641771E+00
 50
3.59958905E+02
 51
9.00410950E+01
  0
ARC
  8
0
 62
4
 10
1.44054108E+02
 20
1.58471117E+02
 40
5.00356490E+00
 50
9.00408062E+01
 51
1.79959194E+02
  0
ARC
  8
0
 62
4
 10
1.44054109E+02
 20
1.38478245E+02
 40
5.00356577E+00
 50
1.80040816E+02
 51
2.69959184E+02
  0
LINE
  8
0
 62
7
 10
2.21307700E+02
 20
1.11474701E+02
 11
2.21307702E+02
 21
1.16174701E+02
  0
LINE
  8
0
 62
7
 10
2.21307700E+02
 20
1.11474701E+02
 11
2.20787700E+02
 21
1.11174701E+02
  0
LINE
  8
0
 62
7
 10
2.12807700E+02
 20
1.11474703E+02
 11
2.21307700E+02
 21
1.11474701E+02
  0
LINE
  8
0
 62
7
 10
2.13327700E+02
 20
1.11174703E+02
 11
2.20787700E+02
 21
1.11174701E+02
  0
LINE
  8
0
 62
7
 10
2.12807700E+02
 20
1.11474703E+02
 11
2.13327700E+02
 21
1.11174703E+02
  0
LINE
  8
0
 62
7
 10
2.12807700E+02
 20
1.11474703E+02
 11
2.12807702E+02
 21
1.16174703E+02
  0
LINE
  8
0
 62
7
 10
1.56807704E+02
 20
1.87174663E+02
 11
1.56807705E+02
 21
1.82474663E+02
  0
LINE
  8
0
 62
7
 10
1.56807704E+02
 20
1.87174663E+02
 11
1.57327704E+02
 21
1.87474664E+02
  0
LINE
  8
0
 62
7
 10
1.65307704E+02
 20
1.87174666E+02
 11
1.56807704E+02
 21
1.87174663E+02
  0
LINE
  8
0
 62
7
 10
1.64787704E+02
 20
1.87474666E+02
 11
1.57327704E+02
 21
1.87474664E+02
  0
LINE
  8
0
 62
7
 10
1.65307704E+02
 20
1.87174666E+02
 11
1.64787704E+02
 21
1.87474666E+02
  0
LINE
  8
0
 62
7
 10
1.65307704E+02
 20
1.87174666E+02
 11
1.65307705E+02
 21
1.82474666E+02
  0
LINE
  8
0
 62
7
 10
2.12807700E+02
 20
1.87174663E+02
 11
2.12807702E+02
 21
1.82474663E+02
  0
LINE
  8
0
 62
7
 10
2.12807700E+02
 20
1.87174663E+02
 11
2.13327700E+02
 21
1.87474664E+02
  0
LINE
  8
0
 62
7
 10
2.21307700E+02
 20
1.87174666E+02
 11
2.12807700E+02
 21
1.87174663E+02
  0
LINE
  8
0
 62
7
 10
2.20787700E+02
 20
1.87474666E+02
 11
2.13327700E+02
 21
1.87474664E+02
  0
LINE
  8
0
 62
7
 10
2.21307700E+02
 20
1.87174666E+02
 11
2.20787700E+02
 21
1.87474666E+02
  0
LINE
  8
0
 62
7
 10
2.21307700E+02
 20
1.87174666E+02
 11
2.21307702E+02
 21
1.82474666E+02
  0
LINE
  8
0
 62
7
 10
1.65307704E+02
 20
1.11474701E+02
 11
1.65307705E+02
 21
1.16174701E+02
  0
LINE
  8
0
 62
7
 10
1.65307704E+02
 20
1.11474701E+02
 11
1.64787704E+02
 21
1.11174701E+02
  0
LINE
  8
0
 62
7
 10
1.56807704E+02
 20
1.11474703E+02
 11
1.65307704E+02
 21
1.11474701E+02
  0
LINE
  8
0
 62
7
 10
1.57327704E+02
 20
1.11174703E+02
 11
1.64787704E+02
 21
1.11174701E+02
  0
LINE
  8
0
 62
7
 10
1.56807704E+02
 20
1.11474703E+02
 11
1.57327704E+02
 21
1.11174703E+02
  0
LINE
  8
0
 62
7
 10
1.56807704E+02
 20
1.11474703E+02
 11
1.56807705E+02
 21
1.16174703E+02
  0
LINE
  8
0
 62
4
 10
1.89050545E+02
 20
1.44974681E+02
 11
1.92093402E+02
 21
1.46717538E+02
  0
LINE
  8
0
 62
4
 10
1.86021974E+02
 20
1.50217538E+02
 11
1.89050545E+02
 21
1.51974681E+02
  0
LINE
  8
0
 62
4
 10
1.86021974E+02
 20
1.46717538E+02
 11
1.89050545E+02
 21
1.44974681E+02
  0
LINE
  8
0
 62
4
 10
1.86021974E+02
 20
1.50217538E+02
 11
1.86021974E+02
 21
1.46717538E+02
  0
CIRCLE
  8
0
 62
4
 10
1.89063040E+02
 20
1.48474655E+02
 40
5.36606389E+00
  0
CIRCLE
  8
0
 62
4
 10
1.89063040E+02
 20
1.48474655E+02
 40
6.57850004E+00
  0
CIRCLE
  8
0
 62
4
 10
1.89063040E+02
 20
1.48474655E+02
 40
3.49999979E+00
  0
LINE
  8
0
 62
4
 10
1.92093402E+02
 20
1.50217538E+02
 11
1.92093402E+02
 21
1.46717538E+02
  0
LINE
  8
0
 62
4
 10
1.89050545E+02
 20
1.51974681E+02
 11
1.92093402E+02
 21
1.50217538E+02
  0
LINE
  8
0
  6
CENTER
 62
2
 10
2.14050546E+02
 20
1.55974681E+02
 11
2.14050546E+02
 21
1.40974681E+02
  0
LINE
  8
0
  6
CENTER
 62
2
 10
1.64050545E+02
 20
1.55974681E+02
 11
1.64050545E+02
 21
1.40974681E+02
  0
CIRCLE
  8
0
 62
4
 10
2.14050546E+02
 20
1.48474659E+02
 40
5.49999928E+00
  0
CIRCLE
  8
0
 62
4
 10
1.64050545E+02
 20
1.48474659E+02
 40
5.49999928E+00
  0
CIRCLE
  8
0
 62
4
 10
1.64050545E+02
 20
1.48474659E+02
 40
2.89829731E+00
  0
CIRCLE
  8
0
 62
4
 10
1.64050545E+02
 20
1.48474659E+02
 40
3.96076870E+00
  0
CIRCLE
  8
0
 62
4
 10
1.64050545E+02
 20
1.48474659E+02
 40
5.00000000E+00
  0
LINE
  8
0
 62
4
 10
1.61540545E+02
 20
1.47034659E+02
 11
1.64050545E+02
 21
1.45584659E+02
  0
LINE
  8
0
 62
4
 10
1.64050545E+02
 20
1.51364659E+02
 11
1.66560545E+02
 21
1.49914659E+02
  0
LINE
  8
0
 62
4
 10
1.64050545E+02
 20
1.45584659E+02
 11
1.66560545E+02
 21
1.47034659E+02
  0
LINE
  8
0
 62
4
 10
1.61540545E+02
 20
1.49914659E+02
 11
1.64050545E+02
 21
1.51364659E+02
  0
LINE
  8
0
 62
4
 10
1.66560545E+02
 20
1.49914659E+02
 11
1.66560545E+02
 21
1.47034659E+02
  0
LINE
  8
0
 62
4
 10
1.61540545E+02
 20
1.49914659E+02
 11
1.61540545E+02
 21
1.47034659E+02
  0
CIRCLE
  8
0
 62
4
 10
2.14050546E+02
 20
1.48474659E+02
 40
2.89829731E+00
  0
CIRCLE
  8
0
 62
4
 10
2.14050546E+02
 20
1.48474659E+02
 40
3.96076870E+00
  0
CIRCLE
  8
0
 62
4
 10
2.14050546E+02
 20
1.48474659E+02
 40
5.00000000E+00
  0
LINE
  8
0
 62
4
 10
2.11540546E+02
 20
1.47034659E+02
 11
2.14050546E+02
 21
1.45584659E+02
  0
LINE
  8
0
 62
4
 10
2.14050546E+02
 20
1.51364659E+02
 11
2.16560546E+02
 21
1.49914659E+02
  0
LINE
  8
0
 62
4
 10
2.14050546E+02
 20
1.45584659E+02
 11
2.16560546E+02
 21
1.47034659E+02
  0
LINE
  8
0
 62
4
 10
2.11540546E+02
 20
1.49914659E+02
 11
2.14050546E+02
 21
1.51364659E+02
  0
LINE
  8
0
 62
4
 10
2.16560546E+02
 20
1.49914659E+02
 11
2.16560546E+02
 21
1.47034659E+02
  0
LINE
  8
0
 62
4
 10
2.11540546E+02
 20
1.49914659E+02
 11
2.11540546E+02
 21
1.47034659E+02
  0
LINE
  8
0
 62
7
 10
1.66679116E+02
 20
9.31746798E+01
 11
1.67150545E+02
 21
8.24746796E+01
  0
LINE
  8
0
 62
7
 10
1.71307688E+02
 20
3.24746788E+01
 11
2.06807688E+02
 21
3.24746788E+01
  0
LINE
  8
0
 62
7
 10
2.06450546E+02
 20
3.53603931E+01
 11
2.07750546E+02
 21
7.24746795E+01
  0
LINE
  8
0
 62
7
 10
1.70364831E+02
 20
7.24746795E+01
 11
1.71664831E+02
 21
3.53603931E+01
  0
LINE
  8
0
 62
7
 10
1.65164831E+02
 20
8.24746796E+01
 11
2.12950546E+02
 21
8.24746796E+01
  0
LINE
  8
0
 62
7
 10
1.65007688E+02
 20
7.24746795E+01
 11
1.65250545E+02
 21
7.23318223E+01
  0
LINE
  8
0
 62
7
 10
1.65250545E+02
 20
7.23318223E+01
 11
1.66150545E+02
 21
4.64746790E+01
  0
LINE
  8
0
 62
7
 10
1.65164831E+02
 20
8.24746796E+01
 11
1.64679116E+02
 21
8.19889653E+01
  0
LINE
  8
0
 62
7
 10
2.12950546E+02
 20
8.24746796E+01
 11
2.13436260E+02
 21
8.19889653E+01
  0
LINE
  8
0
 62
7
 10
2.11436260E+02
 20
9.31746798E+01
 11
2.10964831E+02
 21
8.24746796E+01
  0
LINE
  8
0
 62
7
 10
2.04321974E+02
 20
8.24746796E+01
 11
2.04550546E+02
 21
9.31746798E+01
  0
LINE
  8
0
 62
7
 10
1.73550545E+02
 20
9.31746798E+01
 11
1.73793402E+02
 21
8.24746796E+01
  0
LINE
  8
0
 62
7
 10
1.93050545E+02
 20
7.24746795E+01
 11
1.93050545E+02
 21
3.53603931E+01
  0
LINE
  8
0
 62
7
 10
1.85050545E+02
 20
7.24746795E+01
 11
1.85050545E+02
 21
3.53603931E+01
  0
LINE
  8
0
 62
7
 10
1.85050545E+02
 20
3.53603931E+01
 11
1.93050545E+02
 21
3.53603931E+01
  0
LINE
  8
0
 62
7
 10
1.93050545E+02
 20
7.24746795E+01
 11
2.07750546E+02
 21
7.24746795E+01
  0
LINE
  8
0
 62
7
 10
1.83579117E+02
 20
4.26746789E+01
 11
1.83579117E+02
 21
3.24746788E+01
  0
LINE
  8
0
 62
7
 10
1.94536260E+02
 20
4.26746789E+01
 11
1.94536260E+02
 21
3.24746788E+01
  0
LINE
  8
0
 62
7
 10
1.93050545E+02
 20
3.53603931E+01
 11
1.94536260E+02
 21
3.24746788E+01
  0
LINE
  8
0
 62
7
 10
1.85050545E+02
 20
3.53603931E+01
 11
1.83579117E+02
 21
3.24746788E+01
  0
LINE
  8
0
 62
7
 10
2.06450546E+02
 20
3.53603931E+01
 11
2.00936260E+02
 21
3.24746788E+01
  0
LINE
  8
0
 62
7
 10
1.85050545E+02
 20
7.24746795E+01
 11
1.70364831E+02
 21
7.24746795E+01
  0
LINE
  8
0
 62
7
 10
1.85050545E+02
 20
4.64746790E+01
 11
1.71279116E+02
 21
4.64746790E+01
  0
LINE
  8
0
 62
7
 10
1.83579117E+02
 20
4.26746789E+01
 11
1.76407688E+02
 21
4.26746789E+01
  0
LINE
  8
0
 62
7
 10
1.71664831E+02
 20
3.53603931E+01
 11
1.77179117E+02
 21
3.24746788E+01
  0
LINE
  8
0
 62
7
 10
1.71664831E+02
 20
3.53603931E+01
 11
1.66807688E+02
 21
3.53603931E+01
  0
LINE
  8
0
 62
7
 10
1.93050545E+02
 20
4.64746790E+01
 11
1.94536260E+02
 21
4.26746789E+01
  0
LINE
  8
0
 62
7
 10
1.85050545E+02
 20
4.64746790E+01
 11
1.83579117E+02
 21
4.26746789E+01
  0
LINE
  8
0
 62
7
 10
1.64679116E+02
 20
8.19889653E+01
 11
1.65007688E+02
 21
7.24746795E+01
  0
LINE
  8
0
 62
7
 10
1.76407688E+02
 20
4.26746789E+01
 11
1.77179117E+02
 21
3.24746788E+01
  0
LINE
  8
0
 62
7
 10
1.71279116E+02
 20
4.64746790E+01
 11
1.76407688E+02
 21
4.26746789E+01
  0
LINE
  8
0
 62
7
 10
1.94536260E+02
 20
4.26746789E+01
 11
2.01707688E+02
 21
4.26746789E+01
  0
LINE
  8
0
 62
7
 10
1.93050545E+02
 20
4.64746790E+01
 11
2.06836260E+02
 21
4.64746790E+01
  0
LINE
  8
0
 62
7
 10
2.06836260E+02
 20
4.64746790E+01
 11
2.01707688E+02
 21
4.26746789E+01
  0
LINE
  8
0
 62
7
 10
2.01707688E+02
 20
4.26746789E+01
 11
2.00936260E+02
 21
3.24746788E+01
  0
LINE
  8
0
 62
7
 10
1.66421973E+02
 20
4.64746790E+01
 11
1.66807688E+02
 21
3.53746788E+01
  0
LINE
  8
0
 62
7
 10
1.66150545E+02
 20
4.64746790E+01
 11
1.66421973E+02
 21
4.64746790E+01
  0
LINE
  8
0
 62
7
 10
1.71307688E+02
 20
3.24746788E+01
 11
1.66807688E+02
 21
3.53603931E+01
  0
LINE
  8
0
 62
7
 10
2.13436260E+02
 20
8.19889653E+01
 11
2.13107689E+02
 21
7.24746795E+01
  0
LINE
  8
0
 62
7
 10
2.12850546E+02
 20
7.23318223E+01
 11
2.11950546E+02
 21
4.64746790E+01
  0
LINE
  8
0
 62
7
 10
2.13107689E+02
 20
7.24746795E+01
 11
2.12850546E+02
 21
7.23318223E+01
  0
LINE
  8
0
 62
7
 10
2.11950546E+02
 20
4.64746790E+01
 11
2.11693403E+02
 21
4.64746790E+01
  0
LINE
  8
0
 62
7
 10
2.11693403E+02
 20
4.64746790E+01
 11
2.11307689E+02
 21
3.53746788E+01
  0
LINE
  8
0
 62
7
 10
2.06807688E+02
 20
3.24746788E+01
 11
2.11307689E+02
 21
3.53603931E+01
  0
LINE
  8
0
 62
7
 10
1.84550545E+02
 20
9.31746798E+01
 11
1.84550545E+02
 21
8.24746796E+01
  0
LINE
  8
0
 62
7
 10
1.93550545E+02
 20
9.31746798E+01
 11
1.93550545E+02
 21
8.24746796E+01
  0
LINE
  8
0
 62
7
 10
2.00550545E+02
 20
8.66746797E+01
 11
1.97050545E+02
 21
8.66746797E+01
  0
LINE
  8
0
 62
7
 10
1.97050545E+02
 20
8.66746797E+01
 11
1.97050545E+02
 21
8.24746796E+01
  0
LINE
  8
0
 62
7
 10
1.81050545E+02
 20
8.66746797E+01
 11
1.81050545E+02
 21
8.24746796E+01
  0
LINE
  8
0
 62
7
 10
1.81050545E+02
 20
8.66746797E+01
 11
1.77550545E+02
 21
8.66746797E+01
  0
LINE
  8
0
 62
7
 10
1.99050545E+02
 20
8.66746797E+01
 11
1.99050545E+02
 21
8.24746796E+01
  0
LINE
  8
0
 62
7
 10
2.00550545E+02
 20
8.66746797E+01
 11
2.00550545E+02
 21
8.24746796E+01
  0
LINE
  8
0
 62
7
 10
1.79050545E+02
 20
8.66746797E+01
 11
1.79050545E+02
 21
8.24746796E+01
  0
LINE
  8
0
 62
7
 10
1.77550545E+02
 20
8.66746797E+01
 11
1.77550545E+02
 21
8.24746796E+01
  0
LINE
  8
0
 62
7
 10
2.13050546E+02
 20
9.31746798E+01
 11
1.65050545E+02
 21
9.31746798E+01
  0
LINE
  8
0
 62
7
 10
1.65050545E+02
 20
9.51746798E+01
 11
2.13050546E+02
 21
9.51746798E+01
  0
LINE
  8
0
 62
7
 10
2.13050546E+02
 20
9.31746798E+01
 11
2.13050546E+02
 21
1.09174680E+02
  0
LINE
  8
0
 62
7
 10
1.65050545E+02
 20
9.31746798E+01
 11
1.65050545E+02
 21
1.09174680E+02
  0
LINE
  8
0
 62
7
 10
2.13050546E+02
 20
1.07174680E+02
 11
1.65050545E+02
 21
1.07174680E+02
  0
LINE
  8
0
  6
CENTER
 62
2
 10
2.43466951E+02
 20
1.48474681E+02
 11
1.35566997E+02
 21
1.48474681E+02
  0
LINE
  8
0
  6
CENTER
 62
2
 10
3.55707691E+02
 20
1.48474681E+02
 11
2.52529276E+02
 21
1.48474681E+02
  0
LINE
  8
0
  6
CENTER
 62
6
 10
3.35207691E+02
 20
1.77988967E+02
 11
3.60207691E+02
 21
1.77988967E+02
  0
LINE
  8
0
  6
CENTER
 62
2
 10
2.92707690E+02
 20
1.96617539E+02
 11
2.92707690E+02
 21
2.74746787E+01
  0
LINE
  8
0
 62
7
 10
2.59707689E+02
 20
1.87474681E+02
 11
2.59707689E+02
 21
1.64231824E+02
  0
LINE
  8
0
 62
7
 10
2.59707689E+02
 20
1.32731823E+02
 11
2.59707689E+02
 21
1.11174680E+02
  0
LINE
  8
0
 62
7
 10
2.67707689E+02
 20
1.68474681E+02
 11
2.67707689E+02
 21
1.63474681E+02
  0
LINE
  8
0
 62
7
 10
2.79450547E+02
 20
1.28474680E+02
 11
3.05950547E+02
 21
1.28474680E+02
  0
LINE
  8
0
 62
7
 10
2.60207689E+02
 20
1.63731824E+02
 11
2.67707689E+02
 21
1.63731824E+02
  0
LINE
  8
0
 62
7
 10
2.60207689E+02
 20
1.33231823E+02
 11
2.67707689E+02
 21
1.33231823E+02
  0
LINE
  8
0
 62
7
 10
2.90907690E+02
 20
1.44074681E+02
 11
2.90907690E+02
 21
1.41717538E+02
  0
LINE
  8
0
 62
7
 10
2.67707689E+02
 20
1.33474680E+02
 11
2.67707689E+02
 21
1.28474680E+02
  0
LINE
  8
0
 62
7
 10
2.77450547E+02
 20
1.23974680E+02
 11
2.77450547E+02
 21
1.26474680E+02
  0
LINE
  8
0
 62
7
 10
3.07950547E+02
 20
1.23974680E+02
 11
3.07950547E+02
 21
1.26474680E+02
  0
LINE
  8
0
 62
7
 10
3.23707690E+02
 20
1.89474681E+02
 11
2.61707689E+02
 21
1.89474681E+02
  0
LINE
  8
0
 62
7
 10
2.61707689E+02
 20
1.09174680E+02
 11
3.23707690E+02
 21
1.09174680E+02
  0
LINE
  8
0
 62
7
 10
2.59707689E+02
 20
1.23174680E+02
 11
3.25707690E+02
 21
1.23174680E+02
  0
LINE
  8
0
 62
7
 10
3.17707690E+02
 20
1.68474681E+02
 11
3.17707690E+02
 21
1.63474681E+02
  0
LINE
  8
0
 62
7
 10
2.79450547E+02
 20
1.68474681E+02
 11
3.05950547E+02
 21
1.68474681E+02
  0
LINE
  8
0
 62
7
 10
2.77450547E+02
 20
1.70474681E+02
 11
2.77450547E+02
 21
1.72974681E+02
  0
LINE
  8
0
 62
7
 10
3.07950547E+02
 20
1.70474681E+02
 11
3.07950547E+02
 21
1.72974681E+02
  0
LINE
  8
0
 62
7
 10
2.59707689E+02
 20
1.23474680E+02
 11
3.25707690E+02
 21
1.23474680E+02
  0
LINE
  8
0
 62
7
 10
2.94507690E+02
 20
1.44074681E+02
 11
2.94507690E+02
 21
1.41717538E+02
  0
LINE
  8
0
 62
4
 10
3.13207690E+02
 20
1.61474681E+02
 11
3.13207690E+02
 21
1.35474681E+02
  0
LINE
  8
0
 62
7
 10
3.25707690E+02
 20
1.87474681E+02
 11
3.25707690E+02
 21
1.64231824E+02
  0
LINE
  8
0
 62
7
 10
3.17707690E+02
 20
1.63731824E+02
 11
3.25207690E+02
 21
1.63731824E+02
  0
LINE
  8
0
 62
7
 10
3.17707690E+02
 20
1.33231823E+02
 11
3.25207690E+02
 21
1.33231823E+02
  0
LINE
  8
0
 62
7
 10
3.25707690E+02
 20
1.32731823E+02
 11
3.25707690E+02
 21
1.11174680E+02
  0
LINE
  8
0
  6
CENTER
 62
2
 10
2.64707689E+02
 20
1.17174680E+02
 11
2.64707689E+02
 21
1.08174680E+02
  0
LINE
  8
0
 62
7
 10
2.60450546E+02
 20
1.16174680E+02
 11
2.69707690E+02
 21
1.16174680E+02
  0
LINE
  8
0
 62
7
 10
2.69707690E+02
 20
1.16174680E+02
 11
2.69707690E+02
 21
1.11174680E+02
  0
LINE
  8
0
 62
7
 10
3.24950548E+02
 20
1.16174680E+02
 11
3.15707690E+02
 21
1.16174680E+02
  0
LINE
  8
0
 62
7
 10
3.15707690E+02
 20
1.16174680E+02
 11
3.15707690E+02
 21
1.11174680E+02
  0
LINE
  8
0
  6
CENTER
 62
2
 10
3.20707690E+02
 20
1.17174680E+02
 11
3.20707690E+02
 21
1.08174680E+02
  0
LINE
  8
0
 62
7
 10
2.60450546E+02
 20
1.82474681E+02
 11
2.69707690E+02
 21
1.82474681E+02
  0
LINE
  8
0
  6
CENTER
 62
2
 10
2.64707689E+02
 20
1.81474681E+02
 11
2.64707689E+02
 21
1.90474681E+02
  0
LINE
  8
0
 62
7
 10
2.69707690E+02
 20
1.82474681E+02
 11
2.69707690E+02
 21
1.87474681E+02
  0
LINE
  8
0
 62
7
 10
3.15707690E+02
 20
1.82474681E+02
 11
3.15707690E+02
 21
1.87474681E+02
  0
LINE
  8
0
 62
7
 10
3.24950548E+02
 20
1.82474681E+02
 11
3.15707690E+02
 21
1.82474681E+02
  0
LINE
  8
0
  6
CENTER
 62
2
 10
3.20707690E+02
 20
1.81474681E+02
 11
3.20707690E+02
 21
1.90474681E+02
  0
LINE
  8
0
 62
7
 10
2.59707689E+02
 20
1.73474681E+02
 11
3.25707690E+02
 21
1.73474681E+02
  0
LINE
  8
0
 62
4
 10
3.37707691E+02
 20
1.63474681E+02
 11
3.15207690E+02
 21
1.63474681E+02
  0
LINE
  8
0
 62
4
 10
3.42707691E+02
 20
1.68474681E+02
 11
3.37707691E+02
 21
1.63474681E+02
  0
LINE
  8
0
 62
4
 10
3.52207691E+02
 20
1.87474681E+02
 11
3.42993405E+02
 21
1.87474681E+02
  0
LINE
  8
0
 62
4
 10
3.52707691E+02
 20
1.86974681E+02
 11
3.52707691E+02
 21
1.33974681E+02
  0
LINE
  8
0
 62
4
 10
3.52207691E+02
 20
1.33474680E+02
 11
3.15207690E+02
 21
1.33474680E+02
  0
LINE
  8
0
 62
4
 10
3.42707691E+02
 20
1.87388967E+02
 11
3.42707691E+02
 21
1.68474681E+02
  0
LINE
  8
0
 62
4
 10
3.42564834E+02
 20
1.87231824E+02
 11
3.28850548E+02
 21
1.63474681E+02
  0
LINE
  8
0
 62
4
 10
3.33707691E+02
 20
1.71988967E+02
 11
3.33707691E+02
 21
1.71903253E+02
  0
ARC
  8
0
 62
4
 10
3.52210367E+02
 20
1.86977357E+02
 40
4.97331376E-01
 50
3.59691725E+02
 51
9.03082744E+01
  0
ARC
  8
0
 62
7
 10
2.76956758E+02
 20
1.72980892E+02
 40
4.93828218E-01
 50
3.59279375E+02
 51
9.07206247E+01
  0
ARC
  8
0
 62
7
 10
3.23710345E+02
 20
1.87477336E+02
 40
1.99734681E+00
 50
3.59923839E+02
 51
9.00761606E+01
  0
ARC
  8
0
 62
7
 10
2.61710389E+02
 20
1.18177380E+02
 40
2.00270138E+00
 50
1.80077232E+02
 51
2.69922769E+02
  0
ARC
  8
0
 62
7
 10
3.13710356E+02
 20
1.87477347E+02
 40
1.99733594E+00
 50
3.59923526E+02
 51
9.00764734E+01
  0
ARC
  8
0
 62
7
 10
2.61710380E+02
 20
1.87471991E+02
 40
2.00269222E+00
 50
9.00769702E+01
 51
1.79923030E+02
  0
ARC
  8
0
 62
7
 10
3.12710367E+02
 20
1.28472003E+02
 40
4.99732382E+00
 50
2.69969308E+02
 51
3.06923840E-02
  0
ARC
  8
0
 62
4
 10
3.52210396E+02
 20
1.33971975E+02
 40
4.97301965E-01
 50
2.69688300E+02
 51
3.11699756E-01
  0
ARC
  8
0
 62
7
 10
3.23710343E+02
 20
1.11172028E+02
 40
1.99734943E+00
 50
2.69923915E+02
 51
7.60855815E-02
  0
ARC
  8
0
 62
7
 10
2.60206831E+02
 20
1.64230966E+02
 40
4.99142638E-01
 50
1.79901499E+02
 51
2.70000000E+02
  0
ARC
  8
0
 62
7
 10
2.72710368E+02
 20
1.68472003E+02
 40
5.00267922E+00
 50
9.00306758E+01
 51
1.79969324E+02
  0
ARC
  8
0
 62
7
 10
2.61710382E+02
 20
1.11177373E+02
 40
2.00269484E+00
 50
1.80077045E+02
 51
2.69922955E+02
  0
ARC
  8
0
 62
7
 10
2.79456784E+02
 20
1.26468443E+02
 40
2.00624692E+00
 50
9.01781265E+01
 51
1.79821874E+02
  0
ARC
  8
0
 62
7
 10
3.08456858E+02
 20
1.23980991E+02
 40
5.06349793E-01
 50
1.80714076E+02
 51
2.69285924E+02
  0
ARC
  8
0
 62
7
 10
3.05956809E+02
 20
1.26480943E+02
 40
1.99374774E+00
 50
3.59820040E+02
 51
9.01799599E+01
  0
ARC
  8
0
 62
7
 10
2.76956735E+02
 20
1.23968492E+02
 40
4.93850883E-01
 50
2.69282072E+02
 51
7.17928247E-01
  0
ARC
  8
0
 62
7
 10
3.25206785E+02
 20
1.32730918E+02
 40
5.00906254E-01
 50
1.03566670E-01
 51
9.00000002E+01
  0
ARC
  8
0
 62
7
 10
2.72710369E+02
 20
1.28477360E+02
 40
5.00268009E+00
 50
1.80030686E+02
 51
2.69969314E+02
  0
ARC
  8
0
 62
7
 10
3.23710372E+02
 20
1.80477362E+02
 40
1.99732065E+00
 50
3.59923087E+02
 51
9.00769135E+01
  0
ARC
  8
0
 62
4
 10
3.42995615E+02
 20
1.86971202E+02
 40
5.03483843E-01
 50
9.02514416E+01
 51
1.48826123E+02
  0
ARC
  8
0
 62
4
 10
3.15210387E+02
 20
1.61471984E+02
 40
2.00269876E+00
 50
9.00771564E+01
 51
1.79922844E+02
  0
ARC
  8
0
 62
4
 10
3.15210366E+02
 20
1.35477357E+02
 40
2.00267783E+00
 50
1.80076560E+02
 51
2.69923440E+02
  0
ARC
  8
0
 62
7
 10
2.61710354E+02
 20
1.80472017E+02
 40
2.00266607E+00
 50
9.00762236E+01
 51
1.79923776E+02
  0
ARC
  8
0
 62
7
 10
3.13710354E+02
 20
1.11172017E+02
 40
1.99733856E+00
 50
2.69923602E+02
 51
7.63982302E-02
  0
ARC
  8
0
 62
7
 10
2.71710383E+02
 20
1.11177373E+02
 40
2.00269484E+00
 50
1.80077045E+02
 51
2.69922955E+02
  0
CIRCLE
  8
0
 62
7
 10
2.92713046E+02
 20
1.44074657E+02
 40
1.80000308E+00
  0
ARC
  8
0
 62
7
 10
2.71710380E+02
 20
1.87471991E+02
 40
2.00269222E+00
 50
9.00769702E+01
 51
1.79923030E+02
  0
ARC
  8
0
 62
7
 10
3.23710336E+02
 20
1.18172034E+02
 40
1.99735597E+00
 50
2.69924103E+02
 51
7.58974909E-02
  0
CIRCLE
  8
0
 62
7
 10
2.92713046E+02
 20
1.48474682E+02
 40
6.99999957E+00
  0
CIRCLE
  8
0
 62
7
 10
2.92713046E+02
 20
1.44074657E+02
 40
1.09999846E+00
  0
ARC
  8
0
 62
7
 10
2.79456807E+02
 20
1.70480941E+02
 40
2.00626959E+00
 50
1.80178770E+02
 51
2.69821230E+02
  0
ARC
  8
0
 62
7
 10
3.05956787E+02
 20
1.70468442E+02
 40
1.99377041E+00
 50
2.69820696E+02
 51
1.79304143E-01
  0
ARC
  8
0
 62
7
 10
3.25213943E+02
 20
1.64225571E+02
 40
4.93786915E-01
 50
2.69274461E+02
 51
7.25539533E-01
  0
ARC
  8
0
 62
7
 10
2.60213913E+02
 20
1.32725600E+02
 40
5.06261987E-01
 50
9.07043825E+01
 51
1.79295618E+02
  0
ARC
  8
0
 62
7
 10
3.12710368E+02
 20
1.68477359E+02
 40
4.99732295E+00
 50
3.59969298E+02
 51
9.00307021E+01
  0
CIRCLE
  8
0
 62
7
 10
2.92713046E+02
 20
1.48474682E+02
 40
1.20585008E+01
  0
CIRCLE
  8
0
 62
2
 10
2.92713046E+02
 20
1.48474682E+02
 40
1.32204998E+01
  0
ARC
  8
0
 62
7
 10
3.08456835E+02
 20
1.72968393E+02
 40
5.06327128E-01
 50
9.07115742E+01
 51
1.79288426E+02
  0
LINE
  8
0
 62
7
 10
2.68963036E+02
 20
1.11474701E+02
 11
2.68963037E+02
 21
1.16174701E+02
  0
LINE
  8
0
 62
7
 10
2.68963036E+02
 20
1.11474701E+02
 11
2.68443035E+02
 21
1.11174701E+02
  0
LINE
  8
0
 62
7
 10
2.60463036E+02
 20
1.11474703E+02
 11
2.68963036E+02
 21
1.11474701E+02
  0
LINE
  8
0
 62
7
 10
2.60983035E+02
 20
1.11174703E+02
 11
2.68443035E+02
 21
1.11174701E+02
  0
LINE
  8
0
 62
7
 10
2.60463036E+02
 20
1.11474703E+02
 11
2.60983035E+02
 21
1.11174703E+02
  0
LINE
  8
0
 62
7
 10
2.60463036E+02
 20
1.11474703E+02
 11
2.60463037E+02
 21
1.16174703E+02
  0
LINE
  8
0
 62
7
 10
3.24963054E+02
 20
1.11474701E+02
 11
3.24963055E+02
 21
1.16174701E+02
  0
LINE
  8
0
 62
7
 10
3.24963054E+02
 20
1.11474701E+02
 11
3.24443054E+02
 21
1.11174701E+02
  0
LINE
  8
0
 62
7
 10
3.16463054E+02
 20
1.11474703E+02
 11
3.24963054E+02
 21
1.11474701E+02
  0
LINE
  8
0
 62
7
 10
3.16983054E+02
 20
1.11174703E+02
 11
3.24443054E+02
 21
1.11174701E+02
  0
LINE
  8
0
 62
7
 10
3.16463054E+02
 20
1.11474703E+02
 11
3.16983054E+02
 21
1.11174703E+02
  0
LINE
  8
0
 62
7
 10
3.16463054E+02
 20
1.11474703E+02
 11
3.16463055E+02
 21
1.16174703E+02
  0
LINE
  8
0
 62
7
 10
3.16463054E+02
 20
1.87174663E+02
 11
3.16463055E+02
 21
1.82474663E+02
  0
LINE
  8
0
 62
7
 10
3.16463054E+02
 20
1.87174663E+02
 11
3.16983054E+02
 21
1.87474664E+02
  0
LINE
  8
0
 62
7
 10
3.24963054E+02
 20
1.87174666E+02
 11
3.16463054E+02
 21
1.87174663E+02
  0
LINE
  8
0
 62
7
 10
3.24443054E+02
 20
1.87474666E+02
 11
3.16983054E+02
 21
1.87474664E+02
  0
LINE
  8
0
 62
7
 10
3.24963054E+02
 20
1.87174666E+02
 11
3.24443054E+02
 21
1.87474666E+02
  0
LINE
  8
0
 62
7
 10
3.24963054E+02
 20
1.87174666E+02
 11
3.24963055E+02
 21
1.82474666E+02
  0
LINE
  8
0
 62
7
 10
2.60463036E+02
 20
1.87174663E+02
 11
2.60463037E+02
 21
1.82474663E+02
  0
LINE
  8
0
 62
7
 10
2.60463036E+02
 20
1.87174663E+02
 11
2.60983035E+02
 21
1.87474664E+02
  0
LINE
  8
0
 62
7
 10
2.68963036E+02
 20
1.87174666E+02
 11
2.60463036E+02
 21
1.87174663E+02
  0
LINE
  8
0
 62
7
 10
2.68443035E+02
 20
1.87474666E+02
 11
2.60983035E+02
 21
1.87474664E+02
  0
LINE
  8
0
 62
7
 10
2.68963036E+02
 20
1.87174666E+02
 11
2.68443035E+02
 21
1.87474666E+02
  0
LINE
  8
0
 62
7
 10
2.68963036E+02
 20
1.87174666E+02
 11
2.68963037E+02
 21
1.82474666E+02
  0
LINE
  8
0
 62
7
 10
3.17707690E+02
 20
1.33474680E+02
 11
3.17707690E+02
 21
1.28474680E+02
  0
LINE
  8
0
 62
4
 10
3.17707690E+02
 20
1.63474681E+02
 11
3.17707690E+02
 21
1.33474680E+02
  0
LINE
  8
0
 62
4
 10
2.61707689E+02
 20
1.63474681E+02
 11
2.70207690E+02
 21
1.63474681E+02
  0
LINE
  8
0
 62
4
 10
2.72207690E+02
 20
1.61474681E+02
 11
2.72207690E+02
 21
1.35474681E+02
  0
ARC
  8
0
 62
4
 10
2.70201437E+02
 20
1.61468428E+02
 40
2.00626251E+00
 50
1.78568597E-01
 51
8.98214316E+01
  0
LINE
  8
0
 62
4
 10
2.59707689E+02
 20
1.61474681E+02
 11
2.59707689E+02
 21
1.35474681E+02
  0
LINE
  8
0
 62
4
 10
2.58721975E+02
 20
1.55031824E+02
 11
2.58721975E+02
 21
1.41917538E+02
  0
LINE
  8
0
 62
4
 10
2.58036261E+02
 20
1.53831824E+02
 11
2.58036261E+02
 21
1.43103252E+02
  0
LINE
  8
0
  6
DASHED
 62
6
 10
2.59707689E+02
 20
1.50217538E+02
 11
2.58036261E+02
 21
1.50217538E+02
  0
LINE
  8
0
  6
DASHED
 62
6
 10
2.59707689E+02
 20
1.51974681E+02
 11
2.58036261E+02
 21
1.51974681E+02
  0
LINE
  8
0
 62
6
 10
2.58236261E+02
 20
1.54188967E+02
 11
2.59707689E+02
 21
1.54146109E+02
  0
LINE
  8
0
 62
4
 10
2.58721975E+02
 20
1.55031824E+02
 11
2.58036261E+02
 21
1.53831824E+02
  0
LINE
  8
0
 62
4
 10
2.58721975E+02
 20
1.55031824E+02
 11
2.59707689E+02
 21
1.54988967E+02
  0
ARC
  8
0
 62
4
 10
2.61701471E+02
 20
1.61480899E+02
 40
1.99379170E+00
 50
8.98213118E+01
 51
1.80178688E+02
  0
ARC
  8
0
 62
4
 10
2.61701471E+02
 20
1.35468462E+02
 40
1.99379170E+00
 50
1.79821311E+02
 51
2.70178688E+02
  0
ARC
  8
0
 62
4
 10
2.70201437E+02
 20
1.35480933E+02
 40
2.00626251E+00
 50
2.70178569E+02
 51
3.59821432E+02
  0
LINE
  8
0
 62
4
 10
2.58721975E+02
 20
1.41917538E+02
 11
2.59707689E+02
 21
1.41946109E+02
  0
LINE
  8
0
 62
6
 10
2.58236261E+02
 20
1.42746109E+02
 11
2.59707689E+02
 21
1.42803252E+02
  0
LINE
  8
0
 62
4
 10
2.58721975E+02
 20
1.41917538E+02
 11
2.58036261E+02
 21
1.43103252E+02
  0
LINE
  8
0
  6
DASHED
 62
6
 10
2.59707689E+02
 20
1.44974681E+02
 11
2.58036261E+02
 21
1.44974681E+02
  0
LINE
  8
0
  6
DASHED
 62
6
 10
2.59707689E+02
 20
1.46717538E+02
 11
2.58036261E+02
 21
1.46717538E+02
  0
LINE
  8
0
 62
4
 10
2.61707689E+02
 20
1.33474680E+02
 11
2.70207690E+02
 21
1.33474680E+02
  0
LINE
  8
0
 62
2
 10
3.17636262E+02
 20
9.40889655E+01
 11
3.17636262E+02
 21
1.07174680E+02
  0
LINE
  8
0
 62
7
 10
3.18707690E+02
 20
9.51746798E+01
 11
3.18707690E+02
 21
1.07174680E+02
  0
LINE
  8
0
 62
7
 10
3.18707690E+02
 20
9.51746798E+01
 11
3.16707690E+02
 21
9.31746798E+01
  0
LINE
  8
0
 62
7
 10
2.66707689E+02
 20
9.51746798E+01
 11
2.66707689E+02
 21
1.07174680E+02
  0
LINE
  8
0
 62
2
 10
2.67793404E+02
 20
9.40889655E+01
 11
2.67793404E+02
 21
1.07174680E+02
  0
LINE
  8
0
 62
7
 10
2.66707689E+02
 20
9.51746798E+01
 11
2.68707689E+02
 21
9.31746798E+01
  0
LINE
  8
0
 62
7
 10
2.68707689E+02
 20
9.31746798E+01
 11
3.16707690E+02
 21
9.31746798E+01
  0
LINE
  8
0
 62
7
 10
3.18707690E+02
 20
1.07174680E+02
 11
2.66707689E+02
 21
1.07174680E+02
  0
LINE
  8
0
 62
7
 10
2.66707689E+02
 20
9.51746798E+01
 11
2.82707690E+02
 21
9.51746798E+01
  0
LINE
  8
0
 62
7
 10
2.70336261E+02
 20
9.31746798E+01
 11
2.70807690E+02
 21
8.24746796E+01
  0
LINE
  8
0
 62
7
 10
2.74964832E+02
 20
3.24746788E+01
 11
3.10464833E+02
 21
3.24746788E+01
  0
LINE
  8
0
 62
7
 10
3.10107690E+02
 20
3.53603931E+01
 11
3.11407690E+02
 21
7.24746795E+01
  0
LINE
  8
0
 62
7
 10
2.74021975E+02
 20
7.24746795E+01
 11
2.75321975E+02
 21
3.53603931E+01
  0
LINE
  8
0
 62
7
 10
2.68821975E+02
 20
8.24746796E+01
 11
3.16607690E+02
 21
8.24746796E+01
  0
LINE
  8
0
 62
7
 10
2.68664832E+02
 20
7.24746795E+01
 11
2.68907689E+02
 21
7.23318223E+01
  0
LINE
  8
0
 62
7
 10
2.68907689E+02
 20
7.23318223E+01
 11
2.69807690E+02
 21
4.64746790E+01
  0
LINE
  8
0
 62
7
 10
2.68821975E+02
 20
8.24746796E+01
 11
2.68336261E+02
 21
8.19889653E+01
  0
LINE
  8
0
 62
7
 10
3.16607690E+02
 20
8.24746796E+01
 11
3.17093405E+02
 21
8.19889653E+01
  0
LINE
  8
0
 62
7
 10
3.15093405E+02
 20
9.31746798E+01
 11
3.14621976E+02
 21
8.24746796E+01
  0
LINE
  8
0
 62
7
 10
3.06479119E+02
 20
8.24746796E+01
 11
3.06707690E+02
 21
9.31746798E+01
  0
LINE
  8
0
 62
7
 10
2.78707690E+02
 20
9.31746798E+01
 11
2.78950547E+02
 21
8.24746796E+01
  0
LINE
  8
0
 62
7
 10
2.96707690E+02
 20
7.24746795E+01
 11
2.96707690E+02
 21
3.53603931E+01
  0
LINE
  8
0
 62
7
 10
2.88707690E+02
 20
7.24746795E+01
 11
2.88707690E+02
 21
3.53603931E+01
  0
LINE
  8
0
 62
7
 10
2.88707690E+02
 20
3.53603931E+01
 11
2.96707690E+02
 21
3.53603931E+01
  0
LINE
  8
0
 62
7
 10
2.96707690E+02
 20
7.24746795E+01
 11
3.11407690E+02
 21
7.24746795E+01
  0
LINE
  8
0
 62
7
 10
2.87236261E+02
 20
4.26746789E+01
 11
2.87236261E+02
 21
3.24746788E+01
  0
LINE
  8
0
 62
7
 10
2.98193404E+02
 20
4.26746789E+01
 11
2.98193404E+02
 21
3.24746788E+01
  0
LINE
  8
0
 62
7
 10
2.96707690E+02
 20
3.53603931E+01
 11
2.98193404E+02
 21
3.24746788E+01
  0
LINE
  8
0
 62
7
 10
2.88707690E+02
 20
3.53603931E+01
 11
2.87236261E+02
 21
3.24746788E+01
  0
LINE
  8
0
 62
7
 10
3.10107690E+02
 20
3.53603931E+01
 11
3.04593404E+02
 21
3.24746788E+01
  0
LINE
  8
0
 62
7
 10
2.88707690E+02
 20
7.24746795E+01
 11
2.74021975E+02
 21
7.24746795E+01
  0
LINE
  8
0
 62
7
 10
2.88707690E+02
 20
4.64746790E+01
 11
2.74936261E+02
 21
4.64746790E+01
  0
LINE
  8
0
 62
7
 10
2.87236261E+02
 20
4.26746789E+01
 11
2.80064833E+02
 21
4.26746789E+01
  0
LINE
  8
0
 62
7
 10
2.75321975E+02
 20
3.53603931E+01
 11
2.80836261E+02
 21
3.24746788E+01
  0
LINE
  8
0
 62
7
 10
2.75321975E+02
 20
3.53603931E+01
 11
2.70464832E+02
 21
3.53603931E+01
  0
LINE
  8
0
 62
7
 10
3.10464833E+02
 20
3.24746788E+01
 11
3.14964833E+02
 21
3.53603931E+01
  0
LINE
  8
0
 62
7
 10
2.96707690E+02
 20
4.64746790E+01
 11
2.98193404E+02
 21
4.26746789E+01
  0
LINE
  8
0
 62
7
 10
2.88707690E+02
 20
4.64746790E+01
 11
2.87236261E+02
 21
4.26746789E+01
  0
LINE
  8
0
 62
7
 10
2.68336261E+02
 20
8.19889653E+01
 11
2.68664832E+02
 21
7.24746795E+01
  0
LINE
  8
0
 62
7
 10
2.80064833E+02
 20
4.26746789E+01
 11
2.80836261E+02
 21
3.24746788E+01
  0
LINE
  8
0
 62
7
 10
2.74936261E+02
 20
4.64746790E+01
 11
2.80064833E+02
 21
4.26746789E+01
  0
LINE
  8
0
 62
7
 10
2.98193404E+02
 20
4.26746789E+01
 11
3.05364833E+02
 21
4.26746789E+01
  0
LINE
  8
0
 62
7
 10
2.96707690E+02
 20
4.64746790E+01
 11
3.10493404E+02
 21
4.64746790E+01
  0
LINE
  8
0
 62
7
 10
3.10493404E+02
 20
4.64746790E+01
 11
3.05364833E+02
 21
4.26746789E+01
  0
LINE
  8
0
 62
7
 10
3.05364833E+02
 20
4.26746789E+01
 11
3.04593404E+02
 21
3.24746788E+01
  0
LINE
  8
0
 62
7
 10
2.70079118E+02
 20
4.64746790E+01
 11
2.70464832E+02
 21
3.53746788E+01
  0
LINE
  8
0
 62
7
 10
2.69807690E+02
 20
4.64746790E+01
 11
2.70079118E+02
 21
4.64746790E+01
  0
LINE
  8
0
 62
7
 10
2.74964832E+02
 20
3.24746788E+01
 11
2.70464832E+02
 21
3.53603931E+01
  0
LINE
  8
0
 62
7
 10
3.17093405E+02
 20
8.19889653E+01
 11
3.16764833E+02
 21
7.24746795E+01
  0
LINE
  8
0
 62
7
 10
3.16507690E+02
 20
7.23318223E+01
 11
3.15607690E+02
 21
4.64746790E+01
  0
LINE
  8
0
 62
7
 10
3.16764833E+02
 20
7.24746795E+01
 11
3.16507690E+02
 21
7.23318223E+01
  0
LINE
  8
0
 62
7
 10
3.15607690E+02
 20
4.64746790E+01
 11
3.15350547E+02
 21
4.64746790E+01
  0
LINE
  8
0
 62
7
 10
3.15350547E+02
 20
4.64746790E+01
 11
3.14964833E+02
 21
3.53746788E+01
  0
LINE
  8
0
 62
7
 10
2.85707690E+02
 20
9.31746798E+01
 11
2.85707690E+02
 21
8.24746796E+01
  0
LINE
  8
0
 62
7
 10
2.99707690E+02
 20
9.31746798E+01
 11
2.99707690E+02
 21
8.24746796E+01
  0
LINE
  8
0
 62
7
 10
2.75864832E+02
 20
8.66746797E+01
 11
2.75950547E+02
 21
8.24746796E+01
  0
LINE
  8
0
 62
7
 10
2.73864832E+02
 20
8.66746797E+01
 11
2.73950547E+02
 21
8.24746796E+01
  0
LINE
  8
0
 62
7
 10
2.72850547E+02
 20
8.66746797E+01
 11
2.72950547E+02
 21
8.24746796E+01
  0
LINE
  8
0
 62
7
 10
2.72850547E+02
 20
8.66746797E+01
 11
2.75864832E+02
 21
8.66746797E+01
  0
LINE
  8
0
 62
7
 10
3.12564833E+02
 20
8.66746797E+01
 11
3.09564833E+02
 21
8.66746797E+01
  0
LINE
  8
0
 62
7
 10
3.11564833E+02
 20
8.66746797E+01
 11
3.11479119E+02
 21
8.24746796E+01
  0
LINE
  8
0
 62
7
 10
3.12564833E+02
 20
8.66746797E+01
 11
3.12479119E+02
 21
8.24746796E+01
  0
LINE
  8
0
 62
7
 10
3.09564833E+02
 20
8.66746797E+01
 11
3.09479119E+02
 21
8.24746796E+01
  0
LINE
  8
0
 62
7
 10
3.17636262E+02
 20
1.09174680E+02
 11
3.17636262E+02
 21
1.07174680E+02
  0
LINE
  8
0
 62
7
 10
2.67793404E+02
 20
1.09174680E+02
 11
2.67793404E+02
 21
1.07174680E+02
  0
LINE
  8
0
 62
7
 10
2.82707690E+02
 20
9.51746798E+01
 11
2.82707690E+02
 21
1.07174680E+02
  0
LINE
  8
0
 62
7
 10
3.02707690E+02
 20
9.51746798E+01
 11
3.02707690E+02
 21
1.07174680E+02
  0
ARC
  8
0
 62
7
 10
2.92707690E+02
 20
1.19174679E+02
 40
2.59999996E+01
 50
2.47380134E+02
 51
2.92619866E+02
  0
LINE
  8
0
 62
7
 10
3.02707690E+02
 20
9.51746798E+01
 11
3.18707690E+02
 21
9.51746798E+01
  0
LINE
  8
0
 62
2
 10
3.02707690E+02
 20
1.07174680E+02
 11
2.82707690E+02
 21
9.51746798E+01
  0
LINE
  8
0
 62
2
 10
2.82707690E+02
 20
1.07174680E+02
 11
3.02707690E+02
 21
9.51746798E+01
  0
LINE
  8
0
  6
CENTER
 62
2
 10
-3.81192322E+02
 20
-1.28882467E+02
 11
-2.80258868E+02
 21
-1.28882467E+02
  0
ARC
  8
0
 62
4
 10
-3.33192321E+02
 20
-1.28882467E+02
 40
1.49514000E+00
 50
2.27955361E+02
 51
3.40005136E+02
  0
ARC
  8
0
 62
4
 10
-3.33192321E+02
 20
-1.28882467E+02
 40
1.49514000E+00
 50
5.59521713E+01
 51
1.68079298E+02
  0
LINE
  8
0
 62
4
 10
-3.78192321E+02
 20
-1.13882467E+02
 11
-3.78192321E+02
 21
-1.43882467E+02
  0
LINE
  8
0
 62
4
 10
-2.88192320E+02
 20
-1.13882467E+02
 11
-2.88192320E+02
 21
-1.43882467E+02
  0
LINE
  8
0
  6
CENTER
 62
2
 10
-3.33192321E+02
 20
-8.28824661E+01
 11
-3.33192321E+02
 21
-1.77625325E+02
  0
LINE
  8
0
 62
4
 10
-2.88192320E+02
 20
-1.13882467E+02
 11
-3.18140328E+02
 21
-1.13882467E+02
  0
LINE
  8
0
 62
4
 10
-2.88192320E+02
 20
-1.43882467E+02
 11
-3.18140328E+02
 21
-1.43882467E+02
  0
LINE
  8
0
 62
4
 10
-3.48244314E+02
 20
-1.43882467E+02
 11
-3.78192321E+02
 21
-1.43882467E+02
  0
LINE
  8
0
 62
4
 10
-3.48244314E+02
 20
-1.13882467E+02
 11
-3.78192321E+02
 21
-1.13882467E+02
  0
CIRCLE
  8
0
 62
4
 10
-3.33192321E+02
 20
-1.28882467E+02
 40
2.12500000E+01
  0
CIRCLE
  8
0
 62
4
 10
-3.33192321E+02
 20
-1.28882467E+02
 40
2.07500000E+01
  0
LINE
  8
0
  6
CENTER
 62
2
 10
-3.08192321E+02
 20
-1.21382467E+02
 11
-3.08192321E+02
 21
-1.36382467E+02
  0
ARC
  8
0
 62
4
 10
-3.58192343E+02
 20
-1.28882458E+02
 40
5.49999928E+00
 50
4.22101828E+01
 51
3.17789750E+02
  0
LINE
  8
0
  6
CENTER
 62
2
 10
-3.58192321E+02
 20
-1.21382467E+02
 11
-3.58192321E+02
 21
-1.36382467E+02
  0
CIRCLE
  8
0
 62
4
 10
-3.58192321E+02
 20
-1.28882467E+02
 40
2.89829731E+00
  0
ARC
  8
0
 62
4
 10
-3.58192321E+02
 20
-1.28882467E+02
 40
3.96076870E+00
 50
1.72553325E+01
 51
3.42744664E+02
  0
ARC
  8
0
 62
4
 10
-3.58192321E+02
 20
-1.28882467E+02
 40
5.00000000E+00
 50
3.74626511E+01
 51
3.22537349E+02
  0
LINE
  8
0
 62
4
 10
-3.60702321E+02
 20
-1.30322467E+02
 11
-3.58192321E+02
 21
-1.31772467E+02
  0
LINE
  8
0
 62
4
 10
-3.58192321E+02
 20
-1.25992467E+02
 11
-3.55682321E+02
 21
-1.27442467E+02
  0
LINE
  8
0
 62
4
 10
-3.58192321E+02
 20
-1.31772467E+02
 11
-3.55682321E+02
 21
-1.30322467E+02
  0
LINE
  8
0
 62
4
 10
-3.60702321E+02
 20
-1.27442467E+02
 11
-3.58192321E+02
 21
-1.25992467E+02
  0
LINE
  8
0
 62
4
 10
-3.55682321E+02
 20
-1.27442467E+02
 11
-3.55682321E+02
 21
-1.30322467E+02
  0
LINE
  8
0
 62
4
 10
-3.60702321E+02
 20
-1.27442467E+02
 11
-3.60702321E+02
 21
-1.30322467E+02
  0
CIRCLE
  8
0
 62
4
 10
-3.08192321E+02
 20
-1.28882467E+02
 40
2.89829731E+00
  0
LINE
  8
0
 62
4
 10
-3.10702321E+02
 20
-1.30322467E+02
 11
-3.08192321E+02
 21
-1.31772467E+02
  0
LINE
  8
0
 62
4
 10
-3.08192321E+02
 20
-1.25992467E+02
 11
-3.05682321E+02
 21
-1.27442467E+02
  0
LINE
  8
0
 62
4
 10
-3.08192321E+02
 20
-1.31772467E+02
 11
-3.05682321E+02
 21
-1.30322467E+02
  0
LINE
  8
0
 62
4
 10
-3.10702321E+02
 20
-1.27442467E+02
 11
-3.08192321E+02
 21
-1.25992467E+02
  0
LINE
  8
0
 62
4
 10
-3.05682321E+02
 20
-1.27442467E+02
 11
-3.05682321E+02
 21
-1.30322467E+02
  0
LINE
  8
0
 62
4
 10
-3.10702321E+02
 20
-1.27442467E+02
 11
-3.10702321E+02
 21
-1.30322467E+02
  0
ARC
  8
0
 62
4
 10
-3.08192343E+02
 20
-1.28882458E+02
 40
5.49999928E+00
 50
2.22210816E+02
 51
1.37789251E+02
  0
ARC
  8
0
 62
4
 10
-3.08192321E+02
 20
-1.28882467E+02
 40
3.96076870E+00
 50
1.97255336E+02
 51
1.62744668E+02
  0
ARC
  8
0
 62
4
 10
-3.08192321E+02
 20
-1.28882467E+02
 40
5.00000000E+00
 50
2.17462651E+02
 51
1.42537349E+02
  0
LINE
  8
0
 62
4
 10
-3.44602321E+02
 20
-1.32582467E+02
 11
-3.34192321E+02
 21
-1.29992467E+02
  0
LINE
  8
0
 62
4
 10
-3.44602321E+02
 20
-1.32582467E+02
 11
-3.34655217E+02
 21
-1.28573634E+02
  0
CIRCLE
  8
0
 62
4
 10
-3.33192321E+02
 20
-1.28882467E+02
 40
1.75000003E+01
  0
LINE
  8
0
 62
4
 10
-3.32352321E+02
 20
-1.27642467E+02
 11
-3.28942321E+02
 21
-1.26262467E+02
  0
LINE
  8
0
 62
4
 10
-3.31787303E+02
 20
-1.29393709E+02
 11
-3.28212321E+02
 21
-1.28502467E+02
  0
LINE
  8
0
 62
4
 10
-3.27492321E+02
 20
-1.27032467E+02
 11
-3.28212321E+02
 21
-1.28502467E+02
  0
LINE
  8
0
 62
4
 10
-3.28942321E+02
 20
-1.26262467E+02
 11
-3.27492321E+02
 21
-1.27032467E+02
  0
LINE
  8
0
  6
CENTER
 62
2
 10
-2.80258868E+02
 20
-1.28882467E+02
 11
-1.51506603E+02
 21
-1.28882467E+02
  0
LINE
  8
0
  6
CENTER
 62
2
 10
-1.97178033E+02
 20
-8.28824661E+01
 11
-1.97178033E+02
 21
-1.77625325E+02
  0
LINE
  8
0
 62
4
 10
-2.17678033E+02
 20
-1.15882467E+02
 11
-2.17678033E+02
 21
-1.41882467E+02
  0
LINE
  8
0
 62
4
 10
-2.28178033E+02
 20
-1.13882467E+02
 11
-2.19678033E+02
 21
-1.13882467E+02
  0
LINE
  8
0
 62
4
 10
-2.28178033E+02
 20
-1.43882467E+02
 11
-2.19678033E+02
 21
-1.43882467E+02
  0
LINE
  8
0
 62
4
 10
-2.30178033E+02
 20
-1.15882467E+02
 11
-2.30178033E+02
 21
-1.41882467E+02
  0
ARC
  8
0
 62
4
 10
-2.28178924E+02
 20
-1.15881576E+02
 40
1.99910932E+00
 50
9.00000002E+01
 51
1.80025534E+02
  0
ARC
  8
0
 62
4
 10
-2.19678920E+02
 20
-1.15883354E+02
 40
2.00088718E+00
 50
2.53979316E-02
 51
9.00000002E+01
  0
ARC
  8
0
 62
4
 10
-2.19678929E+02
 20
-1.41881571E+02
 40
2.00089590E+00
 50
2.70000000E+02
 51
3.59974353E+02
  0
ARC
  8
0
 62
4
 10
-2.28178915E+02
 20
-1.41883349E+02
 40
1.99911804E+00
 50
1.79974716E+02
 51
2.70000000E+02
  0
LINE
  8
0
 62
4
 10
-2.70179855E+02
 20
-1.08632467E+02
 11
-2.70179855E+02
 21
-1.49132467E+02
  0
LINE
  8
0
 62
4
 10
-2.67179855E+02
 20
-1.07632467E+02
 11
-2.67179855E+02
 21
-1.50132467E+02
  0
LINE
  8
0
 62
4
 10
-2.69179855E+02
 20
-1.07632467E+02
 11
-2.69179855E+02
 21
-1.50132467E+02
  0
LINE
  8
0
 62
4
 10
-2.36179855E+02
 20
-1.35642467E+02
 11
-2.30178033E+02
 21
-1.35456956E+02
  0
LINE
  8
0
 62
4
 10
-2.36179855E+02
 20
-1.22122467E+02
 11
-2.30178033E+02
 21
-1.22307978E+02
  0
LINE
  8
0
 62
4
 10
-2.69179855E+02
 20
-1.07632467E+02
 11
-2.67179855E+02
 21
-1.07632467E+02
  0
LINE
  8
0
 62
4
 10
-2.69179855E+02
 20
-1.50132467E+02
 11
-2.67179855E+02
 21
-1.50132467E+02
  0
LINE
  8
0
 62
4
 10
-2.43679855E+02
 20
-1.09882467E+02
 11
-2.43679855E+02
 21
-1.47882467E+02
  0
LINE
  8
0
 62
4
 10
-2.67179855E+02
 20
-1.07882467E+02
 11
-2.45679855E+02
 21
-1.07882467E+02
  0
LINE
  8
0
 62
4
 10
-2.67179855E+02
 20
-1.49882467E+02
 11
-2.45679855E+02
 21
-1.49882467E+02
  0
LINE
  8
0
 62
4
 10
-2.43679855E+02
 20
-1.35882467E+02
 11
-2.36179855E+02
 21
-1.35882467E+02
  0
LINE
  8
0
 62
4
 10
-2.43679855E+02
 20
-1.21882467E+02
 11
-2.36179855E+02
 21
-1.21882467E+02
  0
LINE
  8
0
 62
4
 10
-2.36179855E+02
 20
-1.21882467E+02
 11
-2.36179855E+02
 21
-1.35882467E+02
  0
LINE
  8
0
 62
4
 10
-2.34179855E+02
 20
-1.22182467E+02
 11
-2.34179855E+02
 21
-1.35582467E+02
  0
LINE
  8
0
 62
6
 10
-2.43679855E+02
 20
-1.35882467E+02
 11
-2.36179855E+02
 21
-1.21882467E+02
  0
LINE
  8
0
 62
6
 10
-2.43679855E+02
 20
-1.21882467E+02
 11
-2.36179855E+02
 21
-1.35882467E+02
  0
LINE
  8
0
 62
4
 10
-2.70179855E+02
 20
-1.08632467E+02
 11
-2.69179855E+02
 21
-1.07632467E+02
  0
LINE
  8
0
 62
4
 10
-2.70179855E+02
 20
-1.49132467E+02
 11
-2.69179855E+02
 21
-1.50132467E+02
  0
ARC
  8
0
 62
4
 10
-2.45679854E+02
 20
-1.47882468E+02
 40
1.99999847E+00
 50
2.70000000E+02
 51
4.37132276E-05
  0
ARC
  8
0
 62
4
 10
-2.45679854E+02
 20
-1.09882465E+02
 40
1.99999847E+00
 50
3.59999956E+02
 51
9.00000002E+01
  0
LINE
  8
0
 62
6
 10
-2.34179855E+02
 20
-1.23042467E+02
 11
-2.30178033E+02
 21
-1.23164722E+02
  0
LINE
  8
0
 62
6
 10
-2.34179855E+02
 20
-1.34722467E+02
 11
-2.30178033E+02
 21
-1.34600212E+02
  0
LINE
  8
0
  6
CENTER
 62
2
 10
4.45145786E+00
 20
-1.28882467E+02
 11
-1.02406603E+02
 21
-1.28882467E+02
  0
LINE
  8
0
 62
4
 10
-9.81208886E+01
 20
-1.13882467E+02
 11
-9.81208886E+01
 21
-1.43882467E+02
  0
LINE
  8
0
 62
4
 10
-8.12088702E+00
 20
-1.13882467E+02
 11
-8.12088702E+00
 21
-1.43882467E+02
  0
LINE
  8
0
  6
CENTER
 62
2
 10
-5.31208878E+01
 20
-8.35967519E+01
 11
-5.31208878E+01
 21
-1.77625325E+02
  0
LINE
  8
0
 62
4
 10
-8.12088702E+00
 20
-1.43882467E+02
 11
-9.81208886E+01
 21
-1.43882467E+02
  0
LINE
  8
0
 62
4
 10
-8.12088702E+00
 20
-1.13882467E+02
 11
-9.81208886E+01
 21
-1.13882467E+02
  0
LINE
  8
0
 62
4
 10
-6.86208881E+01
 20
-1.14882467E+02
 11
-6.86208881E+01
 21
-1.42882467E+02
  0
LINE
  8
0
 62
4
 10
-3.76208875E+01
 20
-1.14882467E+02
 11
-3.76208875E+01
 21
-1.42882467E+02
  0
LINE
  8
0
  6
CENTER
 62
2
 10
-2.81208874E+01
 20
-1.21382467E+02
 11
-2.81208874E+01
 21
-1.36382467E+02
  0
LINE
  8
0
  6
CENTER
 62
2
 10
-7.81208882E+01
 20
-1.21382467E+02
 11
-7.81208882E+01
 21
-1.36382467E+02
  0
LINE
  8
0
 62
6
 10
-5.71208879E+01
 20
-1.62153896E+02
 11
-4.91208877E+01
 21
-1.65068182E+02
  0
LINE
  8
0
 62
6
 10
-5.71208879E+01
 20
-1.64282468E+02
 11
-4.91208877E+01
 21
-1.67196753E+02
  0
LINE
  8
0
 62
4
 10
-5.48637450E+01
 20
-1.65111039E+02
 11
-5.48637450E+01
 21
-1.77268182E+02
  0
LINE
  8
0
 62
4
 10
-5.13637449E+01
 20
-1.66382468E+02
 11
-5.13637449E+01
 21
-1.78011039E+02
  0
ARC
  8
0
 62
4
 10
-6.96209055E+01
 20
-1.14882484E+02
 40
1.00001746E+00
 50
9.99143857E-04
 51
9.00000002E+01
  0
ARC
  8
0
 62
4
 10
-6.96209033E+01
 20
-1.42882452E+02
 40
1.00001528E+00
 50
2.70000000E+02
 51
3.59999126E+02
  0
ARC
  8
0
 62
4
 10
-3.66208919E+01
 20
-1.14882462E+02
 40
9.99995657E-01
 50
9.00000002E+01
 51
1.80000250E+02
  0
ARC
  8
0
 62
4
 10
-3.66208940E+01
 20
-1.42882474E+02
 40
9.99993478E-01
 50
1.79999625E+02
 51
2.70000000E+02
  0
CIRCLE
  8
0
 62
4
 10
-2.81209092E+01
 20
-1.28882458E+02
 40
5.49999928E+00
  0
CIRCLE
  8
0
 62
4
 10
-7.81209100E+01
 20
-1.28882458E+02
 40
5.49999928E+00
  0
LINE
  8
0
 62
4
 10
-5.49708878E+01
 20
-1.62937110E+02
 11
-5.49708878E+01
 21
-1.48882467E+02
  0
LINE
  8
0
 62
4
 10
-5.12708878E+01
 20
-1.64284968E+02
 11
-5.12708878E+01
 21
-1.48882467E+02
  0
LINE
  8
0
 62
4
 10
-5.70208878E+01
 20
-1.48882467E+02
 11
-4.92208878E+01
 21
-1.48882467E+02
  0
LINE
  8
0
 62
4
 10
-6.81208878E+01
 20
-1.43382467E+02
 11
-6.81208878E+01
 21
-1.14382467E+02
  0
LINE
  8
0
 62
4
 10
-3.81208878E+01
 20
-1.43382467E+02
 11
-3.81208878E+01
 21
-1.14382467E+02
  0
ARC
  8
0
 62
4
 10
-3.86208878E+01
 20
-1.14382467E+02
 40
5.00000000E-01
 50
0.00000000E+00
 51
9.00000002E+01
  0
ARC
  8
0
 62
4
 10
-6.76208878E+01
 20
-1.14382467E+02
 40
5.00000000E-01
 50
9.00000002E+01
 51
1.80000000E+02
  0
ARC
  8
0
 62
4
 10
-6.76208878E+01
 20
-1.43382467E+02
 40
5.00000000E-01
 50
1.80000000E+02
 51
2.70000000E+02
  0
ARC
  8
0
 62
4
 10
-3.86208878E+01
 20
-1.43382467E+02
 40
5.00000000E-01
 50
2.70000000E+02
 51
0.00000000E+00
  0
LINE
  8
0
 62
4
 10
-6.73708878E+01
 20
-1.42382467E+02
 11
-6.73708878E+01
 21
-1.15382467E+02
  0
LINE
  8
0
 62
4
 10
-6.63708878E+01
 20
-1.14382467E+02
 11
-3.98708878E+01
 21
-1.14382467E+02
  0
LINE
  8
0
 62
4
 10
-6.63708878E+01
 20
-1.43382467E+02
 11
-3.98708878E+01
 21
-1.43382467E+02
  0
ARC
  8
0
 62
4
 10
-6.63708878E+01
 20
-1.42382467E+02
 40
1.00000000E+00
 50
1.80000000E+02
 51
2.70000000E+02
  0
ARC
  8
0
 62
4
 10
-6.63708878E+01
 20
-1.15382467E+02
 40
1.00000000E+00
 50
9.00000002E+01
 51
1.80000000E+02
  0
LINE
  8
0
 62
4
 10
-6.73708878E+01
 20
-1.18732467E+02
 11
-3.88708878E+01
 21
-1.18732467E+02
  0
LINE
  8
0
 62
4
 10
-6.73708878E+01
 20
-1.19232467E+02
 11
-3.88708878E+01
 21
-1.19232467E+02
  0
LINE
  8
0
 62
4
 10
-6.60208878E+01
 20
-1.30232467E+02
 11
-4.02208878E+01
 21
-1.30232467E+02
  0
LINE
  8
0
 62
4
 10
-4.61208878E+01
 20
-1.39632467E+02
 11
-4.21208878E+01
 21
-1.39632467E+02
  0
LINE
  8
0
 62
4
 10
-5.49958878E+01
 20
-1.36132467E+02
 11
-5.12458878E+01
 21
-1.36132467E+02
  0
LINE
  8
0
 62
4
 10
-6.21208878E+01
 20
-1.36132467E+02
 11
-6.39958878E+01
 21
-1.39632467E+02
  0
LINE
  8
0
 62
4
 10
-6.02458878E+01
 20
-1.39632467E+02
 11
-6.21208878E+01
 21
-1.36132467E+02
  0
LINE
  8
0
 62
4
 10
-5.49958878E+01
 20
-1.36132467E+02
 11
-5.31208878E+01
 21
-1.39632467E+02
  0
LINE
  8
0
 62
4
 10
-5.12458878E+01
 20
-1.36132467E+02
 11
-5.31208878E+01
 21
-1.39632467E+02
  0
LINE
  8
0
 62
4
 10
-4.61208878E+01
 20
-1.35882467E+02
 11
-4.21208878E+01
 21
-1.35882467E+02
  0
LINE
  8
0
 62
4
 10
-4.71208878E+01
 20
-1.38632467E+02
 11
-4.71208878E+01
 21
-1.36882467E+02
  0
LINE
  8
0
 62
4
 10
-4.11208878E+01
 20
-1.38632467E+02
 11
-4.11208878E+01
 21
-1.36882467E+02
  0
ARC
  8
0
 62
4
 10
-4.21208878E+01
 20
-1.36882467E+02
 40
1.00000000E+00
 50
0.00000000E+00
 51
9.00000002E+01
  0
ARC
  8
0
 62
4
 10
-4.21208878E+01
 20
-1.38632467E+02
 40
1.00000000E+00
 50
2.70000000E+02
 51
0.00000000E+00
  0
ARC
  8
0
 62
4
 10
-4.61208878E+01
 20
-1.36882467E+02
 40
1.00000000E+00
 50
9.00000002E+01
 51
1.80000000E+02
  0
ARC
  8
0
 62
4
 10
-4.61208878E+01
 20
-1.38632467E+02
 40
1.00000000E+00
 50
1.80000000E+02
 51
2.70000000E+02
  0
LINE
  8
0
 62
4
 10
-6.39958878E+01
 20
-1.39632467E+02
 11
-6.02458878E+01
 21
-1.39632467E+02
  0
LINE
  8
0
 62
4
 10
-3.88708878E+01
 20
-1.42382467E+02
 11
-3.88708878E+01
 21
-1.15382467E+02
  0
ARC
  8
0
 62
4
 10
-3.98708878E+01
 20
-1.15382467E+02
 40
1.00000000E+00
 50
0.00000000E+00
 51
9.00000002E+01
  0
ARC
  8
0
 62
4
 10
-3.98708878E+01
 20
-1.42382467E+02
 40
1.00000000E+00
 50
2.70000000E+02
 51
0.00000000E+00
  0
LINE
  8
0
 62
4
 10
-6.60208878E+01
 20
-1.30232467E+02
 11
-6.60208878E+01
 21
-1.19232467E+02
  0
LINE
  8
0
 62
4
 10
-4.02208878E+01
 20
-1.30232467E+02
 11
-4.02208878E+01
 21
-1.19232467E+02
  0
LINE
  8
0
 62
4
 10
-5.75208878E+01
 20
-1.47882467E+02
 11
-4.87208878E+01
 21
-1.47882467E+02
  0
LINE
  8
0
 62
4
 10
-5.75208878E+01
 20
-1.48382467E+02
 11
-5.75208878E+01
 21
-1.43882467E+02
  0
LINE
  8
0
 62
4
 10
-4.87208878E+01
 20
-1.48382467E+02
 11
-4.87208878E+01
 21
-1.43882467E+02
  0
LINE
  8
0
 62
4
 10
-5.75208878E+01
 20
-1.44382467E+02
 11
-4.87208878E+01
 21
-1.44382467E+02
  0
LINE
  8
0
 62
4
 10
-5.70208878E+01
 20
-1.48882467E+02
 11
-5.70208878E+01
 21
-1.47882467E+02
  0
LINE
  8
0
 62
4
 10
-4.92208878E+01
 20
-1.48882467E+02
 11
-4.92208878E+01
 21
-1.47882467E+02
  0
LINE
  8
0
 62
4
 10
-4.92208878E+01
 20
-1.44382467E+02
 11
-4.92208878E+01
 21
-1.43882467E+02
  0
LINE
  8
0
 62
4
 10
-5.70208878E+01
 20
-1.44382467E+02
 11
-5.70208878E+01
 21
-1.43882467E+02
  0
ARC
  8
0
 62
4
 10
-5.70208878E+01
 20
-1.48382467E+02
 40
5.00000000E-01
 50
1.80000000E+02
 51
2.70000000E+02
  0
ARC
  8
0
 62
4
 10
-4.92208878E+01
 20
-1.48382467E+02
 40
5.00000000E-01
 50
2.70000000E+02
 51
0.00000000E+00
  0
CIRCLE
  8
0
 62
4
 10
-2.81209092E+01
 20
-1.28882458E+02
 40
2.89829731E+00
  0
CIRCLE
  8
0
 62
4
 10
-2.81209092E+01
 20
-1.28882458E+02
 40
3.96076870E+00
  0
CIRCLE
  8
0
 62
4
 10
-2.81209092E+01
 20
-1.28882458E+02
 40
5.00000000E+00
  0
LINE
  8
0
 62
4
 10
-3.06309092E+01
 20
-1.30322458E+02
 11
-2.81209092E+01
 21
-1.31772458E+02
  0
LINE
  8
0
 62
4
 10
-2.81209092E+01
 20
-1.25992458E+02
 11
-2.56109092E+01
 21
-1.27442458E+02
  0
LINE
  8
0
 62
4
 10
-2.81209092E+01
 20
-1.31772458E+02
 11
-2.56109092E+01
 21
-1.30322458E+02
  0
LINE
  8
0
 62
4
 10
-3.06309092E+01
 20
-1.27442458E+02
 11
-2.81209092E+01
 21
-1.25992458E+02
  0
LINE
  8
0
 62
4
 10
-2.56109092E+01
 20
-1.27442458E+02
 11
-2.56109092E+01
 21
-1.30322458E+02
  0
LINE
  8
0
 62
4
 10
-3.06309092E+01
 20
-1.27442458E+02
 11
-3.06309092E+01
 21
-1.30322458E+02
  0
CIRCLE
  8
0
 62
4
 10
-7.81209100E+01
 20
-1.28882458E+02
 40
2.89829731E+00
  0
CIRCLE
  8
0
 62
4
 10
-7.81209100E+01
 20
-1.28882458E+02
 40
3.96076870E+00
  0
CIRCLE
  8
0
 62
4
 10
-7.81209100E+01
 20
-1.28882458E+02
 40
5.00000000E+00
  0
LINE
  8
0
 62
4
 10
-8.06309100E+01
 20
-1.30322458E+02
 11
-7.81209100E+01
 21
-1.31772458E+02
  0
LINE
  8
0
 62
4
 10
-7.81209100E+01
 20
-1.25992458E+02
 11
-7.56109100E+01
 21
-1.27442458E+02
  0
LINE
  8
0
 62
4
 10
-7.81209100E+01
 20
-1.31772458E+02
 11
-7.56109100E+01
 21
-1.30322458E+02
  0
LINE
  8
0
 62
4
 10
-8.06309100E+01
 20
-1.27442458E+02
 11
-7.81209100E+01
 21
-1.25992458E+02
  0
LINE
  8
0
 62
4
 10
-7.56109100E+01
 20
-1.27442458E+02
 11
-7.56109100E+01
 21
-1.30322458E+02
  0
LINE
  8
0
 62
4
 10
-8.06309100E+01
 20
-1.27442458E+02
 11
-8.06309100E+01
 21
-1.30322458E+02
  0
LINE
  8
0
  6
CENTER
 62
2
 10
1.07450544E+02
 20
-1.28882467E+02
 11
4.45145786E+00
 21
-1.28882467E+02
  0
LINE
  8
0
  6
CENTER
 62
2
 10
7.01648286E+01
 20
-8.28824661E+01
 11
7.01648286E+01
 21
-1.77625325E+02
  0
LINE
  8
0
 62
4
 10
4.96648282E+01
 20
-1.15882467E+02
 11
4.96648282E+01
 21
-1.41882467E+02
  0
LINE
  8
0
 62
4
 10
3.06648279E+01
 20
-1.15882467E+02
 11
3.06648279E+01
 21
-1.41882467E+02
  0
LINE
  8
0
 62
6
 10
3.09165961E+01
 20
-1.62974183E+02
 11
3.66648280E+01
 21
-1.65068182E+02
  0
LINE
  8
0
 62
6
 10
3.10990806E+01
 20
-1.65169231E+02
 11
3.66648280E+01
 21
-1.67196753E+02
  0
ARC
  8
0
 62
4
 10
4.76710528E+01
 20
-1.15876242E+02
 40
1.99378518E+00
 50
3.59821123E+02
 51
9.01788770E+01
  0
ARC
  8
0
 62
4
 10
4.76710440E+01
 20
-1.41888683E+02
 40
1.99379389E+00
 50
2.69821375E+02
 51
1.78624947E-01
  0
ARC
  8
0
 62
4
 10
3.26710654E+01
 20
-1.15888704E+02
 40
2.00624718E+00
 50
9.01781333E+01
 51
1.79821867E+02
  0
ARC
  8
0
 62
4
 10
3.26710741E+01
 20
-1.41876221E+02
 40
2.00625590E+00
 50
1.80178381E+02
 51
2.69821619E+02
  0
POLYLINE
  8
0
 62
4
 66
1
  0
VERTEX
  8
0
 62
4
 10
3.26772808E+01
 20
-1.23382457E+02
  0
VERTEX
  8
0
 62
4
 10
3.25465473E+01
 20
-1.23403386E+02
  0
VERTEX
  8
0
 62
4
 10
3.24168087E+01
 20
-1.23466015E+02
  0
VERTEX
  8
0
 62
4
 10
3.22890525E+01
 20
-1.23569865E+02
  0
VERTEX
  8
0
 62
4
 10
3.21642509E+01
 20
-1.23714148E+02
  0
VERTEX
  8
0
 62
4
 10
3.20433537E+01
 20
-1.23897764E+02
  0
VERTEX
  8
0
 62
4
 10
3.19272811E+01
 20
-1.24119317E+02
  0
VERTEX
  8
0
 62
4
 10
3.18169165E+01
 20
-1.24377121E+02
  0
VERTEX
  8
0
 62
4
 10
3.17130997E+01
 20
-1.24669213E+02
  0
VERTEX
  8
0
 62
4
 10
3.16166209E+01
 20
-1.24993370E+02
  0
VERTEX
  8
0
 62
4
 10
3.15282144E+01
 20
-1.25347125E+02
  0
VERTEX
  8
0
 62
4
 10
3.14485529E+01
 20
-1.25727787E+02
  0
VERTEX
  8
0
 62
4
 10
3.13782428E+01
 20
-1.26132457E+02
  0
VERTEX
  8
0
 62
4
 10
3.13178191E+01
 20
-1.26558057E+02
  0
VERTEX
  8
0
 62
4
 10
3.12677418E+01
 20
-1.27001347E+02
  0
VERTEX
  8
0
 62
4
 10
3.12283918E+01
 20
-1.27458953E+02
  0
VERTEX
  8
0
 62
4
 10
3.12000688E+01
 20
-1.27927392E+02
  0
VERTEX
  8
0
 62
4
 10
3.11829883E+01
 20
-1.28403101E+02
  0
VERTEX
  8
0
 62
4
 10
3.11772802E+01
 20
-1.28882458E+02
  0
VERTEX
  8
0
 62
4
 10
3.11829880E+01
 20
-1.29361814E+02
  0
VERTEX
  8
0
 62
4
 10
3.12000682E+01
 20
-1.29837523E+02
  0
VERTEX
  8
0
 62
4
 10
3.12283909E+01
 20
-1.30305962E+02
  0
VERTEX
  8
0
 62
4
 10
3.12677406E+01
 20
-1.30763569E+02
  0
VERTEX
  8
0
 62
4
 10
3.13178176E+01
 20
-1.31206858E+02
  0
VERTEX
  8
0
 62
4
 10
3.13782410E+01
 20
-1.31632458E+02
  0
VERTEX
  8
0
 62
4
 10
3.14485509E+01
 20
-1.32037128E+02
  0
VERTEX
  8
0
 62
4
 10
3.15282121E+01
 20
-1.32417790E+02
  0
VERTEX
  8
0
 62
4
 10
3.16166184E+01
 20
-1.32771545E+02
  0
VERTEX
  8
0
 62
4
 10
3.17130970E+01
 20
-1.33095703E+02
  0
VERTEX
  8
0
 62
4
 10
3.18169136E+01
 20
-1.33387794E+02
  0
VERTEX
  8
0
 62
4
 10
3.19272781E+01
 20
-1.33645598E+02
  0
VERTEX
  8
0
 62
4
 10
3.20433506E+01
 20
-1.33867151E+02
  0
VERTEX
  8
0
 62
4
 10
3.21642476E+01
 20
-1.34050768E+02
  0
VERTEX
  8
0
 62
4
 10
3.22890491E+01
 20
-1.34195051E+02
  0
VERTEX
  8
0
 62
4
 10
3.24168053E+01
 20
-1.34298901E+02
  0
VERTEX
  8
0
 62
4
 10
3.25465438E+01
 20
-1.34361529E+02
  0
VERTEX
  8
0
 62
4
 10
3.26772774E+01
 20
-1.34382459E+02
  0
VERTEX
  8
0
 62
4
 10
3.28080109E+01
 20
-1.34361530E+02
  0
VERTEX
  8
0
 62
4
 10
3.29377495E+01
 20
-1.34298901E+02
  0
VERTEX
  8
0
 62
4
 10
3.30655057E+01
 20
-1.34195051E+02
  0
VERTEX
  8
0
 62
4
 10
3.31903073E+01
 20
-1.34050768E+02
  0
VERTEX
  8
0
 62
4
 10
3.33112045E+01
 20
-1.33867152E+02
  0
VERTEX
  8
0
 62
4
 10
3.34272771E+01
 20
-1.33645599E+02
  0
VERTEX
  8
0
 62
4
 10
3.35376417E+01
 20
-1.33387795E+02
  0
VERTEX
  8
0
 62
4
 10
3.36414585E+01
 20
-1.33095703E+02
  0
VERTEX
  8
0
 62
4
 10
3.37379373E+01
 20
-1.32771546E+02
  0
VERTEX
  8
0
 62
4
 10
3.38263438E+01
 20
-1.32417791E+02
  0
VERTEX
  8
0
 62
4
 10
3.39060053E+01
 20
-1.32037129E+02
  0
VERTEX
  8
0
 62
4
 10
3.39763154E+01
 20
-1.31632459E+02
  0
VERTEX
  8
0
 62
4
 10
3.40367391E+01
 20
-1.31206859E+02
  0
VERTEX
  8
0
 62
4
 10
3.40868164E+01
 20
-1.30763569E+02
  0
VERTEX
  8
0
 62
4
 10
3.41261664E+01
 20
-1.30305963E+02
  0
VERTEX
  8
0
 62
4
 10
3.41544894E+01
 20
-1.29837524E+02
  0
VERTEX
  8
0
 62
4
 10
3.41715699E+01
 20
-1.29361815E+02
  0
VERTEX
  8
0
 62
4
 10
3.41772780E+01
 20
-1.28882458E+02
  0
VERTEX
  8
0
 62
4
 10
3.41715702E+01
 20
-1.28403102E+02
  0
VERTEX
  8
0
 62
4
 10
3.41544900E+01
 20
-1.27927393E+02
  0
VERTEX
  8
0
 62
4
 10
3.41261673E+01
 20
-1.27458954E+02
  0
VERTEX
  8
0
 62
4
 10
3.40868176E+01
 20
-1.27001347E+02
  0
VERTEX
  8
0
 62
4
 10
3.40367406E+01
 20
-1.26558058E+02
  0
VERTEX
  8
0
 62
4
 10
3.39763172E+01
 20
-1.26132458E+02
  0
VERTEX
  8
0
 62
4
 10
3.39060073E+01
 20
-1.25727788E+02
  0
VERTEX
  8
0
 62
4
 10
3.38263461E+01
 20
-1.25347126E+02
  0
VERTEX
  8
0
 62
4
 10
3.37379398E+01
 20
-1.24993371E+02
  0
VERTEX
  8
0
 62
4
 10
3.36414612E+01
 20
-1.24669213E+02
  0
VERTEX
  8
0
 62
4
 10
3.35376446E+01
 20
-1.24377122E+02
  0
VERTEX
  8
0
 62
4
 10
3.34272801E+01
 20
-1.24119318E+02
  0
VERTEX
  8
0
 62
4
 10
3.33112076E+01
 20
-1.23897765E+02
  0
VERTEX
  8
0
 62
4
 10
3.31903106E+01
 20
-1.23714148E+02
  0
VERTEX
  8
0
 62
4
 10
3.30655091E+01
 20
-1.23569865E+02
  0
VERTEX
  8
0
 62
4
 10
3.29377529E+01
 20
-1.23466015E+02
  0
VERTEX
  8
0
 62
4
 10
3.28080144E+01
 20
-1.23403387E+02
  0
VERTEX
  8
0
 62
4
 10
3.26772808E+01
 20
-1.23382457E+02
  0
SEQEND
  8
0
  0
LINE
  8
0
 62
4
 10
1.81648277E+01
 20
-1.43382467E+02
 11
1.81648277E+01
 21
-1.14382467E+02
  0
LINE
  8
0
 62
4
 10
1.86648277E+01
 20
-1.13882467E+02
 11
4.76773587E+01
 21
-1.13882467E+02
  0
LINE
  8
0
 62
4
 10
1.86648277E+01
 20
-1.43882467E+02
 11
4.76773413E+01
 21
-1.43882467E+02
  0
ARC
  8
0
 62
4
 10
1.86648277E+01
 20
-1.14382467E+02
 40
5.00000000E-01
 50
9.00000002E+01
 51
1.80000000E+02
  0
ARC
  8
0
 62
4
 10
1.86648277E+01
 20
-1.43382467E+02
 40
5.00000000E-01
 50
1.80000000E+02
 51
2.70000000E+02
  0
LINE
  8
0
 62
4
 10
3.01648277E+01
 20
-1.48682467E+02
 11
3.01648277E+01
 21
-1.47882467E+02
  0
ARC
  8
0
 62
4
 10
3.03648277E+01
 20
-1.48682467E+02
 40
2.00000000E-01
 50
1.80000000E+02
 51
2.70000000E+02
  0
LINE
  8
0
 62
4
 10
2.99648277E+01
 20
-1.47882467E+02
 11
3.61648277E+01
 21
-1.47882467E+02
  0
LINE
  8
0
 62
4
 10
2.99648277E+01
 20
-1.44382467E+02
 11
3.61648277E+01
 21
-1.44382467E+02
  0
LINE
  8
0
 62
4
 10
2.99648277E+01
 20
-1.47882467E+02
 11
2.99648277E+01
 21
-1.44382467E+02
  0
LINE
  8
0
 62
4
 10
3.01648277E+01
 20
-1.44382467E+02
 11
3.01648277E+01
 21
-1.43882467E+02
  0
LINE
  8
0
 62
4
 10
3.66648277E+01
 20
-1.47382467E+02
 11
3.66648277E+01
 21
-1.44882467E+02
  0
ARC
  8
0
 62
4
 10
3.61648277E+01
 20
-1.44882467E+02
 40
5.00000000E-01
 50
0.00000000E+00
 51
9.00000002E+01
  0
ARC
  8
0
 62
4
 10
3.61648277E+01
 20
-1.47382467E+02
 40
5.00000000E-01
 50
2.70000000E+02
 51
0.00000000E+00
  0
LINE
  8
0
 62
4
 10
3.56648277E+01
 20
-1.46882467E+02
 11
3.56648277E+01
 21
-1.45382467E+02
  0
LINE
  8
0
 62
4
 10
3.41648277E+01
 20
-1.45382467E+02
 11
3.56648277E+01
 21
-1.45382467E+02
  0
LINE
  8
0
 62
4
 10
3.41648277E+01
 20
-1.46882467E+02
 11
3.56648277E+01
 21
-1.46882467E+02
  0
LINE
  8
0
 62
4
 10
3.41648277E+01
 20
-1.46882467E+02
 11
3.41648277E+01
 21
-1.45382467E+02
  0
LINE
  8
0
 62
4
 10
3.46648277E+01
 20
-1.46882467E+02
 11
3.46648277E+01
 21
-1.45382467E+02
  0
LINE
  8
0
 62
4
 10
3.03648277E+01
 20
-1.48882467E+02
 11
3.66648277E+01
 21
-1.48882467E+02
  0
ARC
  8
0
 62
4
 10
3.66648277E+01
 20
-1.48382467E+02
 40
5.00000000E-01
 50
2.70000000E+02
 51
0.00000000E+00
  0
LINE
  8
0
 62
4
 10
3.55148277E+01
 20
-1.64649253E+02
 11
3.55148277E+01
 21
-1.48882467E+02
  0
LINE
  8
0
 62
4
 10
3.18148277E+01
 20
-1.63301396E+02
 11
3.18148277E+01
 21
-1.48882467E+02
  0
LINE
  8
0
  6
CENTER
 62
2
 10
3.36648277E+01
 20
-1.67537794E+02
 11
3.36648277E+01
 21
-1.36039316E+02
  0
LINE
  8
0
 62
4
 10
1.69743232E+02
 20
-1.13882467E+02
 11
1.69743232E+02
 21
-1.43882467E+02
  0
LINE
  8
0
 62
4
 10
2.59743233E+02
 20
-1.13882467E+02
 11
2.59743233E+02
 21
-1.43882467E+02
  0
LINE
  8
0
  6
CENTER
 62
2
 10
2.69743233E+02
 20
-1.28882467E+02
 11
1.59743231E+02
 21
-1.28882467E+02
  0
LINE
  8
0
  6
CENTER
 62
2
 10
2.14743232E+02
 20
-8.48824662E+01
 11
2.14743232E+02
 21
-1.78653896E+02
  0
LINE
  8
0
 62
4
 10
2.59743233E+02
 20
-1.43882467E+02
 11
1.69743232E+02
 21
-1.43882467E+02
  0
LINE
  8
0
 62
4
 10
2.59743233E+02
 20
-1.13882467E+02
 11
1.69743232E+02
 21
-1.13882467E+02
  0
LINE
  8
0
 62
4
 10
1.99243232E+02
 20
-1.14882467E+02
 11
1.99243232E+02
 21
-1.42882467E+02
  0
LINE
  8
0
 62
4
 10
2.30243233E+02
 20
-1.14882467E+02
 11
2.30243233E+02
 21
-1.42882467E+02
  0
LINE
  8
0
  6
CENTER
 62
2
 10
2.39743233E+02
 20
-1.21382467E+02
 11
2.39743233E+02
 21
-1.36382467E+02
  0
LINE
  8
0
  6
CENTER
 62
2
 10
1.89743232E+02
 20
-1.21382467E+02
 11
1.89743232E+02
 21
-1.36382467E+02
  0
LINE
  8
0
 62
4
 10
2.29743233E+02
 20
-1.14882467E+02
 11
2.29743233E+02
 21
-1.42882467E+02
  0
LINE
  8
0
 62
4
 10
1.99743232E+02
 20
-1.14882467E+02
 11
1.99743232E+02
 21
-1.42882467E+02
  0
LINE
  8
0
 62
4
 10
2.22243233E+02
 20
-1.28882467E+02
 11
2.22243233E+02
 21
-1.30882467E+02
  0
LINE
  8
0
 62
4
 10
2.20243232E+02
 20
-1.28882467E+02
 11
2.20243232E+02
 21
-1.30882467E+02
  0
LINE
  8
0
 62
4
 10
2.20243232E+02
 20
-1.30882467E+02
 11
2.22243233E+02
 21
-1.30882467E+02
  0
CIRCLE
  8
0
 62
4
 10
2.14743232E+02
 20
-1.28882489E+02
 40
1.25000002E+01
  0
ARC
  8
0
 62
4
 10
2.14743232E+02
 20
-1.28882467E+02
 40
7.50000013E+00
 50
0.00000000E+00
 51
1.80000000E+02
  0
ARC
  8
0
 62
4
 10
2.31243233E+02
 20
-1.42882467E+02
 40
1.00000002E+00
 50
1.80000000E+02
 51
2.70000000E+02
  0
ARC
  8
0
 62
4
 10
2.31243254E+02
 20
-1.14882488E+02
 40
1.00002182E+00
 50
9.00000002E+01
 51
1.79998751E+02
  0
ARC
  8
0
 62
4
 10
2.00743250E+02
 20
-1.14882484E+02
 40
1.00001746E+00
 50
9.00000002E+01
 51
1.79999001E+02
  0
ARC
  8
0
 62
4
 10
2.00743228E+02
 20
-1.42882472E+02
 40
9.99995657E-01
 50
1.79999750E+02
 51
2.70000000E+02
  0
CIRCLE
  8
0
 62
4
 10
2.14743232E+02
 20
-1.28882489E+02
 40
1.40000005E+01
  0
CIRCLE
  8
0
 62
4
 10
2.39743233E+02
 20
-1.28882489E+02
 40
5.49999928E+00
  0
ARC
  8
0
 62
4
 10
1.98243232E+02
 20
-1.42882467E+02
 40
1.00000002E+00
 50
2.70000000E+02
 51
3.60000000E+02
  0
ARC
  8
0
 62
4
 10
2.28743215E+02
 20
-1.14882484E+02
 40
1.00001746E+00
 50
9.99155287E-04
 51
9.00000002E+01
  0
ARC
  8
0
 62
4
 10
2.28743237E+02
 20
-1.42882472E+02
 40
9.99995657E-01
 50
2.70000000E+02
 51
2.49790866E-04
  0
ARC
  8
0
 62
4
 10
2.14743232E+02
 20
-1.28882467E+02
 40
5.50000009E+00
 50
0.00000000E+00
 51
1.80000000E+02
  0
ARC
  8
0
 62
4
 10
1.98243210E+02
 20
-1.14882488E+02
 40
1.00002182E+00
 50
1.24893037E-03
 51
9.00000002E+01
  0
CIRCLE
  8
0
 62
4
 10
1.89743232E+02
 20
-1.28882489E+02
 40
5.49999928E+00
  0
LINE
  8
0
 62
4
 10
2.09243232E+02
 20
-1.28882489E+02
 11
2.09243232E+02
 21
-1.30882489E+02
  0
LINE
  8
0
 62
4
 10
2.09243232E+02
 20
-1.30882489E+02
 11
2.07243232E+02
 21
-1.30882489E+02
  0
LINE
  8
0
 62
4
 10
2.07243232E+02
 20
-1.28882489E+02
 11
2.07243232E+02
 21
-1.30882489E+02
  0
CIRCLE
  8
0
 62
4
 10
1.89743232E+02
 20
-1.28882488E+02
 40
2.89829731E+00
  0
CIRCLE
  8
0
 62
4
 10
1.89743232E+02
 20
-1.28882488E+02
 40
3.96076870E+00
  0
CIRCLE
  8
0
 62
4
 10
1.89743232E+02
 20
-1.28882489E+02
 40
5.00000000E+00
  0
LINE
  8
0
 62
4
 10
1.87233232E+02
 20
-1.30322489E+02
 11
1.89743232E+02
 21
-1.31772489E+02
  0
LINE
  8
0
 62
4
 10
1.89743232E+02
 20
-1.25992489E+02
 11
1.92253232E+02
 21
-1.27442489E+02
  0
LINE
  8
0
 62
4
 10
1.89743232E+02
 20
-1.31772489E+02
 11
1.92253232E+02
 21
-1.30322489E+02
  0
LINE
  8
0
 62
4
 10
1.87233232E+02
 20
-1.27442489E+02
 11
1.89743232E+02
 21
-1.25992489E+02
  0
LINE
  8
0
 62
4
 10
1.92253232E+02
 20
-1.27442489E+02
 11
1.92253232E+02
 21
-1.30322489E+02
  0
LINE
  8
0
 62
4
 10
1.87233232E+02
 20
-1.27442489E+02
 11
1.87233232E+02
 21
-1.30322489E+02
  0
CIRCLE
  8
0
 62
4
 10
2.39743233E+02
 20
-1.28882488E+02
 40
2.89829731E+00
  0
CIRCLE
  8
0
 62
4
 10
2.39743233E+02
 20
-1.28882488E+02
 40
3.96076870E+00
  0
CIRCLE
  8
0
 62
4
 10
2.39743233E+02
 20
-1.28882489E+02
 40
5.00000000E+00
  0
LINE
  8
0
 62
4
 10
2.37233233E+02
 20
-1.30322489E+02
 11
2.39743233E+02
 21
-1.31772489E+02
  0
LINE
  8
0
 62
4
 10
2.39743233E+02
 20
-1.25992489E+02
 11
2.42253233E+02
 21
-1.27442489E+02
  0
LINE
  8
0
 62
4
 10
2.39743233E+02
 20
-1.31772489E+02
 11
2.42253233E+02
 21
-1.30322489E+02
  0
LINE
  8
0
 62
4
 10
2.37233233E+02
 20
-1.27442489E+02
 11
2.39743233E+02
 21
-1.25992489E+02
  0
LINE
  8
0
 62
4
 10
2.42253233E+02
 20
-1.27442489E+02
 11
2.42253233E+02
 21
-1.30322489E+02
  0
LINE
  8
0
 62
4
 10
2.37233233E+02
 20
-1.27442489E+02
 11
2.37233233E+02
 21
-1.30322489E+02
  0
LINE
  8
0
  6
CENTER
 62
2
 10
3.69271808E+02
 20
-1.28882467E+02
 11
2.89100378E+02
 21
-1.28882467E+02
  0
LINE
  8
0
 62
4
 10
2.94100378E+02
 20
-1.13882467E+02
 11
3.09100378E+02
 21
-1.13882467E+02
  0
LINE
  8
0
 62
4
 10
2.94100378E+02
 20
-1.43882467E+02
 11
3.09100378E+02
 21
-1.43882467E+02
  0
LINE
  8
0
 62
4
 10
2.92100378E+02
 20
-1.15882467E+02
 11
2.92100378E+02
 21
-1.41882467E+02
  0
LINE
  8
0
 62
4
 10
3.11100378E+02
 20
-1.15882467E+02
 11
3.11100378E+02
 21
-1.41882467E+02
  0
LINE
  8
0
  6
CENTER
 62
2
 10
3.31600379E+02
 20
-8.28824661E+01
 11
3.31600379E+02
 21
-1.78653896E+02
  0
ARC
  8
0
 62
4
 10
3.09106598E+02
 20
-1.15876246E+02
 40
1.99378953E+00
 50
3.59821249E+02
 51
9.01787510E+01
  0
ARC
  8
0
 62
4
 10
3.09106598E+02
 20
-1.41888687E+02
 40
1.99378953E+00
 50
2.69821249E+02
 51
1.78751014E-01
  0
ARC
  8
0
 62
4
 10
2.94106631E+02
 20
-1.15888719E+02
 40
2.00626251E+00
 50
9.01785688E+01
 51
1.79821431E+02
  0
ARC
  8
0
 62
4
 10
2.94106631E+02
 20
-1.41876214E+02
 40
2.00626251E+00
 50
1.80178568E+02
 51
2.69821431E+02
  0
POLYLINE
  8
0
 62
4
 66
1
  0
VERTEX
  8
0
 62
4
 10
2.94112853E+02
 20
-1.23382488E+02
  0
VERTEX
  8
0
 62
4
 10
2.93982119E+02
 20
-1.23403417E+02
  0
VERTEX
  8
0
 62
4
 10
2.93852381E+02
 20
-1.23466046E+02
  0
VERTEX
  8
0
 62
4
 10
2.93724624E+02
 20
-1.23569896E+02
  0
VERTEX
  8
0
 62
4
 10
2.93599823E+02
 20
-1.23714179E+02
  0
VERTEX
  8
0
 62
4
 10
2.93478926E+02
 20
-1.23897795E+02
  0
VERTEX
  8
0
 62
4
 10
2.93362853E+02
 20
-1.24119348E+02
  0
VERTEX
  8
0
 62
4
 10
2.93252488E+02
 20
-1.24377152E+02
  0
VERTEX
  8
0
 62
4
 10
2.93148672E+02
 20
-1.24669244E+02
  0
VERTEX
  8
0
 62
4
 10
2.93052193E+02
 20
-1.24993401E+02
  0
VERTEX
  8
0
 62
4
 10
2.92963786E+02
 20
-1.25347156E+02
  0
VERTEX
  8
0
 62
4
 10
2.92884125E+02
 20
-1.25727818E+02
  0
VERTEX
  8
0
 62
4
 10
2.92813815E+02
 20
-1.26132488E+02
  0
VERTEX
  8
0
 62
4
 10
2.92753391E+02
 20
-1.26558088E+02
  0
VERTEX
  8
0
 62
4
 10
2.92703314E+02
 20
-1.27001378E+02
  0
VERTEX
  8
0
 62
4
 10
2.92663964E+02
 20
-1.27458984E+02
  0
VERTEX
  8
0
 62
4
 10
2.92635641E+02
 20
-1.27927423E+02
  0
VERTEX
  8
0
 62
4
 10
2.92618560E+02
 20
-1.28403132E+02
  0
VERTEX
  8
0
 62
4
 10
2.92612852E+02
 20
-1.28882489E+02
  0
VERTEX
  8
0
 62
4
 10
2.92618560E+02
 20
-1.29361845E+02
  0
VERTEX
  8
0
 62
4
 10
2.92635640E+02
 20
-1.29837554E+02
  0
VERTEX
  8
0
 62
4
 10
2.92663963E+02
 20
-1.30305993E+02
  0
VERTEX
  8
0
 62
4
 10
2.92703312E+02
 20
-1.30763600E+02
  0
VERTEX
  8
0
 62
4
 10
2.92753390E+02
 20
-1.31206889E+02
  0
VERTEX
  8
0
 62
4
 10
2.92813813E+02
 20
-1.31632489E+02
  0
VERTEX
  8
0
 62
4
 10
2.92884123E+02
 20
-1.32037159E+02
  0
VERTEX
  8
0
 62
4
 10
2.92963784E+02
 20
-1.32417821E+02
  0
VERTEX
  8
0
 62
4
 10
2.93052190E+02
 20
-1.32771576E+02
  0
VERTEX
  8
0
 62
4
 10
2.93148669E+02
 20
-1.33095734E+02
  0
VERTEX
  8
0
 62
4
 10
2.93252486E+02
 20
-1.33387825E+02
  0
VERTEX
  8
0
 62
4
 10
2.93362850E+02
 20
-1.33645629E+02
  0
VERTEX
  8
0
 62
4
 10
2.93478922E+02
 20
-1.33867182E+02
  0
VERTEX
  8
0
 62
4
 10
2.93599820E+02
 20
-1.34050799E+02
  0
VERTEX
  8
0
 62
4
 10
2.93724621E+02
 20
-1.34195082E+02
  0
VERTEX
  8
0
 62
4
 10
2.93852377E+02
 20
-1.34298932E+02
  0
VERTEX
  8
0
 62
4
 10
2.93982116E+02
 20
-1.34361560E+02
  0
VERTEX
  8
0
 62
4
 10
2.94112849E+02
 20
-1.34382490E+02
  0
VERTEX
  8
0
 62
4
 10
2.94243583E+02
 20
-1.34361561E+02
  0
VERTEX
  8
0
 62
4
 10
2.94373321E+02
 20
-1.34298932E+02
  0
VERTEX
  8
0
 62
4
 10
2.94501078E+02
 20
-1.34195082E+02
  0
VERTEX
  8
0
 62
4
 10
2.94625879E+02
 20
-1.34050799E+02
  0
VERTEX
  8
0
 62
4
 10
2.94746776E+02
 20
-1.33867183E+02
  0
VERTEX
  8
0
 62
4
 10
2.94862849E+02
 20
-1.33645630E+02
  0
VERTEX
  8
0
 62
4
 10
2.94973214E+02
 20
-1.33387826E+02
  0
VERTEX
  8
0
 62
4
 10
2.95077030E+02
 20
-1.33095734E+02
  0
VERTEX
  8
0
 62
4
 10
2.95173509E+02
 20
-1.32771577E+02
  0
VERTEX
  8
0
 62
4
 10
2.95261916E+02
 20
-1.32417822E+02
  0
VERTEX
  8
0
 62
4
 10
2.95341577E+02
 20
-1.32037160E+02
  0
VERTEX
  8
0
 62
4
 10
2.95411887E+02
 20
-1.31632490E+02
  0
VERTEX
  8
0
 62
4
 10
2.95472311E+02
 20
-1.31206890E+02
  0
VERTEX
  8
0
 62
4
 10
2.95522388E+02
 20
-1.30763600E+02
  0
VERTEX
  8
0
 62
4
 10
2.95561738E+02
 20
-1.30305994E+02
  0
VERTEX
  8
0
 62
4
 10
2.95590061E+02
 20
-1.29837555E+02
  0
VERTEX
  8
0
 62
4
 10
2.95607142E+02
 20
-1.29361846E+02
  0
VERTEX
  8
0
 62
4
 10
2.95612850E+02
 20
-1.28882489E+02
  0
VERTEX
  8
0
 62
4
 10
2.95607142E+02
 20
-1.28403133E+02
  0
VERTEX
  8
0
 62
4
 10
2.95590062E+02
 20
-1.27927424E+02
  0
VERTEX
  8
0
 62
4
 10
2.95561739E+02
 20
-1.27458985E+02
  0
VERTEX
  8
0
 62
4
 10
2.95522390E+02
 20
-1.27001378E+02
  0
VERTEX
  8
0
 62
4
 10
2.95472312E+02
 20
-1.26558089E+02
  0
VERTEX
  8
0
 62
4
 10
2.95411889E+02
 20
-1.26132489E+02
  0
VERTEX
  8
0
 62
4
 10
2.95341579E+02
 20
-1.25727819E+02
  0
VERTEX
  8
0
 62
4
 10
2.95261918E+02
 20
-1.25347157E+02
  0
VERTEX
  8
0
 62
4
 10
2.95173512E+02
 20
-1.24993402E+02
  0
VERTEX
  8
0
 62
4
 10
2.95077033E+02
 20
-1.24669244E+02
  0
VERTEX
  8
0
 62
4
 10
2.94973216E+02
 20
-1.24377153E+02
  0
VERTEX
  8
0
 62
4
 10
2.94862852E+02
 20
-1.24119349E+02
  0
VERTEX
  8
0
 62
4
 10
2.94746780E+02
 20
-1.23897796E+02
  0
VERTEX
  8
0
 62
4
 10
2.94625882E+02
 20
-1.23714179E+02
  0
VERTEX
  8
0
 62
4
 10
2.94501081E+02
 20
-1.23569896E+02
  0
VERTEX
  8
0
 62
4
 10
2.94373325E+02
 20
-1.23466046E+02
  0
VERTEX
  8
0
 62
4
 10
2.94243586E+02
 20
-1.23403418E+02
  0
VERTEX
  8
0
 62
4
 10
2.94112853E+02
 20
-1.23382488E+02
  0
SEQEND
  8
0
  0
LINE
  8
0
 62
7
 10
1.69743232E+02
 20
-1.43882467E+02
 11
1.69743232E+02
 21
-1.48882467E+02
  0
LINE
  8
0
 62
7
 10
2.59743233E+02
 20
-1.43882467E+02
 11
2.59743233E+02
 21
-1.48882467E+02
  0
LINE
  8
0
 62
7
 10
-9.81208886E+01
 20
-1.43882467E+02
 11
-9.81208886E+01
 21
-1.48882467E+02
  0
LINE
  8
0
 62
7
 10
-8.12088702E+00
 20
-1.43882467E+02
 11
-8.12088702E+00
 21
-1.48882467E+02
  0
LINE
  8
0
 62
7
 10
-3.78192321E+02
 20
-1.43882467E+02
 11
-3.78192321E+02
 21
-1.48882467E+02
  0
LINE
  8
0
 62
7
 10
-2.88192320E+02
 20
-1.43882467E+02
 11
-2.88192320E+02
 21
-1.48882467E+02
  0
TEXT
  8
0
 62
7
 10
2.48429205E+02
 20
-2.06318174E+02
 40
6.30000019E+00
  1
-G1B,-G1BQ
 41
1.00000000E+00
  7
MONOTXT
  0
TEXT
  8
0
 62
7
 10
-3.88350281E+02
 20
-1.34000001E+01
 40
6.30000019E+00
  1
PRESSURE GAUGE
 41
1.04477612E+00
  7
MONOTXT
  0
TEXT
  8
0
 62
7
 10
1.79899309E+02
 20
2.28100000E+02
 40
6.30000019E+00
  1
RN902-06-BR
 41
1.00000000E+00
  7
MONOTXT
  0
TEXT
  8
0
 62
7
 10
1.42099307E+02
 20
2.38100000E+02
 40
6.30000019E+00
  1
MODEL:RN900-06-BR
 41
1.00000000E+00
  7
MONOTXT
  0
TEXT
  8
0
 62
7
 10
-8.14506265E+01
 20
2.28100000E+02
 40
6.30000019E+00
  1
RN902-04-BM
 41
1.00000000E+00
  7
MONOTXT
  0
TEXT
  8
0
 62
7
 10
-1.19250627E+02
 20
2.38100000E+02
 40
6.30000019E+00
  1
MODEL:RN900-04-BM
 41
1.00000000E+00
  7
MONOTXT
  0
LINE
  8
0
 62
7
 10
-2.49250000E+02
 20
2.76250000E+02
 11
-2.49250000E+02
 21
2.56250000E+02
  0
TEXT
  8
0
 62
7
 10
-3.51700282E+02
 20
2.58100000E+02
 40
6.30000019E+00
  1
REGULATOR
 41
1.00000000E+00
  7
MONOTXT
  0
TEXT
  8
0
 62
7
 10
-3.85600562E+02
 20
2.38100000E+02
 40
6.30000019E+00
  1
MODEL:RN900-04
 41
1.00000000E+00
  7
MONOTXT
  0
TEXT
  8
0
 62
7
 10
-3.47800561E+02
 20
2.28100000E+02
 40
6.30000019E+00
  1
RN902-04
 41
1.00000000E+00
  7
MONOTXT
  0
LINE
  8
0
 62
7
 10
1.28449870E+02
 20
-2.50000000E-01
 11
1.28449870E+02
 21
2.76250000E+02
  0
LINE
  8
0
 62
7
 10
-1.32900065E+02
 20
-2.50000000E-01
 11
-1.32900065E+02
 21
2.76250000E+02
  0
POLYLINE
  8
0
 62
2
 66
1
  0
VERTEX
  8
0
 62
2
 10
-3.58381747E+02
 20
-1.80377540E+02
  0
VERTEX
  8
0
 62
2
 10
-3.57050399E+02
 20
-1.79761228E+02
  0
VERTEX
  8
0
 62
2
 10
-3.55700213E+02
 20
-1.79179806E+02
  0
VERTEX
  8
0
 62
2
 10
-3.54333335E+02
 20
-1.78638377E+02
  0
VERTEX
  8
0
 62
2
 10
-3.52951909E+02
 20
-1.78142043E+02
  0
VERTEX
  8
0
 62
2
 10
-3.51558082E+02
 20
-1.77695905E+02
  0
VERTEX
  8
0
 62
2
 10
-3.50154000E+02
 20
-1.77305067E+02
  0
VERTEX
  8
0
 62
2
 10
-3.48741808E+02
 20
-1.76974630E+02
  0
VERTEX
  8
0
 62
2
 10
-3.47323653E+02
 20
-1.76709698E+02
  0
VERTEX
  8
0
 62
2
 10
-3.45901680E+02
 20
-1.76515371E+02
  0
VERTEX
  8
0
 62
2
 10
-3.44478035E+02
 20
-1.76396753E+02
  0
VERTEX
  8
0
 62
2
 10
-3.42177583E+02
 20
-1.76368777E+02
  0
VERTEX
  8
0
 62
2
 10
-3.39877842E+02
 20
-1.76517414E+02
  0
VERTEX
  8
0
 62
2
 10
-3.37577987E+02
 20
-1.76808170E+02
  0
VERTEX
  8
0
 62
2
 10
-3.35277196E+02
 20
-1.77206551E+02
  0
VERTEX
  8
0
 62
2
 10
-3.32974643E+02
 20
-1.77678064E+02
  0
VERTEX
  8
0
 62
2
 10
-3.30669504E+02
 20
-1.78188215E+02
  0
VERTEX
  8
0
 62
2
 10
-3.28360955E+02
 20
-1.78702511E+02
  0
VERTEX
  8
0
 62
2
 10
-3.26048172E+02
 20
-1.79186457E+02
  0
VERTEX
  8
0
 62
2
 10
-3.23730330E+02
 20
-1.79605559E+02
  0
VERTEX
  8
0
 62
2
 10
-3.21406606E+02
 20
-1.79925325E+02
  0
VERTEX
  8
0
 62
2
 10
-3.19335825E+02
 20
-1.80103761E+02
  0
VERTEX
  8
0
 62
2
 10
-3.17260886E+02
 20
-1.80184533E+02
  0
VERTEX
  8
0
 62
2
 10
-3.15183460E+02
 20
-1.80175358E+02
  0
VERTEX
  8
0
 62
2
 10
-3.13105219E+02
 20
-1.80083950E+02
  0
VERTEX
  8
0
 62
2
 10
-3.11027834E+02
 20
-1.79918024E+02
  0
VERTEX
  8
0
 62
2
 10
-3.08952978E+02
 20
-1.79685294E+02
  0
VERTEX
  8
0
 62
2
 10
-3.06882322E+02
 20
-1.79393476E+02
  0
VERTEX
  8
0
 62
2
 10
-3.04817537E+02
 20
-1.79050285E+02
  0
VERTEX
  8
0
 62
2
 10
-3.02760295E+02
 20
-1.78663435E+02
  0
VERTEX
  8
0
 62
2
 10
-3.00712268E+02
 20
-1.78240642E+02
  0
SEQEND
  8
0
  0
POLYLINE
  8
0
 62
2
 66
1
  0
VERTEX
  8
0
 62
2
 10
-2.22367458E+02
 20
-1.80377540E+02
  0
VERTEX
  8
0
 62
2
 10
-2.21036111E+02
 20
-1.79761228E+02
  0
VERTEX
  8
0
 62
2
 10
-2.19685925E+02
 20
-1.79179806E+02
  0
VERTEX
  8
0
 62
2
 10
-2.18319046E+02
 20
-1.78638377E+02
  0
VERTEX
  8
0
 62
2
 10
-2.16937621E+02
 20
-1.78142043E+02
  0
VERTEX
  8
0
 62
2
 10
-2.15543794E+02
 20
-1.77695905E+02
  0
VERTEX
  8
0
 62
2
 10
-2.14139711E+02
 20
-1.77305067E+02
  0
VERTEX
  8
0
 62
2
 10
-2.12727520E+02
 20
-1.76974630E+02
  0
VERTEX
  8
0
 62
2
 10
-2.11309365E+02
 20
-1.76709698E+02
  0
VERTEX
  8
0
 62
2
 10
-2.09887392E+02
 20
-1.76515371E+02
  0
VERTEX
  8
0
 62
2
 10
-2.08463747E+02
 20
-1.76396753E+02
  0
VERTEX
  8
0
 62
2
 10
-2.06163295E+02
 20
-1.76368777E+02
  0
VERTEX
  8
0
 62
2
 10
-2.03863554E+02
 20
-1.76517414E+02
  0
VERTEX
  8
0
 62
2
 10
-2.01563699E+02
 20
-1.76808170E+02
  0
VERTEX
  8
0
 62
2
 10
-1.99262908E+02
 20
-1.77206551E+02
  0
VERTEX
  8
0
 62
2
 10
-1.96960354E+02
 20
-1.77678064E+02
  0
VERTEX
  8
0
 62
2
 10
-1.94655215E+02
 20
-1.78188215E+02
  0
VERTEX
  8
0
 62
2
 10
-1.92346666E+02
 20
-1.78702511E+02
  0
VERTEX
  8
0
 62
2
 10
-1.90033883E+02
 20
-1.79186457E+02
  0
VERTEX
  8
0
 62
2
 10
-1.87716042E+02
 20
-1.79605559E+02
  0
VERTEX
  8
0
 62
2
 10
-1.85392318E+02
 20
-1.79925325E+02
  0
VERTEX
  8
0
 62
2
 10
-1.83321537E+02
 20
-1.80103761E+02
  0
VERTEX
  8
0
 62
2
 10
-1.81246598E+02
 20
-1.80184533E+02
  0
VERTEX
  8
0
 62
2
 10
-1.79169172E+02
 20
-1.80175358E+02
  0
VERTEX
  8
0
 62
2
 10
-1.77090931E+02
 20
-1.80083950E+02
  0
VERTEX
  8
0
 62
2
 10
-1.75013546E+02
 20
-1.79918024E+02
  0
VERTEX
  8
0
 62
2
 10
-1.72938690E+02
 20
-1.79685294E+02
  0
VERTEX
  8
0
 62
2
 10
-1.70868034E+02
 20
-1.79393476E+02
  0
VERTEX
  8
0
 62
2
 10
-1.68803249E+02
 20
-1.79050285E+02
  0
VERTEX
  8
0
 62
2
 10
-1.66746007E+02
 20
-1.78663435E+02
  0
VERTEX
  8
0
 62
2
 10
-1.64697980E+02
 20
-1.78240642E+02
  0
SEQEND
  8
0
  0
POLYLINE
  8
0
 62
2
 66
1
  0
VERTEX
  8
0
 62
2
 10
4.49754042E+01
 20
-1.80377540E+02
  0
VERTEX
  8
0
 62
2
 10
4.63067523E+01
 20
-1.79761228E+02
  0
VERTEX
  8
0
 62
2
 10
4.76569393E+01
 20
-1.79179806E+02
  0
VERTEX
  8
0
 62
2
 10
4.90238190E+01
 20
-1.78638377E+02
  0
VERTEX
  8
0
 62
2
 10
5.04052456E+01
 20
-1.78142042E+02
  0
VERTEX
  8
0
 62
2
 10
5.17990731E+01
 20
-1.77695905E+02
  0
VERTEX
  8
0
 62
2
 10
5.32031554E+01
 20
-1.77305066E+02
  0
VERTEX
  8
0
 62
2
 10
5.46153466E+01
 20
-1.76974630E+02
  0
VERTEX
  8
0
 62
2
 10
5.60335008E+01
 20
-1.76709697E+02
  0
VERTEX
  8
0
 62
2
 10
5.74554720E+01
 20
-1.76515371E+02
  0
VERTEX
  8
0
 62
2
 10
5.88791141E+01
 20
-1.76396753E+02
  0
VERTEX
  8
0
 62
2
 10
6.11795622E+01
 20
-1.76368777E+02
  0
VERTEX
  8
0
 62
2
 10
6.34793006E+01
 20
-1.76517414E+02
  0
VERTEX
  8
0
 62
2
 10
6.57791534E+01
 20
-1.76808170E+02
  0
VERTEX
  8
0
 62
2
 10
6.80799446E+01
 20
-1.77206551E+02
  0
VERTEX
  8
0
 62
2
 10
7.03824982E+01
 20
-1.77678064E+02
  0
VERTEX
  8
0
 62
2
 10
7.26876383E+01
 20
-1.78188215E+02
  0
VERTEX
  8
0
 62
2
 10
7.49961887E+01
 20
-1.78702511E+02
  0
VERTEX
  8
0
 62
2
 10
7.73089737E+01
 20
-1.79186456E+02
  0
VERTEX
  8
0
 62
2
 10
7.96268171E+01
 20
-1.79605559E+02
  0
VERTEX
  8
0
 62
2
 10
8.19505431E+01
 20
-1.79925325E+02
  0
VERTEX
  8
0
 62
2
 10
8.40213257E+01
 20
-1.80103761E+02
  0
VERTEX
  8
0
 62
2
 10
8.60962661E+01
 20
-1.80184534E+02
  0
VERTEX
  8
0
 62
2
 10
8.81736925E+01
 20
-1.80175358E+02
  0
VERTEX
  8
0
 62
2
 10
9.02519336E+01
 20
-1.80083950E+02
  0
VERTEX
  8
0
 62
2
 10
9.23293178E+01
 20
-1.79918024E+02
  0
VERTEX
  8
0
 62
2
 10
9.44041736E+01
 20
-1.79685294E+02
  0
VERTEX
  8
0
 62
2
 10
9.64748294E+01
 20
-1.79393476E+02
  0
VERTEX
  8
0
 62
2
 10
9.85396137E+01
 20
-1.79050285E+02
  0
VERTEX
  8
0
 62
2
 10
1.00596855E+02
 20
-1.78663435E+02
  0
VERTEX
  8
0
 62
2
 10
1.02644882E+02
 20
-1.78240642E+02
  0
SEQEND
  8
0
  0
POLYLINE
  8
0
 62
2
 66
1
  0
VERTEX
  8
0
 62
2
 10
-7.83103122E+01
 20
-1.80377540E+02
  0
VERTEX
  8
0
 62
2
 10
-7.69789641E+01
 20
-1.79761228E+02
  0
VERTEX
  8
0
 62
2
 10
-7.56287771E+01
 20
-1.79179806E+02
  0
VERTEX
  8
0
 62
2
 10
-7.42618974E+01
 20
-1.78638377E+02
  0
VERTEX
  8
0
 62
2
 10
-7.28804708E+01
 20
-1.78142042E+02
  0
VERTEX
  8
0
 62
2
 10
-7.14866433E+01
 20
-1.77695905E+02
  0
VERTEX
  8
0
 62
2
 10
-7.00825610E+01
 20
-1.77305066E+02
  0
VERTEX
  8
0
 62
2
 10
-6.86703697E+01
 20
-1.76974630E+02
  0
VERTEX
  8
0
 62
2
 10
-6.72522156E+01
 20
-1.76709697E+02
  0
VERTEX
  8
0
 62
2
 10
-6.58302444E+01
 20
-1.76515371E+02
  0
VERTEX
  8
0
 62
2
 10
-6.44066023E+01
 20
-1.76396753E+02
  0
VERTEX
  8
0
 62
2
 10
-6.21061542E+01
 20
-1.76368777E+02
  0
VERTEX
  8
0
 62
2
 10
-5.98064158E+01
 20
-1.76517414E+02
  0
VERTEX
  8
0
 62
2
 10
-5.75065630E+01
 20
-1.76808170E+02
  0
VERTEX
  8
0
 62
2
 10
-5.52057718E+01
 20
-1.77206551E+02
  0
VERTEX
  8
0
 62
2
 10
-5.29032182E+01
 20
-1.77678064E+02
  0
VERTEX
  8
0
 62
2
 10
-5.05980781E+01
 20
-1.78188215E+02
  0
VERTEX
  8
0
 62
2
 10
-4.82895276E+01
 20
-1.78702511E+02
  0
VERTEX
  8
0
 62
2
 10
-4.59767427E+01
 20
-1.79186456E+02
  0
VERTEX
  8
0
 62
2
 10
-4.36588992E+01
 20
-1.79605559E+02
  0
VERTEX
  8
0
 62
2
 10
-4.13351733E+01
 20
-1.79925325E+02
  0
VERTEX
  8
0
 62
2
 10
-3.92643907E+01
 20
-1.80103761E+02
  0
VERTEX
  8
0
 62
2
 10
-3.71894503E+01
 20
-1.80184534E+02
  0
VERTEX
  8
0
 62
2
 10
-3.51120239E+01
 20
-1.80175358E+02
  0
VERTEX
  8
0
 62
2
 10
-3.30337828E+01
 20
-1.80083950E+02
  0
VERTEX
  8
0
 62
2
 10
-3.09563986E+01
 20
-1.79918024E+02
  0
VERTEX
  8
0
 62
2
 10
-2.88815428E+01
 20
-1.79685294E+02
  0
VERTEX
  8
0
 62
2
 10
-2.68108870E+01
 20
-1.79393476E+02
  0
VERTEX
  8
0
 62
2
 10
-2.47461027E+01
 20
-1.79050285E+02
  0
VERTEX
  8
0
 62
2
 10
-2.26888613E+01
 20
-1.78663435E+02
  0
VERTEX
  8
0
 62
2
 10
-2.06408346E+01
 20
-1.78240642E+02
  0
SEQEND
  8
0
  0
LINE
  8
0
 62
7
 10
2.98600378E+02
 20
-8.98824663E+01
 11
2.98600378E+02
 21
-1.13139610E+02
  0
LINE
  8
0
 62
7
 10
2.98600378E+02
 20
-1.44639610E+02
 11
2.98600378E+02
 21
-1.66182468E+02
  0
LINE
  8
0
 62
2
 10
3.56528950E+02
 20
-1.70182468E+02
 11
3.56528950E+02
 21
-1.71382468E+02
  0
LINE
  8
0
 62
7
 10
3.57600379E+02
 20
-1.70182468E+02
 11
3.57600379E+02
 21
-1.71382468E+02
  0
LINE
  8
0
 62
7
 10
3.05600378E+02
 20
-1.70182468E+02
 11
3.05600378E+02
 21
-1.71382468E+02
  0
LINE
  8
0
 62
2
 10
3.06686092E+02
 20
-1.70182468E+02
 11
3.06686092E+02
 21
-1.71382468E+02
  0
LINE
  8
0
 62
7
 10
3.57600379E+02
 20
-1.70182468E+02
 11
3.05600378E+02
 21
-1.70182468E+02
  0
LINE
  8
0
 62
7
 10
3.06686092E+02
 20
-1.68182468E+02
 11
3.06686092E+02
 21
-1.70182468E+02
  0
LINE
  8
0
 62
7
 10
3.56528950E+02
 20
-1.68182468E+02
 11
3.56528950E+02
 21
-1.70182468E+02
  0
LINE
  8
0
 62
7
 10
3.02128949E+02
 20
-1.80382468E+02
 11
3.06400655E+02
 21
-1.80382468E+02
  0
LINE
  8
0
 62
7
 10
3.06600378E+02
 20
-1.08882467E+02
 11
3.06600378E+02
 21
-1.13882467E+02
  0
LINE
  8
0
 62
7
 10
3.18357521E+02
 20
-1.48882467E+02
 11
3.44857522E+02
 21
-1.48882467E+02
  0
LINE
  8
0
 62
7
 10
2.99100378E+02
 20
-1.13639610E+02
 11
3.06600378E+02
 21
-1.13639610E+02
  0
LINE
  8
0
 62
7
 10
2.99100378E+02
 20
-1.44139610E+02
 11
3.06600378E+02
 21
-1.44139610E+02
  0
LINE
  8
0
 62
7
 10
3.29800378E+02
 20
-1.33282467E+02
 11
3.29800378E+02
 21
-1.35653896E+02
  0
LINE
  8
0
 62
7
 10
3.06600378E+02
 20
-1.43882467E+02
 11
3.06600378E+02
 21
-1.48882467E+02
  0
LINE
  8
0
 62
7
 10
3.16357521E+02
 20
-1.53382467E+02
 11
3.16357521E+02
 21
-1.50882467E+02
  0
LINE
  8
0
 62
7
 10
3.46857522E+02
 20
-1.53382467E+02
 11
3.46857522E+02
 21
-1.50882467E+02
  0
LINE
  8
0
 62
7
 10
3.62600379E+02
 20
-8.78824662E+01
 11
3.00600378E+02
 21
-8.78824662E+01
  0
LINE
  8
0
 62
7
 10
3.00600378E+02
 20
-1.68182468E+02
 11
3.62600379E+02
 21
-1.68182468E+02
  0
LINE
  8
0
 62
7
 10
2.98600378E+02
 20
-1.54182467E+02
 11
3.64600379E+02
 21
-1.54182467E+02
  0
LINE
  8
0
 62
7
 10
3.56600379E+02
 20
-1.08882467E+02
 11
3.56600379E+02
 21
-1.13882467E+02
  0
LINE
  8
0
 62
7
 10
3.18357521E+02
 20
-1.08882467E+02
 11
3.44857522E+02
 21
-1.08882467E+02
  0
LINE
  8
0
 62
7
 10
3.16357521E+02
 20
-1.06882467E+02
 11
3.16357521E+02
 21
-1.04382466E+02
  0
LINE
  8
0
 62
7
 10
3.46857522E+02
 20
-1.06882467E+02
 11
3.46857522E+02
 21
-1.04382466E+02
  0
LINE
  8
0
 62
7
 10
2.98600378E+02
 20
-1.03882466E+02
 11
3.64600379E+02
 21
-1.03882466E+02
  0
LINE
  8
0
 62
7
 10
2.98600378E+02
 20
-1.53882467E+02
 11
3.64600379E+02
 21
-1.53882467E+02
  0
LINE
  8
0
 62
7
 10
3.33400379E+02
 20
-1.33282467E+02
 11
3.33400379E+02
 21
-1.35653896E+02
  0
LINE
  8
0
 62
7
 10
3.52100379E+02
 20
-1.15882467E+02
 11
3.52100379E+02
 21
-1.41882467E+02
  0
LINE
  8
0
 62
7
 10
3.64600379E+02
 20
-8.98824663E+01
 11
3.64600379E+02
 21
-1.13139610E+02
  0
LINE
  8
0
 62
7
 10
3.62600379E+02
 20
-1.13882467E+02
 11
3.54100379E+02
 21
-1.13882467E+02
  0
LINE
  8
0
 62
7
 10
3.62600379E+02
 20
-1.43882467E+02
 11
3.54100379E+02
 21
-1.43882467E+02
  0
LINE
  8
0
 62
7
 10
3.56600379E+02
 20
-1.43882467E+02
 11
3.56600379E+02
 21
-1.48882467E+02
  0
LINE
  8
0
 62
7
 10
3.56600379E+02
 20
-1.13639610E+02
 11
3.64100379E+02
 21
-1.13639610E+02
  0
LINE
  8
0
 62
7
 10
3.56600379E+02
 20
-1.44139610E+02
 11
3.64100379E+02
 21
-1.44139610E+02
  0
LINE
  8
0
 62
7
 10
3.64600379E+02
 20
-1.15882467E+02
 11
3.64600379E+02
 21
-1.41882467E+02
  0
LINE
  8
0
 62
7
 10
3.64600379E+02
 20
-1.44639610E+02
 11
3.64600379E+02
 21
-1.66182468E+02
  0
LINE
  8
0
 62
7
 10
3.01600378E+02
 20
-1.71382468E+02
 11
3.01600378E+02
 21
-1.72382468E+02
  0
LINE
  8
0
 62
7
 10
2.99128949E+02
 20
-1.72382468E+02
 11
3.64071808E+02
 21
-1.72382468E+02
  0
LINE
  8
0
 62
7
 10
3.01600378E+02
 20
-1.71382468E+02
 11
3.61600379E+02
 21
-1.71382468E+02
  0
LINE
  8
0
 62
7
 10
3.61600379E+02
 20
-1.71382468E+02
 11
3.61600379E+02
 21
-1.72382468E+02
  0
LINE
  8
0
 62
7
 10
2.99128949E+02
 20
-1.78653896E+02
 11
3.10418384E+02
 21
-1.78653896E+02
  0
LINE
  8
0
 62
7
 10
3.31600379E+02
 20
-1.72382468E+02
 11
3.31600379E+02
 21
-1.77631319E+02
  0
LINE
  8
0
  6
CENTER
 62
2
 10
3.03600378E+02
 20
-1.60182467E+02
 11
3.03600378E+02
 21
-1.69182468E+02
  0
LINE
  8
0
 62
7
 10
2.99357521E+02
 20
-1.61182467E+02
 11
3.08600378E+02
 21
-1.61182467E+02
  0
LINE
  8
0
 62
7
 10
3.08600378E+02
 20
-1.61182467E+02
 11
3.08600378E+02
 21
-1.66182468E+02
  0
LINE
  8
0
 62
7
 10
3.63857522E+02
 20
-1.61182467E+02
 11
3.54600379E+02
 21
-1.61182467E+02
  0
LINE
  8
0
 62
7
 10
3.54600379E+02
 20
-1.61182467E+02
 11
3.54600379E+02
 21
-1.66182468E+02
  0
LINE
  8
0
  6
CENTER
 62
2
 10
3.59600379E+02
 20
-1.60182467E+02
 11
3.59600379E+02
 21
-1.69182468E+02
  0
LINE
  8
0
 62
7
 10
2.99357521E+02
 20
-9.48824663E+01
 11
3.08600378E+02
 21
-9.48824663E+01
  0
LINE
  8
0
  6
CENTER
 62
2
 10
3.03600378E+02
 20
-9.58824664E+01
 11
3.03600378E+02
 21
-8.68824662E+01
  0
LINE
  8
0
 62
7
 10
3.08600378E+02
 20
-9.48824663E+01
 11
3.08600378E+02
 21
-8.98824663E+01
  0
LINE
  8
0
 62
7
 10
3.54600379E+02
 20
-9.48824663E+01
 11
3.54600379E+02
 21
-8.98824663E+01
  0
LINE
  8
0
 62
7
 10
3.63857522E+02
 20
-9.48824663E+01
 11
3.54600379E+02
 21
-9.48824663E+01
  0
LINE
  8
0
  6
CENTER
 62
2
 10
3.59600379E+02
 20
-9.58824664E+01
 11
3.59600379E+02
 21
-8.68824662E+01
  0
LINE
  8
0
 62
7
 10
3.08643235E+02
 20
-1.72382468E+02
 11
3.08643235E+02
 21
-1.78653896E+02
  0
LINE
  8
0
 62
7
 10
3.54571807E+02
 20
-1.72382468E+02
 11
3.54571807E+02
 21
-1.78653896E+02
  0
LINE
  8
0
 62
7
 10
3.71648280E+01
 20
-8.98824663E+01
 11
3.71648280E+01
 21
-1.13125324E+02
  0
LINE
  8
0
 62
7
 10
4.51648282E+01
 20
-1.08882467E+02
 11
4.51648282E+01
 21
-1.13882467E+02
  0
LINE
  8
0
 62
7
 10
5.69219712E+01
 20
-1.48882467E+02
 11
8.34219717E+01
 21
-1.48882467E+02
  0
LINE
  8
0
 62
7
 10
3.76648280E+01
 20
-1.13625324E+02
 11
4.51648282E+01
 21
-1.13625324E+02
  0
LINE
  8
0
 62
7
 10
3.76648280E+01
 20
-1.44125324E+02
 11
4.51648282E+01
 21
-1.44125324E+02
  0
LINE
  8
0
 62
7
 10
6.83648286E+01
 20
-1.33282467E+02
 11
6.83648286E+01
 21
-1.35639610E+02
  0
LINE
  8
0
 62
7
 10
4.51648282E+01
 20
-1.43882467E+02
 11
4.51648282E+01
 21
-1.48882467E+02
  0
LINE
  8
0
 62
7
 10
5.49219712E+01
 20
-1.53382467E+02
 11
5.49219712E+01
 21
-1.50882467E+02
  0
LINE
  8
0
 62
7
 10
8.54219717E+01
 20
-1.53382467E+02
 11
8.54219717E+01
 21
-1.50882467E+02
  0
LINE
  8
0
 62
7
 10
1.01164829E+02
 20
-8.78824662E+01
 11
3.91648281E+01
 21
-8.78824662E+01
  0
LINE
  8
0
 62
7
 10
3.91648281E+01
 20
-1.68182468E+02
 11
1.01164829E+02
 21
-1.68182468E+02
  0
LINE
  8
0
 62
7
 10
3.71648280E+01
 20
-1.54182467E+02
 11
1.03164829E+02
 21
-1.54182467E+02
  0
LINE
  8
0
 62
7
 10
9.51648290E+01
 20
-1.08882467E+02
 11
9.51648290E+01
 21
-1.13882467E+02
  0
LINE
  8
0
 62
7
 10
5.69219712E+01
 20
-1.08882467E+02
 11
8.34219717E+01
 21
-1.08882467E+02
  0
LINE
  8
0
 62
7
 10
5.49219712E+01
 20
-1.06882467E+02
 11
5.49219712E+01
 21
-1.04382466E+02
  0
LINE
  8
0
 62
7
 10
8.54219717E+01
 20
-1.06882467E+02
 11
8.54219717E+01
 21
-1.04382466E+02
  0
LINE
  8
0
 62
7
 10
3.71648280E+01
 20
-1.03882466E+02
 11
1.03164829E+02
 21
-1.03882466E+02
  0
LINE
  8
0
 62
7
 10
3.71648280E+01
 20
-1.53882467E+02
 11
1.03164829E+02
 21
-1.53882467E+02
  0
LINE
  8
0
 62
7
 10
7.19648286E+01
 20
-1.33282467E+02
 11
7.19648286E+01
 21
-1.35639610E+02
  0
LINE
  8
0
 62
7
 10
9.06648289E+01
 20
-1.15882467E+02
 11
9.06648289E+01
 21
-1.41882467E+02
  0
LINE
  8
0
 62
7
 10
1.03164829E+02
 20
-8.98824663E+01
 11
1.03164829E+02
 21
-1.13125324E+02
  0
LINE
  8
0
 62
7
 10
1.01164829E+02
 20
-1.13882467E+02
 11
9.26648290E+01
 21
-1.13882467E+02
  0
LINE
  8
0
 62
7
 10
1.01164829E+02
 20
-1.43882467E+02
 11
9.26648290E+01
 21
-1.43882467E+02
  0
LINE
  8
0
 62
7
 10
9.51648290E+01
 20
-1.43882467E+02
 11
9.51648290E+01
 21
-1.48882467E+02
  0
LINE
  8
0
 62
7
 10
9.51648290E+01
 20
-1.13625324E+02
 11
1.02664829E+02
 21
-1.13625324E+02
  0
LINE
  8
0
 62
7
 10
9.51648290E+01
 20
-1.44125324E+02
 11
1.02664829E+02
 21
-1.44125324E+02
  0
LINE
  8
0
 62
7
 10
1.03164829E+02
 20
-1.15882467E+02
 11
1.03164829E+02
 21
-1.41882467E+02
  0
LINE
  8
0
 62
7
 10
1.03164829E+02
 20
-1.44625324E+02
 11
1.03164829E+02
 21
-1.66182468E+02
  0
LINE
  8
0
  6
CENTER
 62
2
 10
4.21648281E+01
 20
-1.60182467E+02
 11
4.21648281E+01
 21
-1.69182468E+02
  0
LINE
  8
0
 62
7
 10
3.79219709E+01
 20
-1.61182467E+02
 11
4.71648282E+01
 21
-1.61182467E+02
  0
LINE
  8
0
 62
7
 10
4.71648282E+01
 20
-1.61182467E+02
 11
4.71648282E+01
 21
-1.66182468E+02
  0
LINE
  8
0
 62
7
 10
1.02421972E+02
 20
-1.61182467E+02
 11
9.31648290E+01
 21
-1.61182467E+02
  0
LINE
  8
0
 62
7
 10
9.31648290E+01
 20
-1.61182467E+02
 11
9.31648290E+01
 21
-1.66182468E+02
  0
LINE
  8
0
  6
CENTER
 62
2
 10
9.81648291E+01
 20
-1.60182467E+02
 11
9.81648291E+01
 21
-1.69182468E+02
  0
LINE
  8
0
 62
7
 10
3.79219709E+01
 20
-9.48824663E+01
 11
4.71648282E+01
 21
-9.48824663E+01
  0
LINE
  8
0
  6
CENTER
 62
2
 10
4.21648281E+01
 20
-9.58824664E+01
 11
4.21648281E+01
 21
-8.68824662E+01
  0
LINE
  8
0
 62
7
 10
4.71648282E+01
 20
-9.48824663E+01
 11
4.71648282E+01
 21
-8.98824663E+01
  0
LINE
  8
0
 62
7
 10
9.31648290E+01
 20
-9.48824663E+01
 11
9.31648290E+01
 21
-8.98824663E+01
  0
LINE
  8
0
 62
7
 10
1.02421972E+02
 20
-9.48824663E+01
 11
9.31648290E+01
 21
-9.48824663E+01
  0
LINE
  8
0
  6
CENTER
 62
2
 10
9.81648291E+01
 20
-9.58824664E+01
 11
9.81648291E+01
 21
-8.68824662E+01
  0
LINE
  8
0
 62
7
 10
-8.12088702E+00
 20
-1.08882467E+02
 11
-8.12088702E+00
 21
-1.13882467E+02
  0
LINE
  8
0
 62
7
 10
-9.81208886E+01
 20
-1.08882467E+02
 11
-9.81208886E+01
 21
-1.13882467E+02
  0
LINE
  8
0
 62
7
 10
-8.61208884E+01
 20
-1.54182467E+02
 11
-5.49708878E+01
 21
-1.54182467E+02
  0
LINE
  8
0
 62
7
 10
-2.21208873E+01
 20
-8.78824662E+01
 11
-8.41208883E+01
 21
-8.78824662E+01
  0
LINE
  8
0
 62
7
 10
-8.61208884E+01
 20
-8.98824663E+01
 11
-8.61208884E+01
 21
-1.13882467E+02
  0
LINE
  8
0
 62
7
 10
-2.01208872E+01
 20
-8.98824663E+01
 11
-2.01208872E+01
 21
-1.13882467E+02
  0
LINE
  8
0
 62
7
 10
-2.01208872E+01
 20
-1.54182467E+02
 11
-2.01208872E+01
 21
-1.66182468E+02
  0
LINE
  8
0
 62
7
 10
-8.61208884E+01
 20
-1.54182467E+02
 11
-8.61208884E+01
 21
-1.66182468E+02
  0
LINE
  8
0
 62
7
 10
-2.21208873E+01
 20
-1.68182468E+02
 11
-5.13637449E+01
 21
-1.68182468E+02
  0
LINE
  8
0
 62
7
 10
-8.53637455E+01
 20
-1.61182467E+02
 11
-7.61208882E+01
 21
-1.61182467E+02
  0
LINE
  8
0
 62
7
 10
-7.61208882E+01
 20
-1.61182467E+02
 11
-7.61208882E+01
 21
-1.66182468E+02
  0
LINE
  8
0
  6
CENTER
 62
2
 10
-8.11208883E+01
 20
-1.60182467E+02
 11
-8.11208883E+01
 21
-1.69182468E+02
  0
LINE
  8
0
 62
7
 10
-8.53637455E+01
 20
-9.48824663E+01
 11
-7.61208882E+01
 21
-9.48824663E+01
  0
LINE
  8
0
  6
CENTER
 62
2
 10
-8.11208883E+01
 20
-9.58824664E+01
 11
-8.11208883E+01
 21
-8.68824662E+01
  0
LINE
  8
0
 62
7
 10
-7.61208882E+01
 20
-9.48824663E+01
 11
-7.61208882E+01
 21
-8.98824663E+01
  0
LINE
  8
0
 62
7
 10
-3.01208874E+01
 20
-1.61182467E+02
 11
-3.01208874E+01
 21
-1.66182468E+02
  0
LINE
  8
0
 62
7
 10
-2.08637444E+01
 20
-1.61182467E+02
 11
-3.01208874E+01
 21
-1.61182467E+02
  0
LINE
  8
0
  6
CENTER
 62
2
 10
-2.51208873E+01
 20
-1.60182467E+02
 11
-2.51208873E+01
 21
-1.69182468E+02
  0
LINE
  8
0
 62
7
 10
-2.08637444E+01
 20
-9.48824663E+01
 11
-3.01208874E+01
 21
-9.48824663E+01
  0
LINE
  8
0
  6
CENTER
 62
2
 10
-2.51208873E+01
 20
-9.58824664E+01
 11
-2.51208873E+01
 21
-8.68824662E+01
  0
LINE
  8
0
 62
7
 10
-3.01208874E+01
 20
-9.48824663E+01
 11
-3.01208874E+01
 21
-8.98824663E+01
  0
LINE
  8
0
 62
7
 10
-9.31208885E+01
 20
-1.03882466E+02
 11
-1.31208871E+01
 21
-1.03882466E+02
  0
LINE
  8
0
 62
7
 10
-9.31208885E+01
 20
-1.53882467E+02
 11
-5.49708878E+01
 21
-1.53882467E+02
  0
LINE
  8
0
 62
7
 10
-8.51208883E+01
 20
-1.53882467E+02
 11
-8.51208883E+01
 21
-1.54182467E+02
  0
LINE
  8
0
 62
7
 10
-2.11208872E+01
 20
-1.53882467E+02
 11
-2.11208872E+01
 21
-1.54182467E+02
  0
LINE
  8
0
 62
7
 10
-8.61208884E+01
 20
-1.43882467E+02
 11
-8.61208884E+01
 21
-1.53882467E+02
  0
LINE
  8
0
 62
7
 10
-2.01208872E+01
 20
-1.43882467E+02
 11
-2.01208872E+01
 21
-1.53882467E+02
  0
LINE
  8
0
 62
7
 10
-5.12708878E+01
 20
-1.53882467E+02
 11
-1.31208871E+01
 21
-1.53882467E+02
  0
LINE
  8
0
 62
7
 10
-5.12708878E+01
 20
-1.54182467E+02
 11
-2.01208872E+01
 21
-1.54182467E+02
  0
LINE
  8
0
 62
7
 10
-5.48637450E+01
 20
-1.68182468E+02
 11
-8.41208883E+01
 21
-1.68182468E+02
  0
LINE
  8
0
 62
7
 10
-2.30178033E+02
 20
-8.98824663E+01
 11
-2.30178033E+02
 21
-1.13125324E+02
  0
LINE
  8
0
 62
7
 10
-2.30178033E+02
 20
-1.44625324E+02
 11
-2.30178033E+02
 21
-1.66182468E+02
  0
LINE
  8
0
 62
7
 10
-2.22178033E+02
 20
-1.08882467E+02
 11
-2.22178033E+02
 21
-1.13882467E+02
  0
LINE
  8
0
 62
7
 10
-2.10420890E+02
 20
-1.48882467E+02
 11
-1.83920889E+02
 21
-1.48882467E+02
  0
LINE
  8
0
 62
7
 10
-2.29678033E+02
 20
-1.13625324E+02
 11
-2.22178033E+02
 21
-1.13625324E+02
  0
LINE
  8
0
 62
7
 10
-2.29678033E+02
 20
-1.44125324E+02
 11
-2.22178033E+02
 21
-1.44125324E+02
  0
LINE
  8
0
 62
7
 10
-1.98978033E+02
 20
-1.33282467E+02
 11
-1.98978033E+02
 21
-1.35639610E+02
  0
LINE
  8
0
 62
7
 10
-2.22178033E+02
 20
-1.43882467E+02
 11
-2.22178033E+02
 21
-1.48882467E+02
  0
LINE
  8
0
 62
7
 10
-2.12420890E+02
 20
-1.53382467E+02
 11
-2.12420890E+02
 21
-1.50882467E+02
  0
LINE
  8
0
 62
7
 10
-1.81920889E+02
 20
-1.53382467E+02
 11
-1.81920889E+02
 21
-1.50882467E+02
  0
LINE
  8
0
 62
7
 10
-1.66178032E+02
 20
-8.78824662E+01
 11
-2.28178033E+02
 21
-8.78824662E+01
  0
LINE
  8
0
 62
7
 10
-2.28178033E+02
 20
-1.68182468E+02
 11
-1.66178032E+02
 21
-1.68182468E+02
  0
LINE
  8
0
 62
7
 10
-2.30178033E+02
 20
-1.54182467E+02
 11
-1.64178032E+02
 21
-1.54182467E+02
  0
LINE
  8
0
 62
7
 10
-1.72178032E+02
 20
-1.08882467E+02
 11
-1.72178032E+02
 21
-1.13882467E+02
  0
LINE
  8
0
 62
7
 10
-2.10420890E+02
 20
-1.08882467E+02
 11
-1.83920889E+02
 21
-1.08882467E+02
  0
LINE
  8
0
 62
7
 10
-2.12420890E+02
 20
-1.06882467E+02
 11
-2.12420890E+02
 21
-1.04382466E+02
  0
LINE
  8
0
 62
7
 10
-1.81920889E+02
 20
-1.06882467E+02
 11
-1.81920889E+02
 21
-1.04382466E+02
  0
LINE
  8
0
 62
7
 10
-2.30178033E+02
 20
-1.03882466E+02
 11
-1.64178032E+02
 21
-1.03882466E+02
  0
LINE
  8
0
 62
7
 10
-2.30178033E+02
 20
-1.53882467E+02
 11
-1.64178032E+02
 21
-1.53882467E+02
  0
LINE
  8
0
 62
7
 10
-1.95378033E+02
 20
-1.33282467E+02
 11
-1.95378033E+02
 21
-1.35639610E+02
  0
LINE
  8
0
 62
7
 10
-1.76678032E+02
 20
-1.15882467E+02
 11
-1.76678032E+02
 21
-1.41882467E+02
  0
LINE
  8
0
 62
7
 10
-1.64178032E+02
 20
-8.98824663E+01
 11
-1.64178032E+02
 21
-1.13125324E+02
  0
LINE
  8
0
 62
7
 10
-1.66178032E+02
 20
-1.13882467E+02
 11
-1.74678032E+02
 21
-1.13882467E+02
  0
LINE
  8
0
 62
7
 10
-1.66178032E+02
 20
-1.43882467E+02
 11
-1.74678032E+02
 21
-1.43882467E+02
  0
LINE
  8
0
 62
7
 10
-1.72178032E+02
 20
-1.43882467E+02
 11
-1.72178032E+02
 21
-1.48882467E+02
  0
LINE
  8
0
 62
7
 10
-1.72178032E+02
 20
-1.13625324E+02
 11
-1.64678032E+02
 21
-1.13625324E+02
  0
LINE
  8
0
 62
7
 10
-1.72178032E+02
 20
-1.44125324E+02
 11
-1.64678032E+02
 21
-1.44125324E+02
  0
LINE
  8
0
 62
7
 10
-1.64178032E+02
 20
-1.15882467E+02
 11
-1.64178032E+02
 21
-1.41882467E+02
  0
LINE
  8
0
 62
7
 10
-1.64178032E+02
 20
-1.44625324E+02
 11
-1.64178032E+02
 21
-1.66182468E+02
  0
LINE
  8
0
  6
CENTER
 62
2
 10
-2.25178033E+02
 20
-1.60182467E+02
 11
-2.25178033E+02
 21
-1.69182468E+02
  0
LINE
  8
0
 62
7
 10
-2.29420890E+02
 20
-1.61182467E+02
 11
-2.20178033E+02
 21
-1.61182467E+02
  0
LINE
  8
0
 62
7
 10
-2.20178033E+02
 20
-1.61182467E+02
 11
-2.20178033E+02
 21
-1.66182468E+02
  0
LINE
  8
0
 62
7
 10
-1.64920889E+02
 20
-1.61182467E+02
 11
-1.74178032E+02
 21
-1.61182467E+02
  0
LINE
  8
0
 62
7
 10
-1.74178032E+02
 20
-1.61182467E+02
 11
-1.74178032E+02
 21
-1.66182468E+02
  0
LINE
  8
0
  6
CENTER
 62
2
 10
-1.69178032E+02
 20
-1.60182467E+02
 11
-1.69178032E+02
 21
-1.69182468E+02
  0
LINE
  8
0
 62
7
 10
-2.29420890E+02
 20
-9.48824663E+01
 11
-2.20178033E+02
 21
-9.48824663E+01
  0
LINE
  8
0
  6
CENTER
 62
2
 10
-2.25178033E+02
 20
-9.58824664E+01
 11
-2.25178033E+02
 21
-8.68824662E+01
  0
LINE
  8
0
 62
7
 10
-2.20178033E+02
 20
-9.48824663E+01
 11
-2.20178033E+02
 21
-8.98824663E+01
  0
LINE
  8
0
 62
7
 10
-1.74178032E+02
 20
-9.48824663E+01
 11
-1.74178032E+02
 21
-8.98824663E+01
  0
LINE
  8
0
 62
7
 10
-1.64920889E+02
 20
-9.48824663E+01
 11
-1.74178032E+02
 21
-9.48824663E+01
  0
LINE
  8
0
  6
CENTER
 62
2
 10
-1.69178032E+02
 20
-9.58824664E+01
 11
-1.69178032E+02
 21
-8.68824662E+01
  0
LINE
  8
0
 62
7
 10
-2.88192320E+02
 20
-1.08882467E+02
 11
-2.88192320E+02
 21
-1.13882467E+02
  0
LINE
  8
0
 62
7
 10
-3.78192321E+02
 20
-1.08882467E+02
 11
-3.78192321E+02
 21
-1.13882467E+02
  0
LINE
  8
0
 62
7
 10
-3.66192321E+02
 20
-1.54182467E+02
 11
-3.00192320E+02
 21
-1.54182467E+02
  0
LINE
  8
0
 62
7
 10
-3.02192320E+02
 20
-8.78824662E+01
 11
-3.64192321E+02
 21
-8.78824662E+01
  0
LINE
  8
0
 62
7
 10
-3.66192321E+02
 20
-8.98824663E+01
 11
-3.66192321E+02
 21
-1.13882467E+02
  0
LINE
  8
0
 62
7
 10
-3.00192320E+02
 20
-8.98824663E+01
 11
-3.00192320E+02
 21
-1.13882467E+02
  0
LINE
  8
0
 62
7
 10
-3.00192320E+02
 20
-1.54182467E+02
 11
-3.00192320E+02
 21
-1.66182468E+02
  0
LINE
  8
0
 62
7
 10
-3.66192321E+02
 20
-1.54182467E+02
 11
-3.66192321E+02
 21
-1.66182468E+02
  0
LINE
  8
0
 62
7
 10
-3.02192320E+02
 20
-1.68182468E+02
 11
-3.64192321E+02
 21
-1.68182468E+02
  0
LINE
  8
0
 62
7
 10
-3.65435178E+02
 20
-1.61182467E+02
 11
-3.56192321E+02
 21
-1.61182467E+02
  0
LINE
  8
0
 62
7
 10
-3.56192321E+02
 20
-1.61182467E+02
 11
-3.56192321E+02
 21
-1.66182468E+02
  0
LINE
  8
0
  6
CENTER
 62
2
 10
-3.61192321E+02
 20
-1.60182467E+02
 11
-3.61192321E+02
 21
-1.69182468E+02
  0
LINE
  8
0
 62
7
 10
-3.65435178E+02
 20
-9.48824663E+01
 11
-3.56192321E+02
 21
-9.48824663E+01
  0
LINE
  8
0
  6
CENTER
 62
2
 10
-3.61192321E+02
 20
-9.58824664E+01
 11
-3.61192321E+02
 21
-8.68824662E+01
  0
LINE
  8
0
 62
7
 10
-3.56192321E+02
 20
-9.48824663E+01
 11
-3.56192321E+02
 21
-8.98824663E+01
  0
LINE
  8
0
 62
7
 10
-3.10192320E+02
 20
-1.61182467E+02
 11
-3.10192320E+02
 21
-1.66182468E+02
  0
LINE
  8
0
 62
7
 10
-3.00935177E+02
 20
-1.61182467E+02
 11
-3.10192320E+02
 21
-1.61182467E+02
  0
LINE
  8
0
  6
CENTER
 62
2
 10
-3.05192320E+02
 20
-1.60182467E+02
 11
-3.05192320E+02
 21
-1.69182468E+02
  0
LINE
  8
0
 62
7
 10
-3.00935177E+02
 20
-9.48824663E+01
 11
-3.10192320E+02
 21
-9.48824663E+01
  0
LINE
  8
0
  6
CENTER
 62
2
 10
-3.05192320E+02
 20
-9.58824664E+01
 11
-3.05192320E+02
 21
-8.68824662E+01
  0
LINE
  8
0
 62
7
 10
-3.10192320E+02
 20
-9.48824663E+01
 11
-3.10192320E+02
 21
-8.98824663E+01
  0
LINE
  8
0
 62
7
 10
-3.73192321E+02
 20
-1.03882466E+02
 11
-2.93192320E+02
 21
-1.03882466E+02
  0
LINE
  8
0
 62
7
 10
-3.65192321E+02
 20
-1.53882467E+02
 11
-3.65192321E+02
 21
-1.54182467E+02
  0
LINE
  8
0
 62
7
 10
-3.01192320E+02
 20
-1.53882467E+02
 11
-3.01192320E+02
 21
-1.54182467E+02
  0
LINE
  8
0
 62
7
 10
-3.66192321E+02
 20
-1.43882467E+02
 11
-3.66192321E+02
 21
-1.53882467E+02
  0
LINE
  8
0
 62
7
 10
-3.00192320E+02
 20
-1.43882467E+02
 11
-3.00192320E+02
 21
-1.53882467E+02
  0
LINE
  8
0
 62
7
 10
-3.57192321E+02
 20
-1.68182468E+02
 11
-3.57192321E+02
 21
-1.71382468E+02
  0
LINE
  8
0
 62
7
 10
-3.09192320E+02
 20
-1.70182468E+02
 11
-3.57192321E+02
 21
-1.70182468E+02
  0
LINE
  8
0
 62
7
 10
-3.65663750E+02
 20
-1.72382468E+02
 11
-3.00720892E+02
 21
-1.72382468E+02
  0
LINE
  8
0
 62
7
 10
-3.03192320E+02
 20
-1.71382468E+02
 11
-3.63192321E+02
 21
-1.71382468E+02
  0
LINE
  8
0
 62
7
 10
-3.63192321E+02
 20
-1.71382468E+02
 11
-3.63192321E+02
 21
-1.72382468E+02
  0
LINE
  8
0
 62
7
 10
-3.65663750E+02
 20
-1.72382468E+02
 11
-3.65663750E+02
 21
-1.78639611E+02
  0
LINE
  8
0
 62
7
 10
-3.58378035E+02
 20
-1.80382468E+02
 11
-3.62663750E+02
 21
-1.80382468E+02
  0
LINE
  8
0
 62
7
 10
-3.65663750E+02
 20
-1.78639611E+02
 11
-3.54349464E+02
 21
-1.78639611E+02
  0
LINE
  8
0
 62
7
 10
-3.65663750E+02
 20
-1.78639611E+02
 11
-3.62663750E+02
 21
-1.80382468E+02
  0
LINE
  8
0
 62
7
 10
-3.56149464E+02
 20
-1.72382468E+02
 11
-3.56149464E+02
 21
-1.78639611E+02
  0
LINE
  8
0
 62
7
 10
-3.33192321E+02
 20
-1.72382468E+02
 11
-3.33192321E+02
 21
-1.77625325E+02
  0
LINE
  8
0
 62
7
 10
-3.09192320E+02
 20
-1.68182468E+02
 11
-3.09192320E+02
 21
-1.71382468E+02
  0
LINE
  8
0
 62
7
 10
-3.03192320E+02
 20
-1.71382468E+02
 11
-3.03192320E+02
 21
-1.72382468E+02
  0
LINE
  8
0
 62
7
 10
-3.10220892E+02
 20
-1.72382468E+02
 11
-3.10220892E+02
 21
-1.78639611E+02
  0
LINE
  8
0
 62
7
 10
-3.28592321E+02
 20
-1.78639611E+02
 11
-3.02692320E+02
 21
-1.78639611E+02
  0
LINE
  8
0
 62
7
 10
-3.00720892E+02
 20
-1.72382468E+02
 11
-3.00720892E+02
 21
-1.78239611E+02
  0
LINE
  8
0
 62
7
 10
-7.71208882E+01
 20
-1.68182468E+02
 11
-7.71208882E+01
 21
-1.71382468E+02
  0
LINE
  8
0
 62
7
 10
-2.91208874E+01
 20
-1.70182468E+02
 11
-5.13637449E+01
 21
-1.70182468E+02
  0
LINE
  8
0
 62
7
 10
-8.55923169E+01
 20
-1.72382468E+02
 11
-5.48637450E+01
 21
-1.72382468E+02
  0
LINE
  8
0
 62
7
 10
-2.31208873E+01
 20
-1.71382468E+02
 11
-5.13637449E+01
 21
-1.71382468E+02
  0
LINE
  8
0
 62
7
 10
-8.31208883E+01
 20
-1.71382468E+02
 11
-8.31208883E+01
 21
-1.72382468E+02
  0
LINE
  8
0
 62
7
 10
-8.55923169E+01
 20
-1.72382468E+02
 11
-8.55923169E+01
 21
-1.78639611E+02
  0
LINE
  8
0
 62
7
 10
-7.83066025E+01
 20
-1.80382468E+02
 11
-8.25923169E+01
 21
-1.80382468E+02
  0
LINE
  8
0
 62
7
 10
-8.55923169E+01
 20
-1.78639611E+02
 11
-7.42780310E+01
 21
-1.78639611E+02
  0
LINE
  8
0
 62
7
 10
-8.55923169E+01
 20
-1.78639611E+02
 11
-8.25923169E+01
 21
-1.80382468E+02
  0
LINE
  8
0
 62
7
 10
-7.60780310E+01
 20
-1.72382468E+02
 11
-7.60780310E+01
 21
-1.78639611E+02
  0
LINE
  8
0
 62
7
 10
-2.91208874E+01
 20
-1.68182468E+02
 11
-2.91208874E+01
 21
-1.71382468E+02
  0
LINE
  8
0
 62
7
 10
-2.31208873E+01
 20
-1.71382468E+02
 11
-2.31208873E+01
 21
-1.72382468E+02
  0
LINE
  8
0
 62
7
 10
-3.01494588E+01
 20
-1.72382468E+02
 11
-3.01494588E+01
 21
-1.78639611E+02
  0
LINE
  8
0
 62
7
 10
-4.85208877E+01
 20
-1.78639611E+02
 11
-2.26208873E+01
 21
-1.78639611E+02
  0
LINE
  8
0
 62
7
 10
-2.06494587E+01
 20
-1.72382468E+02
 11
-2.06494587E+01
 21
-1.78239611E+02
  0
LINE
  8
0
 62
7
 10
-5.48637450E+01
 20
-1.70182468E+02
 11
-7.71208882E+01
 21
-1.70182468E+02
  0
LINE
  8
0
 62
7
 10
-5.48637450E+01
 20
-1.71382468E+02
 11
-8.31208883E+01
 21
-1.71382468E+02
  0
LINE
  8
0
 62
7
 10
-5.13637449E+01
 20
-1.72382468E+02
 11
-2.06494587E+01
 21
-1.72382468E+02
  0
LINE
  8
0
 62
7
 10
-1.71178032E+02
 20
-1.70182468E+02
 11
-2.23178033E+02
 21
-1.70182468E+02
  0
LINE
  8
0
 62
7
 10
-2.29649462E+02
 20
-1.72382468E+02
 11
-1.64706603E+02
 21
-1.72382468E+02
  0
LINE
  8
0
 62
7
 10
-1.67178032E+02
 20
-1.71382468E+02
 11
-2.27178033E+02
 21
-1.71382468E+02
  0
LINE
  8
0
 62
7
 10
-2.27178033E+02
 20
-1.71382468E+02
 11
-2.27178033E+02
 21
-1.72382468E+02
  0
LINE
  8
0
 62
7
 10
-2.29649462E+02
 20
-1.72382468E+02
 11
-2.29649462E+02
 21
-1.78639611E+02
  0
LINE
  8
0
 62
7
 10
-2.22378033E+02
 20
-1.80382468E+02
 11
-2.26649462E+02
 21
-1.80382468E+02
  0
LINE
  8
0
 62
7
 10
-2.29649462E+02
 20
-1.78639611E+02
 11
-2.18335176E+02
 21
-1.78639611E+02
  0
LINE
  8
0
 62
7
 10
-2.29649462E+02
 20
-1.78639611E+02
 11
-2.26649462E+02
 21
-1.80382468E+02
  0
LINE
  8
0
 62
7
 10
-2.20135176E+02
 20
-1.72382468E+02
 11
-2.20135176E+02
 21
-1.78639611E+02
  0
LINE
  8
0
 62
7
 10
-1.97178033E+02
 20
-1.72382468E+02
 11
-1.97178033E+02
 21
-1.77625325E+02
  0
LINE
  8
0
 62
7
 10
-1.67178032E+02
 20
-1.71382468E+02
 11
-1.67178032E+02
 21
-1.72382468E+02
  0
LINE
  8
0
 62
7
 10
-1.74206604E+02
 20
-1.72382468E+02
 11
-1.74206604E+02
 21
-1.78639611E+02
  0
LINE
  8
0
 62
7
 10
-1.92578032E+02
 20
-1.78639611E+02
 11
-1.66678032E+02
 21
-1.78639611E+02
  0
LINE
  8
0
 62
7
 10
-1.64706603E+02
 20
-1.72382468E+02
 11
-1.64706603E+02
 21
-1.78239611E+02
  0
LINE
  8
0
 62
7
 10
9.61648290E+01
 20
-1.70182468E+02
 11
4.41648282E+01
 21
-1.70182468E+02
  0
LINE
  8
0
 62
7
 10
3.76933995E+01
 20
-1.72382468E+02
 11
1.02636258E+02
 21
-1.72382468E+02
  0
LINE
  8
0
 62
7
 10
1.00164829E+02
 20
-1.71382468E+02
 11
4.01648281E+01
 21
-1.71382468E+02
  0
LINE
  8
0
 62
7
 10
4.01648281E+01
 20
-1.71382468E+02
 11
4.01648281E+01
 21
-1.72382468E+02
  0
LINE
  8
0
 62
7
 10
3.76933995E+01
 20
-1.72382468E+02
 11
3.76933995E+01
 21
-1.78639611E+02
  0
LINE
  8
0
 62
7
 10
4.49791139E+01
 20
-1.80382468E+02
 11
4.06933995E+01
 21
-1.80382468E+02
  0
LINE
  8
0
 62
7
 10
3.76933995E+01
 20
-1.78639611E+02
 11
4.90076854E+01
 21
-1.78639611E+02
  0
LINE
  8
0
 62
7
 10
3.76933995E+01
 20
-1.78639611E+02
 11
4.06933995E+01
 21
-1.80382468E+02
  0
LINE
  8
0
 62
7
 10
4.72076853E+01
 20
-1.72382468E+02
 11
4.72076853E+01
 21
-1.78639611E+02
  0
LINE
  8
0
 62
7
 10
7.01648286E+01
 20
-1.72382468E+02
 11
7.01648286E+01
 21
-1.77625325E+02
  0
LINE
  8
0
 62
7
 10
1.00164829E+02
 20
-1.71382468E+02
 11
1.00164829E+02
 21
-1.72382468E+02
  0
LINE
  8
0
 62
7
 10
9.31362576E+01
 20
-1.72382468E+02
 11
9.31362576E+01
 21
-1.78639611E+02
  0
LINE
  8
0
 62
7
 10
7.47648287E+01
 20
-1.78639611E+02
 11
1.00664829E+02
 21
-1.78639611E+02
  0
LINE
  8
0
 62
7
 10
1.02636258E+02
 20
-1.72382468E+02
 11
1.02636258E+02
 21
-1.78239611E+02
  0
LINE
  8
0
 62
7
 10
2.99128949E+02
 20
-1.72382468E+02
 11
2.99128949E+02
 21
-1.78653896E+02
  0
LINE
  8
0
 62
7
 10
2.99128949E+02
 20
-1.78653896E+02
 11
3.02128949E+02
 21
-1.80382468E+02
  0
LINE
  8
0
 62
7
 10
3.64071808E+02
 20
-1.72382468E+02
 11
3.64071808E+02
 21
-1.78242491E+02
  0
LINE
  8
0
 62
7
 10
-3.73192321E+02
 20
-1.53882467E+02
 11
-2.93192320E+02
 21
-1.53882467E+02
  0
LINE
  8
0
 62
7
 10
-1.71178032E+02
 20
-1.70182468E+02
 11
-1.71178032E+02
 21
-1.71382468E+02
  0
LINE
  8
0
 62
7
 10
-2.23178033E+02
 20
-1.70182468E+02
 11
-2.23178033E+02
 21
-1.71382468E+02
  0
LINE
  8
0
 62
2
 10
-2.22092319E+02
 20
-1.70182468E+02
 11
-2.22092319E+02
 21
-1.71382468E+02
  0
LINE
  8
0
 62
2
 10
-1.72263746E+02
 20
-1.70182468E+02
 11
-1.72263746E+02
 21
-1.71382468E+02
  0
LINE
  8
0
 62
7
 10
4.41648282E+01
 20
-1.70182468E+02
 11
4.41648282E+01
 21
-1.71382468E+02
  0
LINE
  8
0
 62
7
 10
9.61648290E+01
 20
-1.70182468E+02
 11
9.61648290E+01
 21
-1.71382468E+02
  0
LINE
  8
0
 62
2
 10
4.52505425E+01
 20
-1.70182468E+02
 11
4.52505425E+01
 21
-1.71382468E+02
  0
LINE
  8
0
 62
2
 10
9.50934004E+01
 20
-1.70182468E+02
 11
9.50934004E+01
 21
-1.71382468E+02
  0
LINE
  8
0
 62
7
 10
-2.22092319E+02
 20
-1.68182468E+02
 11
-2.22092319E+02
 21
-1.70182468E+02
  0
LINE
  8
0
 62
7
 10
-1.72263746E+02
 20
-1.68182468E+02
 11
-1.72263746E+02
 21
-1.70182468E+02
  0
LINE
  8
0
 62
7
 10
4.52505425E+01
 20
-1.68182468E+02
 11
4.52505425E+01
 21
-1.70182468E+02
  0
LINE
  8
0
 62
7
 10
9.50934004E+01
 20
-1.68182468E+02
 11
9.50934004E+01
 21
-1.70182468E+02
  0
LINE
  8
0
 62
7
 10
1.04836258E+02
 20
-1.23511038E+02
 11
1.04836258E+02
 21
-1.34239610E+02
  0
LINE
  8
0
  6
DASHED
 62
2
 10
1.03164829E+02
 20
-1.25382467E+02
 11
1.04836258E+02
 21
-1.25382467E+02
  0
LINE
  8
0
  6
DASHED
 62
2
 10
1.03164829E+02
 20
-1.27125324E+02
 11
1.04836258E+02
 21
-1.27125324E+02
  0
LINE
  8
0
 62
2
 10
1.04636258E+02
 20
-1.23153895E+02
 11
1.03164829E+02
 21
-1.23211038E+02
  0
LINE
  8
0
 62
7
 10
1.04150543E+02
 20
-1.22325324E+02
 11
1.04836258E+02
 21
-1.23511038E+02
  0
LINE
  8
0
 62
7
 10
1.04150543E+02
 20
-1.22325324E+02
 11
1.04150543E+02
 21
-1.35439610E+02
  0
LINE
  8
0
  6
DASHED
 62
2
 10
1.03164829E+02
 20
-1.30625324E+02
 11
1.04836258E+02
 21
-1.30625324E+02
  0
LINE
  8
0
  6
DASHED
 62
2
 10
1.03164829E+02
 20
-1.32382467E+02
 11
1.04836258E+02
 21
-1.32382467E+02
  0
LINE
  8
0
 62
7
 10
1.04150543E+02
 20
-1.35439610E+02
 11
1.04836258E+02
 21
-1.34239610E+02
  0
LINE
  8
0
 62
7
 10
1.04150543E+02
 20
-1.35439610E+02
 11
1.03164829E+02
 21
-1.35396753E+02
  0
LINE
  8
0
 62
7
 10
1.04150543E+02
 20
-1.22325324E+02
 11
1.03164829E+02
 21
-1.22353895E+02
  0
LINE
  8
0
 62
2
 10
1.04636258E+02
 20
-1.34596753E+02
 11
1.03164829E+02
 21
-1.34539610E+02
  0
LINE
  8
0
 62
7
 10
3.65586093E+02
 20
-1.22325324E+02
 11
3.64600379E+02
 21
-1.22368181E+02
  0
LINE
  8
0
 62
7
 10
3.65586093E+02
 20
-1.22325324E+02
 11
3.66271808E+02
 21
-1.23525324E+02
  0
LINE
  8
0
 62
2
 10
3.66071808E+02
 20
-1.23168181E+02
 11
3.64600379E+02
 21
-1.23211038E+02
  0
LINE
  8
0
 62
7
 10
3.66271808E+02
 20
-1.23525324E+02
 11
3.66271808E+02
 21
-1.34253896E+02
  0
LINE
  8
0
  6
DASHED
 62
2
 10
3.64600379E+02
 20
-1.25382467E+02
 11
3.66271808E+02
 21
-1.25382467E+02
  0
LINE
  8
0
  6
DASHED
 62
2
 10
3.64600379E+02
 20
-1.27139610E+02
 11
3.66271808E+02
 21
-1.27139610E+02
  0
LINE
  8
0
 62
7
 10
3.65586093E+02
 20
-1.22325324E+02
 11
3.65586093E+02
 21
-1.35439610E+02
  0
LINE
  8
0
  6
DASHED
 62
2
 10
3.64600379E+02
 20
-1.30639610E+02
 11
3.66271808E+02
 21
-1.30639610E+02
  0
LINE
  8
0
  6
DASHED
 62
2
 10
3.64600379E+02
 20
-1.32382467E+02
 11
3.66271808E+02
 21
-1.32382467E+02
  0
LINE
  8
0
 62
7
 10
3.65586093E+02
 20
-1.35439610E+02
 11
3.66271808E+02
 21
-1.34253896E+02
  0
LINE
  8
0
 62
2
 10
3.66071808E+02
 20
-1.34611038E+02
 11
3.64600379E+02
 21
-1.34553896E+02
  0
LINE
  8
0
 62
7
 10
3.65586093E+02
 20
-1.35439610E+02
 11
3.64600379E+02
 21
-1.35411038E+02
  0
LINE
  8
0
 62
7
 10
-1.63192318E+02
 20
-1.22325324E+02
 11
-1.64178032E+02
 21
-1.22353895E+02
  0
LINE
  8
0
 62
7
 10
-1.63192318E+02
 20
-1.22325324E+02
 11
-1.62506603E+02
 21
-1.23511038E+02
  0
LINE
  8
0
 62
2
 10
-1.62706603E+02
 20
-1.23153895E+02
 11
-1.64178032E+02
 21
-1.23211038E+02
  0
LINE
  8
0
 62
7
 10
-1.62506603E+02
 20
-1.23511038E+02
 11
-1.62506603E+02
 21
-1.34239610E+02
  0
LINE
  8
0
  6
DASHED
 62
2
 10
-1.64178032E+02
 20
-1.25382467E+02
 11
-1.62506603E+02
 21
-1.25382467E+02
  0
LINE
  8
0
  6
DASHED
 62
2
 10
-1.64178032E+02
 20
-1.27125324E+02
 11
-1.62506603E+02
 21
-1.27125324E+02
  0
LINE
  8
0
 62
7
 10
-1.63192318E+02
 20
-1.22325324E+02
 11
-1.63192318E+02
 21
-1.35439610E+02
  0
LINE
  8
0
  6
DASHED
 62
2
 10
-1.64178032E+02
 20
-1.30625324E+02
 11
-1.62506603E+02
 21
-1.30625324E+02
  0
LINE
  8
0
  6
DASHED
 62
2
 10
-1.64178032E+02
 20
-1.32382467E+02
 11
-1.62506603E+02
 21
-1.32382467E+02
  0
LINE
  8
0
 62
7
 10
-1.63192318E+02
 20
-1.35439610E+02
 11
-1.62506603E+02
 21
-1.34239610E+02
  0
LINE
  8
0
 62
2
 10
-1.62706603E+02
 20
-1.34596753E+02
 11
-1.64178032E+02
 21
-1.34539610E+02
  0
LINE
  8
0
 62
7
 10
-1.63192318E+02
 20
-1.35439610E+02
 11
-1.64178032E+02
 21
-1.35396753E+02
  0
LINE
  8
0
 62
7
 10
2.38743233E+02
 20
-1.70182468E+02
 11
1.90743232E+02
 21
-1.70182468E+02
  0
LINE
  8
0
 62
7
 10
1.89543509E+02
 20
-1.80382468E+02
 11
1.85271803E+02
 21
-1.80382468E+02
  0
LINE
  8
0
 62
7
 10
1.84743232E+02
 20
-1.71382468E+02
 11
1.84743232E+02
 21
-1.72382468E+02
  0
LINE
  8
0
 62
7
 10
2.44743233E+02
 20
-1.71382468E+02
 11
2.44743233E+02
 21
-1.72382468E+02
  0
LINE
  8
0
 62
7
 10
1.82271803E+02
 20
-1.72382468E+02
 11
2.47214662E+02
 21
-1.72382468E+02
  0
LINE
  8
0
 62
7
 10
2.44743233E+02
 20
-1.71382468E+02
 11
1.84743232E+02
 21
-1.71382468E+02
  0
LINE
  8
0
 62
7
 10
2.14743232E+02
 20
-1.72382468E+02
 11
2.14743232E+02
 21
-1.78653896E+02
  0
LINE
  8
0
 62
7
 10
1.82271803E+02
 20
-1.78653896E+02
 11
1.93561238E+02
 21
-1.78653896E+02
  0
LINE
  8
0
 62
7
 10
2.38743233E+02
 20
-1.68182468E+02
 11
2.38743233E+02
 21
-1.71382468E+02
  0
LINE
  8
0
 62
7
 10
1.90743232E+02
 20
-1.68182468E+02
 11
1.90743232E+02
 21
-1.71382468E+02
  0
LINE
  8
0
 62
7
 10
1.91786089E+02
 20
-1.72382468E+02
 11
1.91786089E+02
 21
-1.78653896E+02
  0
LINE
  8
0
 62
7
 10
2.37714661E+02
 20
-1.72382468E+02
 11
2.37714661E+02
 21
-1.78653896E+02
  0
LINE
  8
0
 62
7
 10
2.45743233E+02
 20
-1.68182468E+02
 11
1.83743232E+02
 21
-1.68182468E+02
  0
LINE
  8
0
 62
7
 10
2.59743233E+02
 20
-1.08882467E+02
 11
2.59743233E+02
 21
-1.13882467E+02
  0
LINE
  8
0
 62
7
 10
1.69743232E+02
 20
-1.08882467E+02
 11
1.69743232E+02
 21
-1.13882467E+02
  0
LINE
  8
0
 62
7
 10
1.81743232E+02
 20
-1.54182467E+02
 11
2.47743233E+02
 21
-1.54182467E+02
  0
LINE
  8
0
 62
7
 10
2.45743233E+02
 20
-8.78824662E+01
 11
1.83743232E+02
 21
-8.78824662E+01
  0
LINE
  8
0
 62
7
 10
1.81743232E+02
 20
-8.98824663E+01
 11
1.81743232E+02
 21
-1.13882467E+02
  0
LINE
  8
0
 62
7
 10
2.47743233E+02
 20
-8.98824663E+01
 11
2.47743233E+02
 21
-1.13882467E+02
  0
LINE
  8
0
 62
7
 10
2.47743233E+02
 20
-1.54182467E+02
 11
2.47743233E+02
 21
-1.66182468E+02
  0
LINE
  8
0
 62
7
 10
1.81743232E+02
 20
-1.54182467E+02
 11
1.81743232E+02
 21
-1.66182468E+02
  0
LINE
  8
0
 62
7
 10
1.82500375E+02
 20
-1.61182467E+02
 11
1.91743232E+02
 21
-1.61182467E+02
  0
LINE
  8
0
 62
7
 10
1.91743232E+02
 20
-1.61182467E+02
 11
1.91743232E+02
 21
-1.66182468E+02
  0
LINE
  8
0
  6
CENTER
 62
2
 10
1.86743232E+02
 20
-1.60182467E+02
 11
1.86743232E+02
 21
-1.69182468E+02
  0
LINE
  8
0
 62
7
 10
1.82500375E+02
 20
-9.48824663E+01
 11
1.91743232E+02
 21
-9.48824663E+01
  0
LINE
  8
0
  6
CENTER
 62
2
 10
1.86743232E+02
 20
-9.58824664E+01
 11
1.86743232E+02
 21
-8.68824662E+01
  0
LINE
  8
0
 62
7
 10
1.91743232E+02
 20
-9.48824663E+01
 11
1.91743232E+02
 21
-8.98824663E+01
  0
LINE
  8
0
 62
7
 10
2.37743233E+02
 20
-1.61182467E+02
 11
2.37743233E+02
 21
-1.66182468E+02
  0
LINE
  8
0
 62
7
 10
2.47000376E+02
 20
-1.61182467E+02
 11
2.37743233E+02
 21
-1.61182467E+02
  0
LINE
  8
0
  6
CENTER
 62
2
 10
2.42743233E+02
 20
-1.60182467E+02
 11
2.42743233E+02
 21
-1.69182468E+02
  0
LINE
  8
0
 62
7
 10
2.47000376E+02
 20
-9.48824663E+01
 11
2.37743233E+02
 21
-9.48824663E+01
  0
LINE
  8
0
  6
CENTER
 62
2
 10
2.42743233E+02
 20
-9.58824664E+01
 11
2.42743233E+02
 21
-8.68824662E+01
  0
LINE
  8
0
 62
7
 10
2.37743233E+02
 20
-9.48824663E+01
 11
2.37743233E+02
 21
-8.98824663E+01
  0
LINE
  8
0
 62
7
 10
1.74743232E+02
 20
-1.03882466E+02
 11
2.54743233E+02
 21
-1.03882466E+02
  0
LINE
  8
0
 62
7
 10
1.74743232E+02
 20
-1.53882467E+02
 11
2.54743233E+02
 21
-1.53882467E+02
  0
LINE
  8
0
 62
7
 10
1.82743232E+02
 20
-1.53882467E+02
 11
1.82743232E+02
 21
-1.54182467E+02
  0
LINE
  8
0
 62
7
 10
2.46743233E+02
 20
-1.53882467E+02
 11
2.46743233E+02
 21
-1.54182467E+02
  0
LINE
  8
0
 62
7
 10
1.81743232E+02
 20
-1.43882467E+02
 11
1.81743232E+02
 21
-1.53882467E+02
  0
LINE
  8
0
 62
7
 10
2.47743233E+02
 20
-1.43882467E+02
 11
2.47743233E+02
 21
-1.53882467E+02
  0
LINE
  8
0
 62
7
 10
1.82271803E+02
 20
-1.72382468E+02
 11
1.82271803E+02
 21
-1.78653896E+02
  0
LINE
  8
0
 62
7
 10
1.82271803E+02
 20
-1.78653896E+02
 11
1.85271803E+02
 21
-1.80382468E+02
  0
LINE
  8
0
 62
7
 10
2.47214662E+02
 20
-1.72382468E+02
 11
2.47214662E+02
 21
-1.78242491E+02
  0
ARC
  8
0
 62
7
 10
3.00606646E+02
 20
-8.98887342E+01
 40
2.00627778E+00
 50
9.01790019E+01
 51
1.79820998E+02
  0
ARC
  8
0
 62
7
 10
3.00606626E+02
 20
-1.66176220E+02
 40
2.00625772E+00
 50
1.80178433E+02
 51
2.69821567E+02
  0
ARC
  8
0
 62
7
 10
3.11606629E+02
 20
-1.08888718E+02
 40
5.00625525E+00
 50
9.00715449E+01
 51
1.79928455E+02
  0
ARC
  8
0
 62
7
 10
3.11606608E+02
 20
-1.48876238E+02
 40
5.00623345E+00
 50
1.80071296E+02
 51
2.69928704E+02
  0
ARC
  8
0
 62
7
 10
3.15860201E+02
 20
-1.53385147E+02
 40
4.97327522E-01
 50
2.69691277E+02
 51
3.08723292E-01
  0
ARC
  8
0
 62
7
 10
3.47360194E+02
 20
-1.53379795E+02
 40
5.02679340E-01
 50
1.80304584E+02
 51
2.69695416E+02
  0
ARC
  8
0
 62
7
 10
3.18360210E+02
 20
-1.50885156E+02
 40
2.00269048E+00
 50
9.00769203E+01
 51
1.79923080E+02
  0
ARC
  8
0
 62
7
 10
3.44860185E+02
 20
-1.50879804E+02
 40
1.99733855E+00
 50
3.59923601E+02
 51
9.00763984E+01
  0
ARC
  8
0
 62
7
 10
2.99110178E+02
 20
-1.13129810E+02
 40
5.09894024E-01
 50
1.81101256E+02
 51
2.68898744E+02
  0
ARC
  8
0
 62
7
 10
2.99103146E+02
 20
-1.44642378E+02
 40
5.02775302E-01
 50
9.03154031E+01
 51
1.79684597E+02
  0
ARC
  8
0
 62
7
 10
3.64102963E+02
 20
-1.13142194E+02
 40
4.97422316E-01
 50
2.69702313E+02
 51
2.97687112E-01
  0
ARC
  8
0
 62
7
 10
3.64110173E+02
 20
-1.44629816E+02
 40
4.90303600E-01
 50
3.58855391E+02
 51
9.11446094E+01
  0
ARC
  8
0
 62
7
 10
3.62606584E+02
 20
-8.98762613E+01
 40
1.99380478E+00
 50
3.59821690E+02
 51
9.01783104E+01
  0
ARC
  8
0
 62
7
 10
3.62606604E+02
 20
-1.66188693E+02
 40
1.99378473E+00
 50
2.69821110E+02
 51
1.78890079E-01
  0
ARC
  8
0
 62
7
 10
3.51606601E+02
 20
-1.08876245E+02
 40
4.99378228E+00
 50
3.59928616E+02
 51
9.00713838E+01
  0
ARC
  8
0
 62
7
 10
3.51606622E+02
 20
-1.48888711E+02
 40
4.99376048E+00
 50
2.69928365E+02
 51
7.16347496E-02
  0
ARC
  8
0
 62
7
 10
3.47360194E+02
 20
-1.04385139E+02
 40
5.02679340E-01
 50
9.03045840E+01
 51
1.79695416E+02
  0
ARC
  8
0
 62
7
 10
3.15860201E+02
 20
-1.04379787E+02
 40
4.97327522E-01
 50
3.59691277E+02
 51
9.03087230E+01
  0
ARC
  8
0
 62
7
 10
3.44860185E+02
 20
-1.06885130E+02
 40
1.99733855E+00
 50
2.69923601E+02
 51
7.63985660E-02
  0
ARC
  8
0
 62
7
 10
3.18360210E+02
 20
-1.06879778E+02
 40
2.00269048E+00
 50
1.80076921E+02
 51
2.69923079E+02
  0
CIRCLE
  8
0
 62
2
 10
3.31612851E+02
 20
-1.28882489E+02
 40
1.04774995E+01
  0
CIRCLE
  8
0
 62
7
 10
3.31612851E+02
 20
-1.28882489E+02
 40
9.31550042E+00
  0
CIRCLE
  8
0
 62
7
 10
3.31612851E+02
 20
-1.28882489E+02
 40
6.99999957E+00
  0
CIRCLE
  8
0
 62
7
 10
3.31612851E+02
 20
-1.33282470E+02
 40
1.09999846E+00
  0
CIRCLE
  8
0
 62
7
 10
3.31612851E+02
 20
-1.33282470E+02
 40
1.80000308E+00
  0
ARC
  8
0
 62
7
 10
3.62606597E+02
 20
-1.15876249E+02
 40
1.99379170E+00
 50
3.59821312E+02
 51
9.01786885E+01
  0
ARC
  8
0
 62
7
 10
3.62606597E+02
 20
-1.41888685E+02
 40
1.99379170E+00
 50
2.69821312E+02
 51
1.78688373E-01
  0
ARC
  8
0
 62
7
 10
3.54106632E+02
 20
-1.15888719E+02
 40
2.00626251E+00
 50
9.01785688E+01
 51
1.79821431E+02
  0
ARC
  8
0
 62
7
 10
3.54106632E+02
 20
-1.41876214E+02
 40
2.00626251E+00
 50
1.80178568E+02
 51
2.69821431E+02
  0
ARC
  8
0
 62
7
 10
3.00606622E+02
 20
-1.59176224E+02
 40
2.00625336E+00
 50
1.80178309E+02
 51
2.69821691E+02
  0
ARC
  8
0
 62
7
 10
3.10606626E+02
 20
-1.66176220E+02
 40
2.00625772E+00
 50
1.80178433E+02
 51
2.69821567E+02
  0
ARC
  8
0
 62
7
 10
3.52606604E+02
 20
-1.66188693E+02
 40
1.99378473E+00
 50
2.69821110E+02
 51
1.78890079E-01
  0
ARC
  8
0
 62
7
 10
3.62606608E+02
 20
-1.59188697E+02
 40
1.99378037E+00
 50
2.69820984E+02
 51
1.79016145E-01
  0
ARC
  8
0
 62
7
 10
3.00606620E+02
 20
-9.68887082E+01
 40
2.00625162E+00
 50
9.01782594E+01
 51
1.79821741E+02
  0
ARC
  8
0
 62
7
 10
3.10606646E+02
 20
-8.98887342E+01
 40
2.00627778E+00
 50
9.01790019E+01
 51
1.79820998E+02
  0
ARC
  8
0
 62
7
 10
3.52606584E+02
 20
-8.98762613E+01
 40
1.99380478E+00
 50
3.59821690E+02
 51
9.01783104E+01
  0
ARC
  8
0
 62
7
 10
3.62606610E+02
 20
-9.68762352E+01
 40
1.99377862E+00
 50
3.59820934E+02
 51
9.01790667E+01
  0
ARC
  8
0
 62
7
 10
3.91710699E+01
 20
-8.98887081E+01
 40
2.00625155E+00
 50
9.01782577E+01
 51
1.79821742E+02
  0
ARC
  8
0
 62
7
 10
3.91710694E+01
 20
-1.66176226E+02
 40
2.00625112E+00
 50
1.80178245E+02
 51
2.69821755E+02
  0
ARC
  8
0
 62
7
 10
5.01710643E+01
 20
-1.08888703E+02
 40
5.00623999E+00
 50
9.00713707E+01
 51
1.79928629E+02
  0
ARC
  8
0
 62
7
 10
5.01710730E+01
 20
-1.48876223E+02
 40
5.00624871E+00
 50
1.80071470E+02
 51
2.69928530E+02
  0
ARC
  8
0
 62
7
 10
5.44246247E+01
 20
-1.53385121E+02
 40
4.97353562E-01
 50
2.69694309E+02
 51
3.05690969E-01
  0
ARC
  8
0
 62
7
 10
8.59246482E+01
 20
-1.53379791E+02
 40
5.02683583E-01
 50
1.80305063E+02
 51
2.69694937E+02
  0
ARC
  8
0
 62
7
 10
5.69246337E+01
 20
-1.50885130E+02
 40
2.00266429E+00
 50
9.00761732E+01
 51
1.79923827E+02
  0
ARC
  8
0
 62
7
 10
8.34246393E+01
 20
-1.50879800E+02
 40
1.99733416E+00
 50
3.59923475E+02
 51
9.00765250E+01
  0
ARC
  8
0
 62
7
 10
3.76675782E+01
 20
-1.13122574E+02
 40
5.02757682E-01
 50
1.80313417E+02
 51
2.69686583E+02
  0
ARC
  8
0
 62
7
 10
3.76746234E+01
 20
-1.44635120E+02
 40
5.09889487E-01
 50
9.11007650E+01
 51
1.78899235E+02
  0
ARC
  8
0
 62
7
 10
1.02674630E+02
 20
-1.13135125E+02
 40
4.90297158E-01
 50
2.68854607E+02
 51
1.14539282E+00
  0
ARC
  8
0
 62
7
 10
1.02667407E+02
 20
-1.44622747E+02
 40
4.97428949E-01
 50
3.59703085E+02
 51
9.02969149E+01
  0
ARC
  8
0
 62
7
 10
1.01171038E+02
 20
-8.98762569E+01
 40
1.99380035E+00
 50
3.59821562E+02
 51
9.01784381E+01
  0
ARC
  8
0
 62
7
 10
1.01171039E+02
 20
-1.66188677E+02
 40
1.99379992E+00
 50
2.69821549E+02
 51
1.78450808E-01
  0
ARC
  8
0
 62
7
 10
9.01710659E+01
 20
-1.08876230E+02
 40
4.99376702E+00
 50
3.59928441E+02
 51
9.00715597E+01
  0
ARC
  8
0
 62
7
 10
9.01710572E+01
 20
-1.48888695E+02
 40
4.99377574E+00
 50
2.69928541E+02
 51
7.14592418E-02
  0
ARC
  8
0
 62
7
 10
8.59246287E+01
 20
-1.04385123E+02
 40
5.02663965E-01
 50
9.03028502E+01
 51
1.79697150E+02
  0
ARC
  8
0
 62
7
 10
5.44246444E+01
 20
-1.04379793E+02
 40
4.97333945E-01
 50
3.59692024E+02
 51
9.03079753E+01
  0
ARC
  8
0
 62
7
 10
8.34246197E+01
 20
-1.06885115E+02
 40
1.99735378E+00
 50
2.69924040E+02
 51
7.59605225E-02
  0
ARC
  8
0
 62
7
 10
5.69246533E+01
 20
-1.06879784E+02
 40
2.00268391E+00
 50
1.80076733E+02
 51
2.69923267E+02
  0
CIRCLE
  8
0
 62
2
 10
7.01773016E+01
 20
-1.28882458E+02
 40
1.04774995E+01
  0
CIRCLE
  8
0
 62
7
 10
7.01773016E+01
 20
-1.28882458E+02
 40
9.31550042E+00
  0
CIRCLE
  8
0
 62
7
 10
7.01773016E+01
 20
-1.28882458E+02
 40
6.99999957E+00
  0
CIRCLE
  8
0
 62
7
 10
7.01773016E+01
 20
-1.33282461E+02
 40
1.09999846E+00
  0
CIRCLE
  8
0
 62
7
 10
7.01773016E+01
 20
-1.33282461E+02
 40
1.80000308E+00
  0
ARC
  8
0
 62
7
 10
1.01171041E+02
 20
-1.15876255E+02
 40
1.99379817E+00
 50
3.59821499E+02
 51
9.01785012E+01
  0
ARC
  8
0
 62
7
 10
1.01171032E+02
 20
-1.41888670E+02
 40
1.99380689E+00
 50
2.69821751E+02
 51
1.78249106E-01
  0
ARC
  8
0
 62
7
 10
9.26710774E+01
 20
-1.15888715E+02
 40
2.00625815E+00
 50
9.01784450E+01
 51
1.79821555E+02
  0
ARC
  8
0
 62
7
 10
9.26710861E+01
 20
-1.41876210E+02
 40
2.00626686E+00
 50
1.80178692E+02
 51
2.69821308E+02
  0
ARC
  8
0
 62
7
 10
3.91710760E+01
 20
-1.59176220E+02
 40
2.00625766E+00
 50
1.80178431E+02
 51
2.69821569E+02
  0
ARC
  8
0
 62
7
 10
4.91710696E+01
 20
-1.66176226E+02
 40
2.00625112E+00
 50
1.80178245E+02
 51
2.69821755E+02
  0
ARC
  8
0
 62
7
 10
9.11710387E+01
 20
-1.66188677E+02
 40
1.99379992E+00
 50
2.69821549E+02
 51
1.78450808E-01
  0
ARC
  8
0
 62
7
 10
1.01171032E+02
 20
-1.59188671E+02
 40
1.99380646E+00
 50
2.69821738E+02
 51
1.78261712E-01
  0
ARC
  8
0
 62
7
 10
3.91710655E+01
 20
-9.68887038E+01
 40
2.00624719E+00
 50
9.01781339E+01
 51
1.79821866E+02
  0
ARC
  8
0
 62
7
 10
4.91710700E+01
 20
-8.98887081E+01
 40
2.00625155E+00
 50
9.01782577E+01
 51
1.79821742E+02
  0
ARC
  8
0
 62
7
 10
9.11710383E+01
 20
-8.98762569E+01
 40
1.99380035E+00
 50
3.59821562E+02
 51
9.01784381E+01
  0
ARC
  8
0
 62
7
 10
1.01171043E+02
 20
-9.68762526E+01
 40
1.99379599E+00
 50
3.59821436E+02
 51
9.01785642E+01
  0
ARC
  8
0
 62
7
 10
-1.31208936E+01
 20
-1.08882473E+02
 40
5.00000662E+00
 50
7.49371013E-05
 51
9.00000002E+01
  0
ARC
  8
0
 62
7
 10
-1.31209024E+01
 20
-1.48882452E+02
 40
5.00001534E+00
 50
2.70000000E+02
 51
3.59999825E+02
  0
ARC
  8
0
 62
7
 10
-9.31209037E+01
 20
-1.08882451E+02
 40
4.99998483E+00
 50
9.00000002E+01
 51
1.80000175E+02
  0
ARC
  8
0
 62
7
 10
-9.31208950E+01
 20
-1.48882474E+02
 40
4.99999355E+00
 50
1.79999925E+02
 51
2.70000000E+02
  0
ARC
  8
0
 62
7
 10
-8.41208927E+01
 20
-8.98824619E+01
 40
1.99999567E+00
 50
9.00000002E+01
 51
1.80000125E+02
  0
ARC
  8
0
 62
7
 10
-2.21209047E+01
 20
-8.98824837E+01
 40
2.00001747E+00
 50
4.99575740E-04
 51
9.00000002E+01
  0
ARC
  8
0
 62
7
 10
-2.21209043E+01
 20
-1.66182451E+02
 40
2.00001704E+00
 50
2.70000000E+02
 51
3.59999513E+02
  0
ARC
  8
0
 62
7
 10
-8.41208931E+01
 20
-1.66182472E+02
 40
1.99999524E+00
 50
1.79999863E+02
 51
2.70000000E+02
  0
ARC
  8
0
 62
7
 10
-8.41208866E+01
 20
-1.59182466E+02
 40
2.00000178E+00
 50
1.80000050E+02
 51
2.70000000E+02
  0
ARC
  8
0
 62
7
 10
-7.41208929E+01
 20
-1.66182472E+02
 40
1.99999524E+00
 50
1.79999863E+02
 51
2.70000000E+02
  0
ARC
  8
0
 62
7
 10
-8.41208970E+01
 20
-9.68824577E+01
 40
1.99999131E+00
 50
9.00000002E+01
 51
1.80000250E+02
  0
ARC
  8
0
 62
7
 10
-7.41208925E+01
 20
-8.98824619E+01
 40
1.99999567E+00
 50
9.00000002E+01
 51
1.80000125E+02
  0
ARC
  8
0
 62
7
 10
-3.21209044E+01
 20
-1.66182451E+02
 40
2.00001704E+00
 50
2.70000000E+02
 51
3.59999513E+02
  0
ARC
  8
0
 62
7
 10
-2.21209108E+01
 20
-1.59182444E+02
 40
2.00002358E+00
 50
2.70000000E+02
 51
3.59999326E+02
  0
ARC
  8
0
 62
7
 10
-2.21209003E+01
 20
-9.68824794E+01
 40
2.00001311E+00
 50
3.74683438E-04
 51
9.00000002E+01
  0
ARC
  8
0
 62
7
 10
-3.21209049E+01
 20
-8.98824837E+01
 40
2.00001747E+00
 50
4.99575740E-04
 51
9.00000002E+01
  0
ARC
  8
0
 62
7
 10
-1.76178934E+02
 20
-8.98833685E+01
 40
2.00090245E+00
 50
2.58348113E-02
 51
9.00000002E+01
  0
ARC
  8
0
 62
7
 10
-1.66178930E+02
 20
-9.68833642E+01
 40
2.00089809E+00
 50
2.57100846E-02
 51
9.00000002E+01
  0
ARC
  8
0
 62
7
 10
-2.18178922E+02
 20
-8.98815775E+01
 40
1.99911150E+00
 50
9.00000002E+01
 51
1.80025472E+02
  0
ARC
  8
0
 62
7
 10
-2.28178922E+02
 20
-8.98815775E+01
 40
1.99911150E+00
 50
9.00000002E+01
 51
1.80025472E+02
  0
ARC
  8
0
 62
7
 10
-2.28178922E+02
 20
-1.66183357E+02
 40
1.99911106E+00
 50
1.79974516E+02
 51
2.70000000E+02
  0
ARC
  8
0
 62
7
 10
-2.17178922E+02
 20
-1.08881578E+02
 40
4.99911131E+00
 50
9.00000002E+01
 51
1.80010188E+02
  0
ARC
  8
0
 62
7
 10
-2.17178913E+02
 20
-1.48883347E+02
 40
4.99912003E+00
 50
1.79989913E+02
 51
2.70000000E+02
  0
ARC
  8
0
 62
7
 10
-2.12925392E+02
 20
-1.53377965E+02
 40
5.04522188E-01
 50
2.70511284E+02
 51
3.59488716E+02
  0
ARC
  8
0
 62
7
 10
-1.81425343E+02
 20
-1.53386921E+02
 40
4.95566742E-01
 50
1.79485120E+02
 51
2.70514880E+02
  0
ARC
  8
0
 62
7
 10
-2.10425367E+02
 20
-1.50877990E+02
 40
1.99552788E+00
 50
8.98714508E+01
 51
1.80128549E+02
  0
ARC
  8
0
 62
7
 10
-1.83925368E+02
 20
-1.50886946E+02
 40
2.00448352E+00
 50
1.28012222E-01
 51
8.98719877E+01
  0
ARC
  8
0
 62
7
 10
-2.29682482E+02
 20
-1.13129773E+02
 40
4.95571193E-01
 50
1.79485644E+02
 51
2.70514356E+02
  0
ARC
  8
0
 62
7
 10
-2.29675335E+02
 20
-1.44628022E+02
 40
5.02705162E-01
 50
9.03074957E+01
 51
1.79692504E+02
  0
ARC
  8
0
 62
7
 10
-1.64675387E+02
 20
-1.13127969E+02
 40
4.97362036E-01
 50
2.69695296E+02
 51
3.04704408E-01
  0
ARC
  8
0
 62
7
 10
-1.64682508E+02
 20
-1.44629800E+02
 40
5.04496003E-01
 50
5.08362990E-01
 51
8.94916371E+01
  0
ARC
  8
0
 62
7
 10
-1.66178934E+02
 20
-8.98833685E+01
 40
2.00090245E+00
 50
2.58348113E-02
 51
9.00000002E+01
  0
ARC
  8
0
 62
7
 10
-1.66178934E+02
 20
-1.66181566E+02
 40
2.00090201E+00
 50
2.70000000E+02
 51
3.59974178E+02
  0
ARC
  8
0
 62
7
 10
-1.77178934E+02
 20
-1.08883369E+02
 40
5.00090226E+00
 50
1.03353866E-02
 51
9.00000002E+01
  0
ARC
  8
0
 62
7
 10
-1.77178943E+02
 20
-1.48881556E+02
 40
5.00091098E+00
 50
2.70000000E+02
 51
3.59989565E+02
  0
ARC
  8
0
 62
7
 10
-1.81425362E+02
 20
-1.04377993E+02
 40
4.95547127E-01
 50
8.94828112E+01
 51
1.80517189E+02
  0
ARC
  8
0
 62
7
 10
-2.12925373E+02
 20
-1.04386949E+02
 40
5.04502573E-01
 50
5.09095997E-01
 51
8.94909043E+01
  0
ARC
  8
0
 62
7
 10
-1.83925388E+02
 20
-1.06877968E+02
 40
2.00450314E+00
 50
2.70128571E+02
 51
3.59871430E+02
  0
ARC
  8
0
 62
7
 10
-2.10425347E+02
 20
-1.06886924E+02
 40
1.99554750E+00
 50
1.79872016E+02
 51
2.70127983E+02
  0
CIRCLE
  8
0
 62
2
 10
-1.97179845E+02
 20
-1.28882458E+02
 40
1.04774995E+01
  0
CIRCLE
  8
0
 62
7
 10
-1.97179845E+02
 20
-1.28882458E+02
 40
9.31550042E+00
  0
CIRCLE
  8
0
 62
7
 10
-1.97179845E+02
 20
-1.28882458E+02
 40
6.99999957E+00
  0
CIRCLE
  8
0
 62
7
 10
-1.97179845E+02
 20
-1.33282461E+02
 40
1.09999846E+00
  0
CIRCLE
  8
0
 62
7
 10
-1.97179845E+02
 20
-1.33282461E+02
 40
1.80000308E+00
  0
ARC
  8
0
 62
7
 10
-1.66178932E+02
 20
-1.15883367E+02
 40
2.00090027E+00
 50
2.57724480E-02
 51
9.00000002E+01
  0
ARC
  8
0
 62
7
 10
-1.66178941E+02
 20
-1.41881558E+02
 40
2.00090899E+00
 50
2.70000000E+02
 51
3.59973978E+02
  0
ARC
  8
0
 62
7
 10
-1.74678936E+02
 20
-1.15881563E+02
 40
1.99909625E+00
 50
9.00000002E+01
 51
1.80025909E+02
  0
ARC
  8
0
 62
7
 10
-1.74678927E+02
 20
-1.41883362E+02
 40
1.99910497E+00
 50
1.79974341E+02
 51
2.70000000E+02
  0
ARC
  8
0
 62
7
 10
-2.28178916E+02
 20
-1.59183350E+02
 40
1.99911760E+00
 50
1.79974704E+02
 51
2.70000000E+02
  0
ARC
  8
0
 62
7
 10
-2.18178922E+02
 20
-1.66183357E+02
 40
1.99911106E+00
 50
1.79974516E+02
 51
2.70000000E+02
  0
ARC
  8
0
 62
7
 10
-1.76178934E+02
 20
-1.66181566E+02
 40
2.00090201E+00
 50
2.70000000E+02
 51
3.59974178E+02
  0
ARC
  8
0
 62
7
 10
-1.66178940E+02
 20
-1.59181559E+02
 40
2.00090855E+00
 50
2.70000000E+02
 51
3.59973991E+02
  0
ARC
  8
0
 62
7
 10
-2.28178926E+02
 20
-9.68815733E+01
 40
1.99910714E+00
 50
9.00000002E+01
 51
1.80025597E+02
  0
ARC
  8
0
 62
7
 10
-2.93192327E+02
 20
-1.08882473E+02
 40
5.00000662E+00
 50
7.49371013E-05
 51
9.00000002E+01
  0
ARC
  8
0
 62
7
 10
-2.93192335E+02
 20
-1.48882452E+02
 40
5.00001534E+00
 50
2.70000000E+02
 51
3.59999825E+02
  0
ARC
  8
0
 62
7
 10
-3.73192337E+02
 20
-1.08882451E+02
 40
4.99998483E+00
 50
9.00000002E+01
 51
1.80000175E+02
  0
ARC
  8
0
 62
7
 10
-3.73192328E+02
 20
-1.48882474E+02
 40
4.99999355E+00
 50
1.79999925E+02
 51
2.70000000E+02
  0
ARC
  8
0
 62
7
 10
-3.64192315E+02
 20
-8.98824728E+01
 40
2.00000657E+00
 50
9.00000002E+01
 51
1.79999812E+02
  0
ARC
  8
0
 62
7
 10
-3.02192327E+02
 20
-8.98824728E+01
 40
2.00000657E+00
 50
1.87341753E-04
 51
9.00000002E+01
  0
ARC
  8
0
 62
7
 10
-3.02192326E+02
 20
-1.66182461E+02
 40
2.00000614E+00
 50
2.70000000E+02
 51
3.59999825E+02
  0
ARC
  8
0
 62
7
 10
-3.64192315E+02
 20
-1.66182461E+02
 40
2.00000614E+00
 50
1.80000175E+02
 51
2.70000000E+02
  0
ARC
  8
0
 62
7
 10
-3.64192309E+02
 20
-1.59182455E+02
 40
2.00001268E+00
 50
1.80000362E+02
 51
2.70000000E+02
  0
ARC
  8
0
 62
7
 10
-3.54192315E+02
 20
-1.66182461E+02
 40
2.00000614E+00
 50
1.80000175E+02
 51
2.70000000E+02
  0
ARC
  8
0
 62
7
 10
-3.64192319E+02
 20
-9.68824686E+01
 40
2.00000221E+00
 50
9.00000002E+01
 51
1.79999937E+02
  0
ARC
  8
0
 62
7
 10
-3.54192315E+02
 20
-8.98824728E+01
 40
2.00000657E+00
 50
9.00000002E+01
 51
1.79999812E+02
  0
ARC
  8
0
 62
7
 10
-3.12192326E+02
 20
-1.66182461E+02
 40
2.00000614E+00
 50
2.70000000E+02
 51
3.59999825E+02
  0
ARC
  8
0
 62
7
 10
-3.02192333E+02
 20
-1.59182455E+02
 40
2.00001268E+00
 50
2.70000000E+02
 51
3.59999638E+02
  0
ARC
  8
0
 62
7
 10
-3.02192322E+02
 20
-9.68824686E+01
 40
2.00000221E+00
 50
6.24474098E-05
 51
9.00000002E+01
  0
ARC
  8
0
 62
7
 10
-3.12192327E+02
 20
-8.98824728E+01
 40
2.00000657E+00
 50
1.87341753E-04
 51
9.00000002E+01
  0
ARC
  8
0
 62
7
 10
2.54743222E+02
 20
-1.08882477E+02
 40
5.00001098E+00
 50
1.24894751E-04
 51
9.00000002E+01
  0
ARC
  8
0
 62
7
 10
2.54743244E+02
 20
-1.48882478E+02
 40
4.99998919E+00
 50
2.70000000E+02
 51
1.24895024E-04
  0
ARC
  8
0
 62
7
 10
1.74743254E+02
 20
-1.08882488E+02
 40
5.00002188E+00
 50
9.00000002E+01
 51
1.79999750E+02
  0
ARC
  8
0
 62
7
 10
1.74743232E+02
 20
-1.48882467E+02
 40
5.00000009E+00
 50
1.80000000E+02
 51
2.70000000E+02
  0
ARC
  8
0
 62
7
 10
1.83743254E+02
 20
-8.98824881E+01
 40
2.00002183E+00
 50
9.00000002E+01
 51
1.79999375E+02
  0
ARC
  8
0
 62
7
 10
2.45743211E+02
 20
-8.98824881E+01
 40
2.00002183E+00
 50
6.24469812E-04
 51
9.00000002E+01
  0
ARC
  8
0
 62
7
 10
2.45743231E+02
 20
-1.66182466E+02
 40
2.00000178E+00
 50
2.70000000E+02
 51
3.59999950E+02
  0
ARC
  8
0
 62
7
 10
1.83743234E+02
 20
-1.66182466E+02
 40
2.00000178E+00
 50
1.80000050E+02
 51
2.70000000E+02
  0
ARC
  8
0
 62
7
 10
1.83743229E+02
 20
-1.59182470E+02
 40
1.99999742E+00
 50
1.79999925E+02
 51
2.70000000E+02
  0
ARC
  8
0
 62
7
 10
1.93743234E+02
 20
-1.66182466E+02
 40
2.00000178E+00
 50
1.80000050E+02
 51
2.70000000E+02
  0
ARC
  8
0
 62
7
 10
1.83743228E+02
 20
-9.68824620E+01
 40
1.99999567E+00
 50
9.00000002E+01
 51
1.80000125E+02
  0
ARC
  8
0
 62
7
 10
1.93743254E+02
 20
-8.98824881E+01
 40
2.00002183E+00
 50
9.00000002E+01
 51
1.79999375E+02
  0
ARC
  8
0
 62
7
 10
2.35743231E+02
 20
-1.66182466E+02
 40
2.00000178E+00
 50
2.70000000E+02
 51
3.59999950E+02
  0
ARC
  8
0
 62
7
 10
2.45743236E+02
 20
-1.59182470E+02
 40
1.99999742E+00
 50
2.70000000E+02
 51
7.49366819E-05
  0
ARC
  8
0
 62
7
 10
2.45743237E+02
 20
-9.68824620E+01
 40
1.99999567E+00
 50
3.59999875E+02
 51
9.00000002E+01
  0
ARC
  8
0
 62
7
 10
2.35743211E+02
 20
-8.98824881E+01
 40
2.00002183E+00
 50
6.24469812E-04
 51
9.00000002E+01
  0
TEXT
  8
0
 62
7
 10
-2.86886306E+02
 20
-2.06318174E+02
 40
6.30000019E+00
  1
-G1A
 41
1.00000000E+00
  7
MONOTXT
  0
TEXT
  8
0
 62
7
 10
-9.17208134E+00
 20
-2.06318174E+02
 40
6.30000019E+00
  1
-GS2
 41
1.00000000E+00
  7
MONOTXT
  0
LINE
  8
0
 62
7
 10
3.71648280E+01
 20
-1.66182468E+02
 11
3.71648277E+01
 21
-1.43882467E+02
  0
LINE
  8
0
 62
7
 10
1.90993244E+02
 20
-1.65882470E+02
 11
1.90993245E+02
 21
-1.61182470E+02
  0
LINE
  8
0
 62
7
 10
1.90993244E+02
 20
-1.65882470E+02
 11
1.90473243E+02
 21
-1.66182470E+02
  0
LINE
  8
0
 62
7
 10
1.82493244E+02
 20
-1.65882467E+02
 11
1.90993244E+02
 21
-1.65882470E+02
  0
LINE
  8
0
 62
7
 10
1.83013243E+02
 20
-1.66182467E+02
 11
1.90473243E+02
 21
-1.66182470E+02
  0
LINE
  8
0
 62
7
 10
1.82493244E+02
 20
-1.65882467E+02
 11
1.83013243E+02
 21
-1.66182467E+02
  0
LINE
  8
0
 62
7
 10
1.82493244E+02
 20
-1.65882467E+02
 11
1.82493245E+02
 21
-1.61182467E+02
  0
LINE
  8
0
 62
7
 10
2.46993240E+02
 20
-1.65882470E+02
 11
2.46993242E+02
 21
-1.61182470E+02
  0
LINE
  8
0
 62
7
 10
2.46993240E+02
 20
-1.65882470E+02
 11
2.46473240E+02
 21
-1.66182470E+02
  0
LINE
  8
0
 62
7
 10
2.38493240E+02
 20
-1.65882467E+02
 11
2.46993240E+02
 21
-1.65882470E+02
  0
LINE
  8
0
 62
7
 10
2.39013240E+02
 20
-1.66182467E+02
 11
2.46473240E+02
 21
-1.66182470E+02
  0
LINE
  8
0
 62
7
 10
2.38493240E+02
 20
-1.65882467E+02
 11
2.39013240E+02
 21
-1.66182467E+02
  0
LINE
  8
0
 62
7
 10
2.38493240E+02
 20
-1.65882467E+02
 11
2.38493242E+02
 21
-1.61182467E+02
  0
LINE
  8
0
 62
7
 10
2.38743240E+02
 20
-9.01825068E+01
 11
2.38743242E+02
 21
-9.48825068E+01
  0
LINE
  8
0
 62
7
 10
2.38493240E+02
 20
-9.01825069E+01
 11
2.38493242E+02
 21
-9.48825069E+01
  0
LINE
  8
0
 62
7
 10
2.38493240E+02
 20
-9.01825069E+01
 11
2.39013240E+02
 21
-8.98825067E+01
  0
LINE
  8
0
 62
7
 10
2.46993240E+02
 20
-9.01825042E+01
 11
2.38493240E+02
 21
-9.01825069E+01
  0
LINE
  8
0
 62
7
 10
2.46473240E+02
 20
-8.98825044E+01
 11
2.39013240E+02
 21
-8.98825067E+01
  0
LINE
  8
0
 62
7
 10
2.46993240E+02
 20
-9.01825042E+01
 11
2.46473240E+02
 21
-8.98825044E+01
  0
LINE
  8
0
 62
7
 10
2.46993240E+02
 20
-9.01825042E+01
 11
2.46993242E+02
 21
-9.48825042E+01
  0
LINE
  8
0
 62
7
 10
1.82493244E+02
 20
-9.01825069E+01
 11
1.82493245E+02
 21
-9.48825069E+01
  0
LINE
  8
0
 62
7
 10
1.82493244E+02
 20
-9.01825069E+01
 11
1.83013243E+02
 21
-8.98825067E+01
  0
LINE
  8
0
 62
7
 10
1.90993244E+02
 20
-9.01825042E+01
 11
1.82493244E+02
 21
-9.01825069E+01
  0
LINE
  8
0
 62
7
 10
1.90473243E+02
 20
-8.98825044E+01
 11
1.83013243E+02
 21
-8.98825067E+01
  0
LINE
  8
0
 62
7
 10
1.90993244E+02
 20
-9.01825042E+01
 11
1.90473243E+02
 21
-8.98825044E+01
  0
LINE
  8
0
 62
7
 10
1.90993244E+02
 20
-9.01825042E+01
 11
1.90993245E+02
 21
-9.48825042E+01
  0
LINE
  8
0
 62
7
 10
4.64272909E+01
 20
-1.65882461E+02
 11
4.64272924E+01
 21
-1.61182461E+02
  0
LINE
  8
0
 62
7
 10
4.64272909E+01
 20
-1.65882461E+02
 11
4.59072908E+01
 21
-1.66182461E+02
  0
LINE
  8
0
 62
7
 10
3.79272909E+01
 20
-1.65882458E+02
 11
4.64272909E+01
 21
-1.65882461E+02
  0
LINE
  8
0
 62
7
 10
3.84472908E+01
 20
-1.66182458E+02
 11
4.59072908E+01
 21
-1.66182461E+02
  0
LINE
  8
0
 62
7
 10
3.79272909E+01
 20
-1.65882458E+02
 11
3.84472908E+01
 21
-1.66182458E+02
  0
LINE
  8
0
 62
7
 10
3.79272909E+01
 20
-1.65882458E+02
 11
3.79272924E+01
 21
-1.61182458E+02
  0
LINE
  8
0
 62
7
 10
1.02427287E+02
 20
-1.65882461E+02
 11
1.02427289E+02
 21
-1.61182461E+02
  0
LINE
  8
0
 62
7
 10
1.02427287E+02
 20
-1.65882461E+02
 11
1.01907287E+02
 21
-1.66182461E+02
  0
LINE
  8
0
 62
7
 10
9.39272875E+01
 20
-1.65882458E+02
 11
1.02427287E+02
 21
-1.65882461E+02
  0
LINE
  8
0
 62
7
 10
9.44472874E+01
 20
-1.66182458E+02
 11
1.01907287E+02
 21
-1.66182461E+02
  0
LINE
  8
0
 62
7
 10
9.39272875E+01
 20
-1.65882458E+02
 11
9.44472874E+01
 21
-1.66182458E+02
  0
LINE
  8
0
 62
7
 10
9.39272875E+01
 20
-1.65882458E+02
 11
9.39272890E+01
 21
-1.61182458E+02
  0
LINE
  8
0
 62
7
 10
9.39272875E+01
 20
-9.01824764E+01
 11
9.39272890E+01
 21
-9.48824764E+01
  0
LINE
  8
0
 62
7
 10
9.39272875E+01
 20
-9.01824764E+01
 11
9.44472874E+01
 21
-8.98824762E+01
  0
LINE
  8
0
 62
7
 10
1.02427287E+02
 20
-9.01824737E+01
 11
9.39272875E+01
 21
-9.01824764E+01
  0
LINE
  8
0
 62
7
 10
1.01907287E+02
 20
-8.98824739E+01
 11
9.44472874E+01
 21
-8.98824762E+01
  0
LINE
  8
0
 62
7
 10
1.02427287E+02
 20
-9.01824737E+01
 11
1.01907287E+02
 21
-8.98824739E+01
  0
LINE
  8
0
 62
7
 10
1.02427287E+02
 20
-9.01824737E+01
 11
1.02427289E+02
 21
-9.48824737E+01
  0
LINE
  8
0
 62
7
 10
3.79272909E+01
 20
-9.01824764E+01
 11
3.79272924E+01
 21
-9.48824764E+01
  0
LINE
  8
0
 62
7
 10
3.79272909E+01
 20
-9.01824764E+01
 11
3.84472908E+01
 21
-8.98824762E+01
  0
LINE
  8
0
 62
7
 10
4.64272909E+01
 20
-9.01824737E+01
 11
3.79272909E+01
 21
-9.01824764E+01
  0
LINE
  8
0
 62
7
 10
4.59072908E+01
 20
-8.98824739E+01
 11
3.84472908E+01
 21
-8.98824762E+01
  0
LINE
  8
0
 62
7
 10
4.64272909E+01
 20
-9.01824737E+01
 11
4.59072908E+01
 21
-8.98824739E+01
  0
LINE
  8
0
 62
7
 10
4.64272909E+01
 20
-9.01824737E+01
 11
4.64272924E+01
 21
-9.48824737E+01
  0
LINE
  8
0
 62
7
 10
-7.68708985E+01
 20
-1.65882461E+02
 11
-7.68708970E+01
 21
-1.61182461E+02
  0
LINE
  8
0
 62
7
 10
-7.68708985E+01
 20
-1.65882461E+02
 11
-7.73908986E+01
 21
-1.66182461E+02
  0
LINE
  8
0
 62
7
 10
-8.53708985E+01
 20
-1.65882458E+02
 11
-7.68708985E+01
 21
-1.65882461E+02
  0
LINE
  8
0
 62
7
 10
-8.48508986E+01
 20
-1.66182458E+02
 11
-7.73908986E+01
 21
-1.66182461E+02
  0
LINE
  8
0
 62
7
 10
-8.53708985E+01
 20
-1.65882458E+02
 11
-8.48508986E+01
 21
-1.66182458E+02
  0
LINE
  8
0
 62
7
 10
-8.53708985E+01
 20
-1.65882458E+02
 11
-8.53708970E+01
 21
-1.61182458E+02
  0
LINE
  8
0
 62
7
 10
-2.08709019E+01
 20
-1.65882461E+02
 11
-2.08709004E+01
 21
-1.61182461E+02
  0
LINE
  8
0
 62
7
 10
-2.08709019E+01
 20
-1.65882461E+02
 11
-2.13909020E+01
 21
-1.66182461E+02
  0
LINE
  8
0
 62
7
 10
-2.93709019E+01
 20
-1.65882458E+02
 11
-2.08709019E+01
 21
-1.65882461E+02
  0
LINE
  8
0
 62
7
 10
-2.88509020E+01
 20
-1.66182458E+02
 11
-2.13909020E+01
 21
-1.66182461E+02
  0
LINE
  8
0
 62
7
 10
-2.93709019E+01
 20
-1.65882458E+02
 11
-2.88509020E+01
 21
-1.66182458E+02
  0
LINE
  8
0
 62
7
 10
-2.93709019E+01
 20
-1.65882458E+02
 11
-2.93709004E+01
 21
-1.61182458E+02
  0
LINE
  8
0
 62
7
 10
-2.93709019E+01
 20
-9.01824764E+01
 11
-2.93709004E+01
 21
-9.48824764E+01
  0
LINE
  8
0
 62
7
 10
-2.93709019E+01
 20
-9.01824764E+01
 11
-2.88509020E+01
 21
-8.98824762E+01
  0
LINE
  8
0
 62
7
 10
-2.08709019E+01
 20
-9.01824737E+01
 11
-2.93709019E+01
 21
-9.01824764E+01
  0
LINE
  8
0
 62
7
 10
-2.13909020E+01
 20
-8.98824739E+01
 11
-2.88509020E+01
 21
-8.98824762E+01
  0
LINE
  8
0
 62
7
 10
-2.08709019E+01
 20
-9.01824737E+01
 11
-2.13909020E+01
 21
-8.98824739E+01
  0
LINE
  8
0
 62
7
 10
-2.08709019E+01
 20
-9.01824737E+01
 11
-2.08709004E+01
 21
-9.48824737E+01
  0
LINE
  8
0
 62
7
 10
-8.53708985E+01
 20
-9.01824764E+01
 11
-8.53708970E+01
 21
-9.48824764E+01
  0
LINE
  8
0
 62
7
 10
-8.53708985E+01
 20
-9.01824764E+01
 11
-8.48508986E+01
 21
-8.98824762E+01
  0
LINE
  8
0
 62
7
 10
-7.68708985E+01
 20
-9.01824737E+01
 11
-8.53708985E+01
 21
-9.01824764E+01
  0
LINE
  8
0
 62
7
 10
-7.73908986E+01
 20
-8.98824739E+01
 11
-8.48508986E+01
 21
-8.98824762E+01
  0
LINE
  8
0
 62
7
 10
-7.68708985E+01
 20
-9.01824737E+01
 11
-7.73908986E+01
 21
-8.98824739E+01
  0
LINE
  8
0
 62
7
 10
-7.68708985E+01
 20
-9.01824737E+01
 11
-7.68708970E+01
 21
-9.48824737E+01
  0
LINE
  8
0
 62
7
 10
-2.20929856E+02
 20
-1.65882461E+02
 11
-2.20929854E+02
 21
-1.61182461E+02
  0
LINE
  8
0
 62
7
 10
-2.20929856E+02
 20
-1.65882461E+02
 11
-2.21449856E+02
 21
-1.66182461E+02
  0
LINE
  8
0
 62
7
 10
-2.29429856E+02
 20
-1.65882458E+02
 11
-2.20929856E+02
 21
-1.65882461E+02
  0
LINE
  8
0
 62
7
 10
-2.28909856E+02
 20
-1.66182458E+02
 11
-2.21449856E+02
 21
-1.66182461E+02
  0
LINE
  8
0
 62
7
 10
-2.29429856E+02
 20
-1.65882458E+02
 11
-2.28909856E+02
 21
-1.66182458E+02
  0
LINE
  8
0
 62
7
 10
-2.29429856E+02
 20
-1.65882458E+02
 11
-2.29429854E+02
 21
-1.61182458E+02
  0
LINE
  8
0
 62
7
 10
-1.64929838E+02
 20
-1.65882461E+02
 11
-1.64929836E+02
 21
-1.61182461E+02
  0
LINE
  8
0
 62
7
 10
-1.64929838E+02
 20
-1.65882461E+02
 11
-1.65449838E+02
 21
-1.66182461E+02
  0
LINE
  8
0
 62
7
 10
-1.73429838E+02
 20
-1.65882458E+02
 11
-1.64929838E+02
 21
-1.65882461E+02
  0
LINE
  8
0
 62
7
 10
-1.72909838E+02
 20
-1.66182458E+02
 11
-1.65449838E+02
 21
-1.66182461E+02
  0
LINE
  8
0
 62
7
 10
-1.73429838E+02
 20
-1.65882458E+02
 11
-1.72909838E+02
 21
-1.66182458E+02
  0
LINE
  8
0
 62
7
 10
-1.73429838E+02
 20
-1.65882458E+02
 11
-1.73429836E+02
 21
-1.61182458E+02
  0
LINE
  8
0
 62
7
 10
-1.73429838E+02
 20
-9.01824764E+01
 11
-1.73429836E+02
 21
-9.48824764E+01
  0
LINE
  8
0
 62
7
 10
-1.73429838E+02
 20
-9.01824764E+01
 11
-1.72909838E+02
 21
-8.98824762E+01
  0
LINE
  8
0
 62
7
 10
-1.64929838E+02
 20
-9.01824737E+01
 11
-1.73429838E+02
 21
-9.01824764E+01
  0
LINE
  8
0
 62
7
 10
-1.65449838E+02
 20
-8.98824739E+01
 11
-1.72909838E+02
 21
-8.98824762E+01
  0
LINE
  8
0
 62
7
 10
-1.64929838E+02
 20
-9.01824737E+01
 11
-1.65449838E+02
 21
-8.98824739E+01
  0
LINE
  8
0
 62
7
 10
-1.64929838E+02
 20
-9.01824737E+01
 11
-1.64929836E+02
 21
-9.48824737E+01
  0
LINE
  8
0
 62
7
 10
-2.29429856E+02
 20
-9.01824764E+01
 11
-2.29429854E+02
 21
-9.48824764E+01
  0
LINE
  8
0
 62
7
 10
-2.29429856E+02
 20
-9.01824764E+01
 11
-2.28909856E+02
 21
-8.98824762E+01
  0
LINE
  8
0
 62
7
 10
-2.20929856E+02
 20
-9.01824737E+01
 11
-2.29429856E+02
 21
-9.01824764E+01
  0
LINE
  8
0
 62
7
 10
-2.21449856E+02
 20
-8.98824739E+01
 11
-2.28909856E+02
 21
-8.98824762E+01
  0
LINE
  8
0
 62
7
 10
-2.20929856E+02
 20
-9.01824737E+01
 11
-2.21449856E+02
 21
-8.98824739E+01
  0
LINE
  8
0
 62
7
 10
-2.20929856E+02
 20
-9.01824737E+01
 11
-2.20929854E+02
 21
-9.48824737E+01
  0
LINE
  8
0
 62
7
 10
-3.56942310E+02
 20
-1.65882461E+02
 11
-3.56942308E+02
 21
-1.61182461E+02
  0
LINE
  8
0
 62
7
 10
-3.56942310E+02
 20
-1.65882461E+02
 11
-3.57462310E+02
 21
-1.66182461E+02
  0
LINE
  8
0
 62
7
 10
-3.65442310E+02
 20
-1.65882458E+02
 11
-3.56942310E+02
 21
-1.65882461E+02
  0
LINE
  8
0
 62
7
 10
-3.64922310E+02
 20
-1.66182458E+02
 11
-3.57462310E+02
 21
-1.66182461E+02
  0
LINE
  8
0
 62
7
 10
-3.65442310E+02
 20
-1.65882458E+02
 11
-3.64922310E+02
 21
-1.66182458E+02
  0
LINE
  8
0
 62
7
 10
-3.65442310E+02
 20
-1.65882458E+02
 11
-3.65442308E+02
 21
-1.61182458E+02
  0
LINE
  8
0
 62
7
 10
-3.08592291E+02
 20
-1.65882459E+02
 11
-3.08592290E+02
 21
-1.61182459E+02
  0
LINE
  8
0
 62
7
 10
-3.00942291E+02
 20
-1.65882461E+02
 11
-3.00942290E+02
 21
-1.61182461E+02
  0
LINE
  8
0
 62
7
 10
-3.00942291E+02
 20
-1.65882461E+02
 11
-3.01462291E+02
 21
-1.66182461E+02
  0
LINE
  8
0
 62
7
 10
-3.09442291E+02
 20
-1.65882458E+02
 11
-3.00942291E+02
 21
-1.65882461E+02
  0
LINE
  8
0
 62
7
 10
-3.08922291E+02
 20
-1.66182458E+02
 11
-3.01462291E+02
 21
-1.66182461E+02
  0
LINE
  8
0
 62
7
 10
-3.09442291E+02
 20
-1.65882458E+02
 11
-3.08922291E+02
 21
-1.66182458E+02
  0
LINE
  8
0
 62
7
 10
-3.09442291E+02
 20
-1.65882458E+02
 11
-3.09442290E+02
 21
-1.61182458E+02
  0
LINE
  8
0
 62
7
 10
-3.09442291E+02
 20
-9.01824764E+01
 11
-3.09442290E+02
 21
-9.48824764E+01
  0
LINE
  8
0
 62
7
 10
-3.09442291E+02
 20
-9.01824764E+01
 11
-3.08922291E+02
 21
-8.98824762E+01
  0
LINE
  8
0
 62
7
 10
-3.00942291E+02
 20
-9.01824737E+01
 11
-3.09442291E+02
 21
-9.01824764E+01
  0
LINE
  8
0
 62
7
 10
-3.01462291E+02
 20
-8.98824739E+01
 11
-3.08922291E+02
 21
-8.98824762E+01
  0
LINE
  8
0
 62
7
 10
-3.00942291E+02
 20
-9.01824737E+01
 11
-3.01462291E+02
 21
-8.98824739E+01
  0
LINE
  8
0
 62
7
 10
-3.00942291E+02
 20
-9.01824737E+01
 11
-3.00942290E+02
 21
-9.48824737E+01
  0
LINE
  8
0
 62
7
 10
-3.65442310E+02
 20
-9.01824764E+01
 11
-3.65442308E+02
 21
-9.48824764E+01
  0
LINE
  8
0
 62
7
 10
-3.65442310E+02
 20
-9.01824764E+01
 11
-3.64922310E+02
 21
-8.98824762E+01
  0
LINE
  8
0
 62
7
 10
-3.56942310E+02
 20
-9.01824737E+01
 11
-3.65442310E+02
 21
-9.01824764E+01
  0
LINE
  8
0
 62
7
 10
-3.57462310E+02
 20
-8.98824739E+01
 11
-3.64922310E+02
 21
-8.98824762E+01
  0
LINE
  8
0
 62
7
 10
-3.56942310E+02
 20
-9.01824737E+01
 11
-3.57462310E+02
 21
-8.98824739E+01
  0
LINE
  8
0
 62
7
 10
-3.56942310E+02
 20
-9.01824737E+01
 11
-3.56942308E+02
 21
-9.48824737E+01
  0
LINE
  8
0
 62
7
 10
3.55362859E+02
 20
-9.01825069E+01
 11
3.55362861E+02
 21
-9.48825069E+01
  0
LINE
  8
0
 62
7
 10
3.55362859E+02
 20
-9.01825069E+01
 11
3.55882859E+02
 21
-8.98825067E+01
  0
LINE
  8
0
 62
7
 10
3.63862859E+02
 20
-9.01825042E+01
 11
3.55362859E+02
 21
-9.01825069E+01
  0
LINE
  8
0
 62
7
 10
3.63342859E+02
 20
-8.98825044E+01
 11
3.55882859E+02
 21
-8.98825067E+01
  0
LINE
  8
0
 62
7
 10
3.63862859E+02
 20
-9.01825042E+01
 11
3.63342859E+02
 21
-8.98825044E+01
  0
LINE
  8
0
 62
7
 10
3.63862859E+02
 20
-9.01825042E+01
 11
3.63862861E+02
 21
-9.48825042E+01
  0
LINE
  8
0
 62
7
 10
2.99362841E+02
 20
-9.01825069E+01
 11
2.99362842E+02
 21
-9.48825069E+01
  0
LINE
  8
0
 62
7
 10
2.99362841E+02
 20
-9.01825069E+01
 11
2.99882841E+02
 21
-8.98825067E+01
  0
LINE
  8
0
 62
7
 10
3.07862841E+02
 20
-9.01825042E+01
 11
2.99362841E+02
 21
-9.01825069E+01
  0
LINE
  8
0
 62
7
 10
3.07342841E+02
 20
-8.98825044E+01
 11
2.99882841E+02
 21
-8.98825067E+01
  0
LINE
  8
0
 62
7
 10
3.07862841E+02
 20
-9.01825042E+01
 11
3.07342841E+02
 21
-8.98825044E+01
  0
LINE
  8
0
 62
7
 10
3.07862841E+02
 20
-9.01825042E+01
 11
3.07862842E+02
 21
-9.48825042E+01
  0
LINE
  8
0
 62
7
 10
3.63862859E+02
 20
-1.65882470E+02
 11
3.63862861E+02
 21
-1.61182470E+02
  0
LINE
  8
0
 62
7
 10
3.63862859E+02
 20
-1.65882470E+02
 11
3.63342859E+02
 21
-1.66182470E+02
  0
LINE
  8
0
 62
7
 10
3.55362859E+02
 20
-1.65882467E+02
 11
3.63862859E+02
 21
-1.65882470E+02
  0
LINE
  8
0
 62
7
 10
3.55882859E+02
 20
-1.66182467E+02
 11
3.63342859E+02
 21
-1.66182470E+02
  0
LINE
  8
0
 62
7
 10
3.55362859E+02
 20
-1.65882467E+02
 11
3.55882859E+02
 21
-1.66182467E+02
  0
LINE
  8
0
 62
7
 10
3.55362859E+02
 20
-1.65882467E+02
 11
3.55362861E+02
 21
-1.61182467E+02
  0
LINE
  8
0
 62
7
 10
3.07862841E+02
 20
-1.65882470E+02
 11
3.07862842E+02
 21
-1.61182470E+02
  0
LINE
  8
0
 62
7
 10
3.07862841E+02
 20
-1.65882470E+02
 11
3.07342841E+02
 21
-1.66182470E+02
  0
LINE
  8
0
 62
7
 10
2.99362841E+02
 20
-1.65882467E+02
 11
3.07862841E+02
 21
-1.65882470E+02
  0
LINE
  8
0
 62
7
 10
2.99882841E+02
 20
-1.66182467E+02
 11
3.07342841E+02
 21
-1.66182470E+02
  0
LINE
  8
0
 62
7
 10
2.99362841E+02
 20
-1.65882467E+02
 11
2.99882841E+02
 21
-1.66182467E+02
  0
LINE
  8
0
 62
7
 10
2.99362841E+02
 20
-1.65882467E+02
 11
2.99362842E+02
 21
-1.61182467E+02
  0
POLYLINE
  8
0
 62
2
 66
1
  0
VERTEX
  8
0
 62
2
 10
1.89553808E+02
 20
-1.80377540E+02
  0
VERTEX
  8
0
 62
2
 10
1.90885156E+02
 20
-1.79761228E+02
  0
VERTEX
  8
0
 62
2
 10
1.92235343E+02
 20
-1.79179806E+02
  0
VERTEX
  8
0
 62
2
 10
1.93602223E+02
 20
-1.78638377E+02
  0
VERTEX
  8
0
 62
2
 10
1.94983649E+02
 20
-1.78142042E+02
  0
VERTEX
  8
0
 62
2
 10
1.96377477E+02
 20
-1.77695905E+02
  0
VERTEX
  8
0
 62
2
 10
1.97781559E+02
 20
-1.77305066E+02
  0
VERTEX
  8
0
 62
2
 10
1.99193750E+02
 20
-1.76974630E+02
  0
VERTEX
  8
0
 62
2
 10
2.00611905E+02
 20
-1.76709697E+02
  0
VERTEX
  8
0
 62
2
 10
2.02033876E+02
 20
-1.76515371E+02
  0
VERTEX
  8
0
 62
2
 10
2.03457518E+02
 20
-1.76396753E+02
  0
VERTEX
  8
0
 62
2
 10
2.05757966E+02
 20
-1.76368777E+02
  0
VERTEX
  8
0
 62
2
 10
2.08057704E+02
 20
-1.76517414E+02
  0
VERTEX
  8
0
 62
2
 10
2.10357557E+02
 20
-1.76808170E+02
  0
VERTEX
  8
0
 62
2
 10
2.12658348E+02
 20
-1.77206551E+02
  0
VERTEX
  8
0
 62
2
 10
2.14960902E+02
 20
-1.77678064E+02
  0
VERTEX
  8
0
 62
2
 10
2.17266042E+02
 20
-1.78188215E+02
  0
VERTEX
  8
0
 62
2
 10
2.19574593E+02
 20
-1.78702511E+02
  0
VERTEX
  8
0
 62
2
 10
2.21887378E+02
 20
-1.79186456E+02
  0
VERTEX
  8
0
 62
2
 10
2.24205221E+02
 20
-1.79605559E+02
  0
VERTEX
  8
0
 62
2
 10
2.26528947E+02
 20
-1.79925325E+02
  0
VERTEX
  8
0
 62
2
 10
2.28599730E+02
 20
-1.80103761E+02
  0
VERTEX
  8
0
 62
2
 10
2.30674670E+02
 20
-1.80184534E+02
  0
VERTEX
  8
0
 62
2
 10
2.32752096E+02
 20
-1.80175358E+02
  0
VERTEX
  8
0
 62
2
 10
2.34830337E+02
 20
-1.80083950E+02
  0
VERTEX
  8
0
 62
2
 10
2.36907722E+02
 20
-1.79918024E+02
  0
VERTEX
  8
0
 62
2
 10
2.38982577E+02
 20
-1.79685294E+02
  0
VERTEX
  8
0
 62
2
 10
2.41053233E+02
 20
-1.79393476E+02
  0
VERTEX
  8
0
 62
2
 10
2.43118018E+02
 20
-1.79050285E+02
  0
VERTEX
  8
0
 62
2
 10
2.45175259E+02
 20
-1.78663435E+02
  0
VERTEX
  8
0
 62
2
 10
2.47223286E+02
 20
-1.78240642E+02
  0
SEQEND
  8
0
  0
POLYLINE
  8
0
 62
2
 66
1
  0
VERTEX
  8
0
 62
2
 10
3.06410954E+02
 20
-1.80377540E+02
  0
VERTEX
  8
0
 62
2
 10
3.07742302E+02
 20
-1.79761228E+02
  0
VERTEX
  8
0
 62
2
 10
3.09092489E+02
 20
-1.79179806E+02
  0
VERTEX
  8
0
 62
2
 10
3.10459369E+02
 20
-1.78638377E+02
  0
VERTEX
  8
0
 62
2
 10
3.11840796E+02
 20
-1.78142042E+02
  0
VERTEX
  8
0
 62
2
 10
3.13234623E+02
 20
-1.77695905E+02
  0
VERTEX
  8
0
 62
2
 10
3.14638705E+02
 20
-1.77305066E+02
  0
VERTEX
  8
0
 62
2
 10
3.16050897E+02
 20
-1.76974630E+02
  0
VERTEX
  8
0
 62
2
 10
3.17469051E+02
 20
-1.76709697E+02
  0
VERTEX
  8
0
 62
2
 10
3.18891022E+02
 20
-1.76515371E+02
  0
VERTEX
  8
0
 62
2
 10
3.20314664E+02
 20
-1.76396753E+02
  0
VERTEX
  8
0
 62
2
 10
3.22615112E+02
 20
-1.76368777E+02
  0
VERTEX
  8
0
 62
2
 10
3.24914851E+02
 20
-1.76517414E+02
  0
VERTEX
  8
0
 62
2
 10
3.27214703E+02
 20
-1.76808170E+02
  0
VERTEX
  8
0
 62
2
 10
3.29515495E+02
 20
-1.77206551E+02
  0
VERTEX
  8
0
 62
2
 10
3.31818048E+02
 20
-1.77678064E+02
  0
VERTEX
  8
0
 62
2
 10
3.34123188E+02
 20
-1.78188215E+02
  0
VERTEX
  8
0
 62
2
 10
3.36431739E+02
 20
-1.78702511E+02
  0
VERTEX
  8
0
 62
2
 10
3.38744524E+02
 20
-1.79186456E+02
  0
VERTEX
  8
0
 62
2
 10
3.41062367E+02
 20
-1.79605559E+02
  0
VERTEX
  8
0
 62
2
 10
3.43386093E+02
 20
-1.79925325E+02
  0
VERTEX
  8
0
 62
2
 10
3.45456876E+02
 20
-1.80103761E+02
  0
VERTEX
  8
0
 62
2
 10
3.47531816E+02
 20
-1.80184534E+02
  0
VERTEX
  8
0
 62
2
 10
3.49609242E+02
 20
-1.80175358E+02
  0
VERTEX
  8
0
 62
2
 10
3.51687484E+02
 20
-1.80083950E+02
  0
VERTEX
  8
0
 62
2
 10
3.53764868E+02
 20
-1.79918024E+02
  0
VERTEX
  8
0
 62
2
 10
3.55839724E+02
 20
-1.79685294E+02
  0
VERTEX
  8
0
 62
2
 10
3.57910379E+02
 20
-1.79393476E+02
  0
VERTEX
  8
0
 62
2
 10
3.59975164E+02
 20
-1.79050285E+02
  0
VERTEX
  8
0
 62
2
 10
3.62032405E+02
 20
-1.78663435E+02
  0
VERTEX
  8
0
 62
2
 10
3.64080432E+02
 20
-1.78240642E+02
  0
SEQEND
  8
0
  0
LINE
  8
0
 62
7
 10
2.19352746E+02
 20
-1.78653896E+02
 11
2.45223426E+02
 21
-1.78653896E+02
  0
LINE
  8
0
 62
7
 10
3.36209893E+02
 20
-1.78653896E+02
 11
3.62080572E+02
 21
-1.78653896E+02
  0
LINE
  8
0
 62
7
 10
-3.99250000E+02
 20
-2.50000000E-01
 11
3.99799805E+02
 21
-2.50000000E-01
  0
LINE
  8
0
 62
7
 10
2.79799927E+02
 20
-2.56750000E+02
 11
3.99799805E+02
 21
-2.56750000E+02
  0
LINE
  8
0
 62
7
 10
2.79799927E+02
 20
-2.56750000E+02
 11
2.79799927E+02
 21
-2.76750000E+02
  0
TEXT
  8
0
 62
7
 10
2.87585240E+02
 20
-2.71250000E+02
 40
9.00000000E+00
  1
KOGANEI CORP.
 41
1.04838710E+00
  7
MONOTXT
  0
TEXT
  8
0
 62
7
 10
3.15499645E+02
 20
2.63100000E+02
 40
6.30000019E+00
  1
Ver. 1.0
 41
1.08108108E+00
  7
MONOTXT
  0
LINE
  8
0
 62
7
 10
2.79799927E+02
 20
2.56250000E+02
 11
3.99799805E+02
 21
2.56250000E+02
  0
LINE
  8
0
 62
7
 10
2.79799927E+02
 20
2.76250000E+02
 11
2.79799927E+02
 21
2.56250000E+02
  0
LINE
  8
0
 62
7
 10
-3.99250000E+02
 20
2.56250000E+02
 11
-2.49250000E+02
 21
2.56250000E+02
  0
TEXT
  8
0
 62
7
 10
-3.95800283E+02
 20
2.68100000E+02
 40
6.30000019E+00
  1
F.R.L.LARGE FLOW SERIES
 41
1.05504587E+00
  7
MONOTXT
  0
LINE
  8
0
 62
7
 10
-3.99250000E+02
 20
-2.76750000E+02
 11
3.99799805E+02
 21
-2.76750000E+02
  0
LINE
  8
0
 62
7
 10
-3.99250000E+02
 20
2.76250000E+02
 11
3.99799805E+02
 21
2.76250000E+02
  0
LINE
  8
0
 62
7
 10
-3.99250000E+02
 20
2.76250000E+02
 11
-3.99250000E+02
 21
-2.76750000E+02
  0
LINE
  8
0
 62
7
 10
3.99799805E+02
 20
2.76250000E+02
 11
3.99799805E+02
 21
-2.76750000E+02
  0
ENDSEC
  0
EOF
