  0
SECTION
  2
HEADER
  9
$ACADVER
  1
AC1006
  9
$INSBASE
 10
0.0
 20
0.0
 30
0.0
  9
$EXTMIN
 10
-281.25
 20
-195.0
  9
$EXTMAX
 10
282.099976
 20
195.5
  9
$LIMMIN
 10
0.0
 20
0.0
  9
$LIMMAX
 10
12.0
 20
9.0
  9
$ORTHOMODE
 70
     0
  9
$REGENMODE
 70
     1
  9
$FILLMODE
 70
     1
  9
$QTEXTMODE
 70
     0
  9
$MIRRTEXT
 70
     1
  9
$DRAGMODE
 70
     2
  9
$LTSCALE
 40
1.0
  9
$OSMODE
 70
     0
  9
$ATTMODE
 70
     1
  9
$TEXTSIZE
 40
0.2
  9
$TRACEWID
 40
0.05
  9
$TEXTSTYLE
  7
STANDARD
  9
$CLAYER
  8
0
  9
$CELTYPE
  6
BYLAYER
  9
$CECOLOR
 62
   256
  9
$DIMSCALE
 40
1.0
  9
$DIMASZ
 40
0.18
  9
$DIMEXO
 40
0.0625
  9
$DIMDLI
 40
0.38
  9
$DIMRND
 40
0.0
  9
$DIMDLE
 40
0.0
  9
$DIMEXE
 40
0.18
  9
$DIMTP
 40
0.0
  9
$DIMTM
 40
0.0
  9
$DIMTXT
 40
0.18
  9
$DIMCEN
 40
0.09
  9
$DIMTSZ
 40
0.0
  9
$DIMTOL
 70
     0
  9
$DIMLIM
 70
     0
  9
$DIMTIH
 70
     1
  9
$DIMTOH
 70
     1
  9
$DIMSE1
 70
     0
  9
$DIMSE2
 70
     0
  9
$DIMTAD
 70
     0
  9
$DIMZIN
 70
     0
  9
$DIMBLK
  1

  9
$DIMASO
 70
     1
  9
$DIMSHO
 70
     0
  9
$DIMPOST
  1

  9
$DIMAPOST
  1

  9
$DIMALT
 70
     0
  9
$DIMALTD
 70
     2
  9
$DIMALTF
 40
25.4
  9
$DIMLFAC
 40
1.0
  9
$DIMTOFL
 70
     0
  9
$DIMTVP
 40
0.0
  9
$DIMTIX
 70
     0
  9
$DIMSOXD
 70
     0
  9
$DIMSAH
 70
     0
  9
$DIMBLK1
  1

  9
$DIMBLK2
  1

  9
$LUNITS
 70
     2
  9
$LUPREC
 70
     4
  9
$AXISMODE
 70
     0
  9
$AXISUNIT
 10
0.0
 20
0.0
  9
$SKETCHINC
 40
0.1
  9
$FILLETRAD
 40
0.0
  9
$AUNITS
 70
     0
  9
$AUPREC
 70
     0
  9
$MENU
  1
acad
  9
$ELEVATION
 40
0.0
  9
$THICKNESS
 40
0.0
  9
$LIMCHECK
 70
     0
  9
$BLIPMODE
 70
     1
  9
$CHAMFERA
 40
0.0
  9
$CHAMFERB
 40
0.0
  9
$SKPOLY
 70
     0
  9
$TDCREATE
 40
2449646.6997453705
  9
$TDUPDATE
 40
2449646.6997453705
  9
$TDINDWG
 40
0.0000000000
  9
$TDUSRTIMER
 40
0.0000000000
  9
$USRTIMER
 70
     1
  9
$ANGBASE
 50
0.0
  9
$ANGDIR
 70
     0
  9
$PDMODE
 70
     0
  9
$PDSIZE
 40
0.0
  9
$PLINEWID
 40
0.0
  9
$COORDS
 70
     0
  9
$SPLFRAME
 70
     0
  9
$SPLINETYPE
 70
     6
  9
$SPLINESEGS
 70
     8
  9
$ATTDIA
 70
     0
  9
$ATTREQ
 70
     1
  9
$HANDLING
 70
     0
  9
$HANDSEED
  5
0
  9
$SURFTAB1
 70
     6
  9
$SURFTAB2
 70
     6
  9
$SURFTYPE
 70
     6
  9
$SURFU
 70
     6
  9
$SURFV
 70
     6
  9
$FLATLAND
 70
     0
  9
$UCSNAME
  2

  9
$UCSORG
 10
0.0
 20
0.0
 30
0.0
  9
$UCSXDIR
 10
1.0
 20
0.0
 30
0.0
  9
$UCSYDIR
 10
0.0
 20
1.0
 30
0.0
  9
$USERI1
 70
     0
  9
$USERI2
 70
     0
  9
$USERI3
 70
     0
  9
$USERI4
 70
     0
  9
$USERI5
 70
     0
  9
$USERR1
 40
0.0
  9
$USERR2
 40
0.0
  9
$USERR3
 40
0.0
  9
$USERR4
 40
0.0
  9
$USERR5
 40
0.0
  9
$WORLDVIEW
 70
     1
  0
ENDSEC
  0
SECTION
  2
TABLES
  0
TABLE
  2
VPORT
 70
     3
  0
VPORT
  2
*ACTIVE
 70
     0
 10
0.0
 20
0.0
 11
1.0
 21
1.0
 12
37.802124
 22
0.25
 13
0.0
 23
0.0
 14
1.0
 24
1.0
 15
0.0
 25
0.0
 16
0.0
 26
0.0
 36
1.0
 17
0.0
 27
0.0
 37
0.0
 40
390.5
 41
1.63407
 42
50.0
 43
0.0
 44
0.0
 50
0.0
 51
0.0
 71
     0
 72
   100
 73
     1
 74
     1
 75
     0
 76
     0
 77
     0
 78
     0
  0
ENDTAB
  0
TABLE
  2
LTYPE
 70
    22
  0
LTYPE
  2
CONTINUOUS
 70
    64
  3
Solid line
 72
    65
 73
     0
 40
0.0
  0
LTYPE
  2
DASHED
 70
    64
  3
__ __ __ __ __ __ __ __ __ __ __ __ __ __ __
 72
    65
 73
     2
 40
3.5
 49
2.0
 49
-1.5
  0
LTYPE
  2
CENTER
 70
    64
  3
____ _ ____ _ ____ _ ____ _ ____ _ ____ _ ____
 72
    65
 73
     4
 40
17.5
 49
13.0
 49
-1.5
 49
1.5
 49
-1.5
  0
LTYPE
  2
PHANTOM
 70
    64
  3
_____ _ _ _____ _ _ _____ _ _ _____ _ _ ____  
 72
    65
 73
     6
 40
15.5
 49
8.0
 49
-1.5
 49
1.5
 49
-1.5
 49
1.5
 49
-1.5
  0
LTYPE
  2
DASHED1
 70
    64
  3
__ __ __ __ __ __ __ __ __ __ __ __ __ __ __
 72
    65
 73
     2
 40
1.5
 49
1.0
 49
-0.5
  0
LTYPE
  2
DASHED2
 70
    64
  3
__ __ __ __ __ __ __ __ __ __ __ __ __ __ __
 72
    65
 73
     2
 40
3.5
 49
2.5
 49
-1.0
  0
LTYPE
  2
DASHED3
 70
    64
  3
__ __ __ __ __ __ __ __ __ __ __ __ __ __ __
 72
    65
 73
     2
 40
6.0
 49
4.0
 49
-2.0
  0
LTYPE
  2
DASHED4
 70
    64
  3
__ __ __ __ __ __ __ __ __ __ __ __ __ __ __
 72
    65
 73
     2
 40
12.0
 49
10.0
 49
-2.0
  0
LTYPE
  2
DASHED5
 70
    64
  3
__ __ __ __ __ __ __ __ __ __ __ __ __ __ __
 72
    65
 73
     2
 40
17.0
 49
15.0
 49
-2.0
  0
LTYPE
  2
DASHED6
 70
    64
  3
__ __ __ __ __ __ __ __ __ __ __ __ __ __ __
 72
    65
 73
     2
 40
29.0
 49
27.0
 49
-2.0
  0
LTYPE
  2
PHANTOM1
 70
    64
  3
_____ _ _ _____ _ _ _____ _ _ _____ _ _ ____  
 72
    65
 73
     6
 40
31.0
 49
25.0
 49
-1.5
 49
1.0
 49
-1.0
 49
1.0
 49
-1.5
  0
LTYPE
  2
PHANTOM2
 70
    64
  3
_____ _ _ _____ _ _ _____ _ _ _____ _ _ ____  
 72
    65
 73
     6
 40
36.0
 49
27.0
 49
-1.5
 49
2.5
 49
-1.0
 49
2.5
 49
-1.5
  0
LTYPE
  2
PHANTOM3
 70
    64
  3
_____ _ _ _____ _ _ _____ _ _ _____ _ _ ____  
 72
    65
 73
     6
 40
78.0
 49
64.0
 49
-2.0
 49
4.0
 49
-2.0
 49
4.0
 49
-2.0
  0
LTYPE
  2
CENTER1
 70
    64
  3
____ _ ____ _ ____ _ ____ _ ____ _ ____ _ ____
 72
    65
 73
     4
 40
19.0
 49
14.0
 49
-1.0
 49
3.0
 49
-1.0
  0
LTYPE
  2
CENTER2
 70
    64
  3
____ _ ____ _ ____ _ ____ _ ____ _ ____ _ ____
 72
    65
 73
     4
 40
28.5
 49
25.0
 49
-1.0
 49
1.5
 49
-1.0
  0
LTYPE
  2
CENTER3
 70
    64
  3
____ _ ____ _ ____ _ ____ _ ____ _ ____ _ ____
 72
    65
 73
     4
 40
31.5
 49
27.0
 49
-1.0
 49
2.5
 49
-1.0
  0
LTYPE
  2
CENTER4
 70
    64
  3
____ _ ____ _ ____ _ ____ _ ____ _ ____ _ ____
 72
    65
 73
     4
 40
50.0
 49
45.0
 49
-1.0
 49
3.0
 49
-1.0
  0
LTYPE
  2
CENTER5
 70
    64
  3
____ _ ____ _ ____ _ ____ _ ____ _ ____ _ ____
 72
    65
 73
     4
 40
100.0
 49
92.0
 49
-2.0
 49
4.0
 49
-2.0
  0
LTYPE
  2
SBK1
 70
    64
  3
______ _ _ _ ______ _ _ _ ______ _ _ _ _____  
 72
    65
 73
     8
 40
60.5
 49
45.0
 49
-2.0
 49
2.5
 49
-2.0
 49
2.5
 49
-2.0
 49
2.5
 49
-2.0
  0
LTYPE
  2
SBK2
 70
    64
  3
______ _ _ _ ______ _ _ _ ______ _ _ _ _____  
 72
    65
 73
     8
 40
84.0
 49
64.0
 49
-2.0
 49
4.0
 49
-2.0
 49
4.0
 49
-2.0
 49
4.0
 49
-2.0
  0
LTYPE
  2
STCH
 70
    64
  3
__ __ __ __ __ __ __ __ __ __ __ __ __ __ __
 72
    65
 73
     2
 40
3.0
 49
1.0
 49
-2.0
  0
LTYPE
  2
MTCH
 70
    64
  3
_____ _ _ _____ _ _ _____ _ _ _____ _ _ ____  
 72
    65
 73
     6
 40
80.0
 49
66.0
 49
-2.0
 49
4.0
 49
-2.0
 49
4.0
 49
-2.0
  0
ENDTAB
  0
TABLE
  2
LAYER
 70
     1
  0
LAYER
  2
0
 70
     0
 62
     7
  6
CONTINUOUS
  0
ENDTAB
  0
TABLE
  2
STYLE
 70
     1
  0
STYLE
  2
STANDARD
 70
     0
 40
0.0
 41
1.0
 50
0.0
 71
     0
 42
0.2
  3
txt
  4
BIGFONT
  0
ENDTAB
  0
TABLE
  2
VIEW
 70
     0
  0
ENDTAB
  0
TABLE
  2
UCS
 70
     0
  0
ENDTAB
  0
TABLE
  2
DWGMGR
 70
     0
  0
ENDTAB
  0
ENDSEC
  0
SECTION
  2
BLOCKS
  0
ENDSEC
  0
SECTION
  2
ENTITIES
  0
LINE
  8
0
 10
-281.25
 20
195.5
 30
0.0
 11
282.099976
 21
195.5
 31
0.0
  0
LINE
  8
0
 10
-281.25
 20
195.5
 30
0.0
 11
-281.25
 21
-195.0
 31
0.0
  0
LINE
  8
0
 10
282.099976
 20
195.5
 30
0.0
 11
282.099976
 21
-195.0
 31
0.0
  0
LINE
  8
0
 10
162.099976
 20
-175.0
 30
0.0
 11
162.099976
 21
-195.0
 31
0.0
  0
LINE
  8
0
 10
162.099976
 20
-175.0
 30
0.0
 11
282.099976
 21
-175.0
 31
0.0
  0
LINE
  8
0
 10
162.099976
 20
175.5
 30
0.0
 11
282.099976
 21
175.5
 31
0.0
  0
LINE
  8
0
 10
-281.25
 20
175.5
 30
0.0
 11
-161.25
 21
175.5
 31
0.0
  0
LINE
  8
0
 10
162.099976
 20
195.5
 30
0.0
 11
162.099976
 21
175.5
 31
0.0
  0
LINE
  8
0
 10
-161.25
 20
195.5
 30
0.0
 11
-161.25
 21
175.5
 31
0.0
  0
LINE
  8
0
 10
94.316635
 20
195.5
 30
0.0
 11
94.316635
 21
8.25
 31
0.0
  0
LINE
  8
0
 10
-93.466705
 20
195.5
 30
0.0
 11
-93.466705
 21
8.25
 31
0.0
  0
LINE
  8
0
 10
-281.25
 20
195.5
 30
0.0
 11
282.099976
 21
195.5
 31
0.0
  0
LINE
  8
0
 10
-281.25
 20
8.25
 30
0.0
 11
282.099976
 21
8.25
 31
0.0
  0
LINE
  8
0
 10
-281.25
 20
-7.75
 30
0.0
 11
282.099976
 21
-7.75
 31
0.0
  0
LINE
  8
0
 10
-281.25
 20
-195.0
 30
0.0
 11
282.099976
 21
-195.0
 31
0.0
  0
LINE
  8
0
 10
0.424988
 20
8.25
 30
0.0
 11
0.424988
 21
-195.0
 31
0.0
  0
LINE
  8
0
  6
CENTER
 62
     2
 10
-220.0
 20
105.842209
 30
0.0
 11
-220.0
 21
68.672462
 31
0.0
  0
LINE
  8
0
  6
CENTER
 62
     2
 10
-237.350174
 20
87.333336
 30
0.0
 11
-166.85614
 21
87.333336
 31
0.0
  0
LINE
  8
0
 10
-170.0
 20
98.333336
 30
0.0
 11
-170.0
 21
76.333336
 31
0.0
  0
LINE
  8
0
 10
-176.5
 20
98.333336
 30
0.0
 11
-176.5
 21
92.878601
 31
0.0
  0
LINE
  8
0
 10
-176.5
 20
98.333336
 30
0.0
 11
-170.0
 21
98.333336
 31
0.0
  0
LINE
  8
0
 10
-203.155441
 20
96.083336
 30
0.0
 11
-178.75
 21
96.083336
 31
0.0
  0
LINE
  8
0
 10
-178.750015
 20
96.083336
 30
0.0
 11
-176.500015
 21
98.333336
 31
0.0
  0
LINE
  8
0
 10
-203.155441
 20
78.583336
 30
0.0
 11
-178.75
 21
78.583336
 31
0.0
  0
LINE
  8
0
 10
-178.75
 20
78.583328
 30
0.0
 11
-176.499985
 21
76.333321
 31
0.0
  0
LINE
  8
0
 10
-176.5
 20
76.333336
 30
0.0
 11
-170.0
 21
76.333336
 31
0.0
  0
LINE
  8
0
 10
-178.75
 20
96.083336
 30
0.0
 11
-178.75
 21
78.583336
 31
0.0
  0
LINE
  8
0
 10
-176.5
 20
81.788071
 30
0.0
 11
-176.5
 21
76.333336
 31
0.0
  0
LINE
  8
0
 10
-176.5
 20
92.878601
 30
0.0
 11
-170.0
 21
92.878601
 31
0.0
  0
LINE
  8
0
 62
     2
 10
-170.000015
 20
92.878609
 30
0.0
 11
-176.500015
 21
81.788071
 31
0.0
  0
LINE
  8
0
 10
-176.5
 20
81.788071
 30
0.0
 11
-170.0
 21
81.788071
 31
0.0
  0
LINE
  8
0
 62
     2
 10
-170.0
 20
81.788078
 30
0.0
 11
-176.5
 21
92.878616
 31
0.0
  0
LINE
  8
0
 10
-212.000015
 20
101.189743
 30
0.0
 11
-203.155457
 21
96.083336
 31
0.0
  0
LINE
  8
0
 10
-212.583801
 20
100.178574
 30
0.0
 11
-205.490662
 21
96.083344
 31
0.0
  0
LINE
  8
0
 10
-212.583771
 20
74.488075
 30
0.0
 11
-205.490616
 21
78.583305
 31
0.0
  0
LINE
  8
0
 10
-212.000031
 20
73.476944
 30
0.0
 11
-203.155472
 21
78.583351
 31
0.0
  0
LINE
  8
0
 10
-205.490646
 20
78.583336
 30
0.0
 11
-205.490646
 21
96.083336
 31
0.0
  0
LINE
  8
0
  6
CENTER
 62
     2
 10
-144.0
 20
105.90062
 30
0.0
 11
-144.0
 21
70.252579
 31
0.0
  0
LINE
  8
0
  6
CENTER
 62
     2
 10
-130.908539
 20
87.333336
 30
0.0
 11
-157.362289
 21
87.333336
 31
0.0
  0
LINE
  8
0
 10
-134.5
 20
92.878601
 30
0.0
 11
-134.5
 21
81.788071
 31
0.0
  0
LINE
  8
0
 10
-153.5
 20
92.878601
 30
0.0
 11
-153.5
 21
81.788071
 31
0.0
  0
LINE
  8
0
 10
-138.0
 20
102.165733
 30
0.0
 11
-138.0
 21
96.552879
 31
0.0
  0
LINE
  8
0
 10
-150.0
 20
102.165733
 30
0.0
 11
-150.0
 21
96.552879
 31
0.0
  0
LINE
  8
0
 10
-150.0
 20
72.500938
 30
0.0
 11
-150.0
 21
78.113792
 31
0.0
  0
LINE
  8
0
 10
-138.0
 20
72.500938
 30
0.0
 11
-138.0
 21
78.113792
 31
0.0
  0
LINE
  8
0
  6
CENTER
 62
     2
 10
-262.0
 20
105.973152
 30
0.0
 11
-262.0
 21
68.461823
 31
0.0
  0
LINE
  8
0
  6
CENTER
 62
     2
 10
-273.166656
 20
87.333336
 30
0.0
 11
-250.532013
 21
87.333336
 31
0.0
  0
LINE
  8
0
 10
-254.0
 20
95.046158
 30
0.0
 11
-254.0
 21
79.620514
 31
0.0
  0
LINE
  8
0
 10
-270.0
 20
95.046158
 30
0.0
 11
-270.0
 21
79.620514
 31
0.0
  0
LINE
  8
0
 10
-256.0
 20
102.165733
 30
0.0
 11
-256.0
 21
72.500938
 31
0.0
  0
LINE
  8
0
 10
-268.0
 20
102.165733
 30
0.0
 11
-268.0
 21
72.500938
 31
0.0
  0
LINE
  8
0
  6
DASHED
 62
     2
 10
-270.0
 20
93.333336
 30
0.0
 11
-254.0
 21
93.333336
 31
0.0
  0
LINE
  8
0
  6
DASHED
 62
     2
 10
-270.0
 20
81.333336
 30
0.0
 11
-254.0
 21
81.333336
 31
0.0
  0
LINE
  8
0
  6
CENTER
 62
     2
 10
-37.5
 20
106.347176
 30
0.0
 11
-37.5
 21
67.38092
 31
0.0
  0
LINE
  8
0
  6
CENTER
 62
     2
 10
-57.094398
 20
87.333336
 30
0.0
 11
22.5
 21
87.333336
 31
0.0
  0
LINE
  8
0
 10
19.5
 20
99.833336
 30
0.0
 11
19.5
 21
74.833336
 31
0.0
  0
LINE
  8
0
 10
11.5
 20
99.833336
 30
0.0
 11
11.5
 21
93.270508
 31
0.0
  0
LINE
  8
0
 10
11.5
 20
99.833336
 30
0.0
 11
19.5
 21
99.833336
 31
0.0
  0
LINE
  8
0
 10
11.5
 20
74.833336
 30
0.0
 11
19.5
 21
74.833336
 31
0.0
  0
LINE
  8
0
 10
-20.820511
 20
97.333336
 30
0.0
 11
9.0
 21
97.333336
 31
0.0
  0
LINE
  8
0
 10
-20.820507
 20
77.333336
 30
0.0
 11
8.999996
 21
77.333336
 31
0.0
  0
LINE
  8
0
 10
8.999998
 20
97.333336
 30
0.0
 11
11.499995
 21
99.833336
 31
0.0
  0
LINE
  8
0
 10
-28.999998
 20
102.055771
 30
0.0
 11
-20.820513
 21
97.333344
 31
0.0
  0
LINE
  8
0
 10
-29.000004
 20
72.610901
 30
0.0
 11
-20.820509
 21
77.333336
 31
0.0
  0
LINE
  8
0
 10
-29.182102
 20
101.740372
 30
0.0
 11
-19.228399
 21
95.993599
 31
0.0
  0
LINE
  8
0
 10
-29.182106
 20
72.926315
 30
0.0
 11
-19.228399
 21
78.673088
 31
0.0
  0
LINE
  8
0
 10
9.000002
 20
77.333328
 30
0.0
 11
11.500004
 21
74.833328
 31
0.0
  0
LINE
  8
0
 10
8.999992
 20
77.333336
 30
0.0
 11
8.999992
 21
97.333328
 31
0.0
  0
LINE
  8
0
 10
11.5
 20
81.396164
 30
0.0
 11
11.5
 21
74.833336
 31
0.0
  0
LINE
  8
0
 10
11.5
 20
93.270508
 30
0.0
 11
19.5
 21
93.270508
 31
0.0
  0
LINE
  8
0
 10
11.5
 20
81.396164
 30
0.0
 11
19.5
 21
81.396164
 31
0.0
  0
LINE
  8
0
 62
     2
 10
19.499998
 20
93.2705
 30
0.0
 11
11.499996
 21
81.396156
 31
0.0
  0
LINE
  8
0
 62
     2
 10
11.499996
 20
93.270508
 30
0.0
 11
19.499998
 21
81.396164
 31
0.0
  0
LINE
  8
0
  6
CENTER
 62
     2
 10
46.5
 20
107.333336
 30
0.0
 11
46.5
 21
67.333336
 31
0.0
  0
LINE
  8
0
  6
CENTER
 62
     2
 10
59.591461
 20
87.333336
 30
0.0
 11
33.137711
 21
87.333336
 31
0.0
  0
LINE
  8
0
 10
50.0
 20
103.969139
 30
0.0
 11
50.0
 21
99.333336
 31
0.0
  0
LINE
  8
0
 10
43.0
 20
103.969139
 30
0.0
 11
43.0
 21
99.333336
 31
0.0
  0
LINE
  8
0
 10
53.25
 20
100.263435
 30
0.0
 11
53.25
 21
97.854149
 31
0.0
  0
LINE
  8
0
 10
39.75
 20
100.263435
 30
0.0
 11
39.75
 21
97.854149
 31
0.0
  0
LINE
  8
0
 10
57.5
 20
93.270508
 30
0.0
 11
57.5
 21
81.396164
 31
0.0
  0
LINE
  8
0
 10
35.5
 20
93.270508
 30
0.0
 11
35.5
 21
81.396164
 31
0.0
  0
LINE
  8
0
 10
39.75
 20
74.403236
 30
0.0
 11
39.75
 21
76.812523
 31
0.0
  0
LINE
  8
0
 10
43.0
 20
70.697533
 30
0.0
 11
43.0
 21
75.333336
 31
0.0
  0
LINE
  8
0
 10
50.0
 20
70.697533
 30
0.0
 11
50.0
 21
75.333336
 31
0.0
  0
LINE
  8
0
 10
53.25
 20
74.403236
 30
0.0
 11
53.25
 21
76.812523
 31
0.0
  0
LINE
  8
0
  6
CENTER
 62
     2
 10
-74.5
 20
105.973152
 30
0.0
 11
-74.5
 21
68.461823
 31
0.0
  0
LINE
  8
0
  6
CENTER
 62
     2
 10
-86.666664
 20
87.333336
 30
0.0
 11
-63.032021
 21
87.333336
 31
0.0
  0
LINE
  8
0
 10
-65.0
 20
95.761856
 30
0.0
 11
-65.0
 21
78.904816
 31
0.0
  0
LINE
  8
0
 10
-84.0
 20
95.761856
 30
0.0
 11
-84.0
 21
78.904816
 31
0.0
  0
LINE
  8
0
 10
-71.0
 20
103.969139
 30
0.0
 11
-71.0
 21
70.697533
 31
0.0
  0
LINE
  8
0
 10
-78.0
 20
103.969139
 30
0.0
 11
-78.0
 21
70.697533
 31
0.0
  0
LINE
  8
0
 10
-67.75
 20
100.72876
 30
0.0
 11
-67.75
 21
73.937912
 31
0.0
  0
LINE
  8
0
 10
-81.25
 20
100.72876
 30
0.0
 11
-81.25
 21
73.937912
 31
0.0
  0
LINE
  8
0
  6
DASHED
 62
     2
 10
-84.0
 20
94.333336
 30
0.0
 11
-65.0
 21
94.333336
 31
0.0
  0
LINE
  8
0
  6
DASHED
 62
     2
 10
-84.0
 20
80.333336
 30
0.0
 11
-65.0
 21
80.333336
 31
0.0
  0
LINE
  8
0
  6
CENTER
 62
     2
 10
156.5
 20
111.440308
 30
0.0
 11
156.5
 21
63.365105
 31
0.0
  0
LINE
  8
0
  6
CENTER
 62
     2
 10
132.376633
 20
87.333336
 30
0.0
 11
229.83342
 21
87.333336
 31
0.0
  0
LINE
  8
0
 10
227.5
 20
102.833336
 30
0.0
 11
227.5
 21
71.833336
 31
0.0
  0
LINE
  8
0
 10
217.5
 20
102.833336
 30
0.0
 11
217.5
 21
94.949112
 31
0.0
  0
LINE
  8
0
 10
217.5
 20
102.833336
 30
0.0
 11
227.5
 21
102.833336
 31
0.0
  0
LINE
  8
0
 10
217.5
 20
71.833336
 30
0.0
 11
227.5
 21
71.833336
 31
0.0
  0
LINE
  8
0
 10
176.849365
 20
99.833336
 30
0.0
 11
214.5
 21
99.833336
 31
0.0
  0
LINE
  8
0
 10
176.849365
 20
74.833336
 30
0.0
 11
214.5
 21
74.833336
 31
0.0
  0
LINE
  8
0
 10
214.500015
 20
99.833351
 30
0.0
 11
217.500015
 21
102.833344
 31
0.0
  0
LINE
  8
0
 10
214.500015
 20
74.833344
 30
0.0
 11
217.500015
 21
71.833344
 31
0.0
  0
LINE
  8
0
 10
214.5
 20
99.833336
 30
0.0
 11
214.5
 21
74.833336
 31
0.0
  0
LINE
  8
0
 10
167.0
 20
105.519882
 30
0.0
 11
176.84935
 21
99.833351
 31
0.0
  0
LINE
  8
0
 10
166.756104
 20
105.09742
 30
0.0
 11
179.524384
 21
97.725647
 31
0.0
  0
LINE
  8
0
 10
167.0
 20
69.146805
 30
0.0
 11
176.84938
 21
74.833344
 31
0.0
  0
LINE
  8
0
 10
166.756104
 20
69.56926
 30
0.0
 11
179.524384
 21
76.941025
 31
0.0
  0
LINE
  8
0
 10
217.5
 20
79.71756
 30
0.0
 11
217.5
 21
71.833336
 31
0.0
  0
LINE
  8
0
 10
217.5
 20
94.949112
 30
0.0
 11
227.5
 21
94.949112
 31
0.0
  0
LINE
  8
0
 10
217.5
 20
79.71756
 30
0.0
 11
227.5
 21
79.71756
 31
0.0
  0
LINE
  8
0
 62
     2
 10
217.500015
 20
79.717567
 30
0.0
 11
227.500015
 21
94.94912
 31
0.0
  0
LINE
  8
0
 62
     2
 10
217.500015
 20
94.949112
 30
0.0
 11
227.500015
 21
79.717567
 31
0.0
  0
LINE
  8
0
  6
CENTER
 62
     2
 10
271.457886
 20
87.333336
 30
0.0
 11
237.477844
 21
87.333336
 31
0.0
  0
LINE
  8
0
  6
CENTER
 62
     2
 10
254.5
 20
112.093506
 30
0.0
 11
254.5
 21
62.581268
 31
0.0
  0
LINE
  8
0
 10
262.75
 20
103.891945
 30
0.0
 11
262.75
 21
100.45536
 31
0.0
  0
LINE
  8
0
 10
246.25
 20
103.891945
 30
0.0
 11
246.25
 21
100.45536
 31
0.0
  0
LINE
  8
0
 10
259.0
 20
107.845528
 30
0.0
 11
259.0
 21
102.165733
 31
0.0
  0
LINE
  8
0
 10
250.0
 20
107.845528
 30
0.0
 11
250.0
 21
102.165733
 31
0.0
  0
LINE
  8
0
 10
268.0
 20
94.949112
 30
0.0
 11
268.0
 21
79.71756
 31
0.0
  0
LINE
  8
0
 10
246.25
 20
74.211311
 30
0.0
 11
246.25
 21
70.774727
 31
0.0
  0
LINE
  8
0
 10
250.0
 20
72.500938
 30
0.0
 11
250.0
 21
66.821144
 31
0.0
  0
LINE
  8
0
 10
259.0
 20
72.500938
 30
0.0
 11
259.0
 21
66.821144
 31
0.0
  0
LINE
  8
0
 10
262.75
 20
74.211311
 30
0.0
 11
262.75
 21
70.774727
 31
0.0
  0
LINE
  8
0
 10
241.0
 20
94.949112
 30
0.0
 11
241.0
 21
79.71756
 31
0.0
  0
LINE
  8
0
 62
     2
 10
100.0
 20
87.333336
 30
0.0
 11
128.565994
 21
87.333336
 31
0.0
  0
LINE
  8
0
 10
126.0
 20
98.277084
 30
0.0
 11
126.0
 21
76.389587
 31
0.0
  0
LINE
  8
0
 10
103.0
 20
98.277084
 30
0.0
 11
103.0
 21
76.389587
 31
0.0
  0
LINE
  8
0
  6
DASHED
 62
     2
 10
103.0
 20
96.333336
 30
0.0
 11
126.0
 21
96.333336
 31
0.0
  0
LINE
  8
0
  6
DASHED
 62
     2
 10
103.0
 20
78.333336
 30
0.0
 11
126.0
 21
78.333336
 31
0.0
  0
LINE
  8
0
 10
110.0
 20
107.845528
 30
0.0
 11
110.0
 21
66.821144
 31
0.0
  0
LINE
  8
0
 10
106.25
 20
103.891945
 30
0.0
 11
106.25
 21
70.774727
 31
0.0
  0
LINE
  8
0
 10
119.0
 20
107.845528
 30
0.0
 11
119.0
 21
66.821144
 31
0.0
  0
LINE
  8
0
 10
122.75
 20
103.891945
 30
0.0
 11
122.75
 21
70.774727
 31
0.0
  0
LINE
  8
0
 62
     2
 10
114.5
 20
112.093506
 30
0.0
 11
114.5
 21
62.581268
 31
0.0
  0
LINE
  8
0
  6
CENTER
 62
     2
 10
-183.0
 20
-62.100292
 30
0.0
 11
-183.0
 21
-118.855453
 31
0.0
  0
LINE
  8
0
  6
CENTER
 62
     2
 10
-209.5
 20
-90.666664
 30
0.0
 11
-94.225662
 21
-90.666664
 31
0.0
  0
LINE
  8
0
 10
-170.500015
 20
-69.016037
 30
0.0
 11
-158.980774
 21
-75.666672
 31
0.0
  0
LINE
  8
0
 10
-170.806259
 20
-69.546478
 30
0.0
 11
-149.225021
 21
-82.006416
 31
0.0
  0
LINE
  8
0
 10
-99.0
 20
-72.166664
 30
0.0
 11
-99.0
 21
-109.166664
 31
0.0
  0
LINE
  8
0
 10
-111.0
 20
-72.166664
 30
0.0
 11
-111.0
 21
-81.379578
 31
0.0
  0
LINE
  8
0
 10
-111.0
 20
-72.166664
 30
0.0
 11
-99.0
 21
-72.166664
 31
0.0
  0
LINE
  8
0
 10
-158.980774
 20
-75.666664
 30
0.0
 11
-114.5
 21
-75.666664
 31
0.0
  0
LINE
  8
0
 10
-114.500008
 20
-75.666664
 30
0.0
 11
-111.000008
 21
-72.166672
 31
0.0
  0
LINE
  8
0
 10
-170.806244
 20
-111.786858
 30
0.0
 11
-149.224976
 21
-99.326912
 31
0.0
  0
LINE
  8
0
 10
-158.980774
 20
-105.666664
 30
0.0
 11
-114.5
 21
-105.666664
 31
0.0
  0
LINE
  8
0
 10
-170.5
 20
-112.317299
 30
0.0
 11
-158.980759
 21
-105.666664
 31
0.0
  0
LINE
  8
0
 10
-114.5
 20
-105.666672
 30
0.0
 11
-111.000008
 21
-109.166664
 31
0.0
  0
LINE
  8
0
 10
-111.0
 20
-109.166664
 30
0.0
 11
-99.0
 21
-109.166664
 31
0.0
  0
LINE
  8
0
 10
-114.5
 20
-105.666664
 30
0.0
 11
-114.5
 21
-75.666664
 31
0.0
  0
LINE
  8
0
 10
-111.0
 20
-99.953751
 30
0.0
 11
-111.0
 21
-109.166664
 31
0.0
  0
LINE
  8
0
 10
-111.0
 20
-81.379578
 30
0.0
 11
-99.0
 21
-81.379578
 31
0.0
  0
LINE
  8
0
 10
-111.0
 20
-99.953751
 30
0.0
 11
-99.0
 21
-99.953751
 31
0.0
  0
LINE
  8
0
 62
     2
 10
-99.000008
 20
-81.379578
 30
0.0
 11
-111.000008
 21
-99.953751
 31
0.0
  0
LINE
  8
0
 62
     2
 10
-111.0
 20
-81.379578
 30
0.0
 11
-99.0
 21
-99.953751
 31
0.0
  0
LINE
  8
0
 10
-43.0
 20
-81.379578
 30
0.0
 11
-43.0
 21
-99.953751
 31
0.0
  0
LINE
  8
0
 10
-75.0
 20
-81.379578
 30
0.0
 11
-75.0
 21
-99.953751
 31
0.0
  0
LINE
  8
0
 10
-68.75
 20
-111.497833
 30
0.0
 11
-68.75
 21
-106.388863
 31
0.0
  0
LINE
  8
0
 10
-64.5
 20
-115.054161
 30
0.0
 11
-64.5
 21
-108.330185
 31
0.0
  0
LINE
  8
0
 10
-53.5
 20
-115.054161
 30
0.0
 11
-53.5
 21
-108.330185
 31
0.0
  0
LINE
  8
0
 10
-49.25
 20
-111.497833
 30
0.0
 11
-49.25
 21
-106.388863
 31
0.0
  0
LINE
  8
0
  6
CENTER
 62
     2
 10
-59.0
 20
-62.253685
 30
0.0
 11
-59.0
 21
-118.395279
 31
0.0
  0
LINE
  8
0
  6
CENTER
 62
     2
 10
-39.0
 20
-90.666664
 30
0.0
 11
-79.0
 21
-90.666664
 31
0.0
  0
LINE
  8
0
 10
-68.75
 20
-69.835495
 30
0.0
 11
-68.75
 21
-74.944466
 31
0.0
  0
LINE
  8
0
 10
-64.5
 20
-66.279167
 30
0.0
 11
-64.5
 21
-73.003143
 31
0.0
  0
LINE
  8
0
 10
-53.5
 20
-66.279167
 30
0.0
 11
-53.5
 21
-73.003143
 31
0.0
  0
LINE
  8
0
 10
-49.25
 20
-69.835495
 30
0.0
 11
-49.25
 21
-74.944466
 31
0.0
  0
LINE
  8
0
  6
CENTER
 62
     2
 10
-217.0
 20
-90.666664
 30
0.0
 11
-257.833344
 21
-90.666664
 31
0.0
  0
LINE
  8
0
  6
CENTER
 62
     2
 10
-237.0
 20
-62.253685
 30
0.0
 11
-237.0
 21
-118.395279
 31
0.0
  0
LINE
  8
0
 10
-231.5
 20
-66.279167
 30
0.0
 11
-231.5
 21
-115.054161
 31
0.0
  0
LINE
  8
0
 10
-242.5
 20
-66.279167
 30
0.0
 11
-242.5
 21
-115.054161
 31
0.0
  0
LINE
  8
0
 10
-227.25
 20
-69.835495
 30
0.0
 11
-227.25
 21
-111.497833
 31
0.0
  0
LINE
  8
0
 10
-246.75
 20
-69.835495
 30
0.0
 11
-246.75
 21
-111.497833
 31
0.0
  0
LINE
  8
0
  6
DASHED
 62
     2
 10
-251.0
 20
-79.666664
 30
0.0
 11
-223.0
 21
-79.666664
 31
0.0
  0
LINE
  8
0
  6
DASHED
 62
     2
 10
-251.0
 20
-101.666664
 30
0.0
 11
-223.0
 21
-101.666664
 31
0.0
  0
LINE
  8
0
 10
-223.0
 20
-77.747589
 30
0.0
 11
-223.0
 21
-103.585739
 31
0.0
  0
LINE
  8
0
 10
-251.0
 20
-77.747589
 30
0.0
 11
-251.0
 21
-103.585739
 31
0.0
  0
LINE
  8
0
  6
CENTER
 62
     2
 10
101.0
 20
-60.666664
 30
0.0
 11
101.0
 21
-120.666664
 31
0.0
  0
LINE
  8
0
  6
CENTER
 62
     2
 10
68.419022
 20
-90.666664
 30
0.0
 11
198.123962
 21
-90.666664
 31
0.0
  0
LINE
  8
0
 10
114.999985
 20
-66.417946
 30
0.0
 11
127.555138
 21
-73.666664
 31
0.0
  0
LINE
  8
0
 10
114.727272
 20
-66.890366
 30
0.0
 11
140.909027
 21
-82.006409
 31
0.0
  0
LINE
  8
0
 10
195.0
 20
-69.666664
 30
0.0
 11
195.0
 21
-111.666664
 31
0.0
  0
LINE
  8
0
 10
183.0
 20
-69.666664
 30
0.0
 11
183.0
 21
-79.850006
 31
0.0
  0
LINE
  8
0
 10
183.0
 20
-69.666664
 30
0.0
 11
195.0
 21
-69.666664
 31
0.0
  0
LINE
  8
0
 10
127.55513
 20
-73.666664
 30
0.0
 11
179.0
 21
-73.666664
 31
0.0
  0
LINE
  8
0
 10
179.0
 20
-73.666664
 30
0.0
 11
183.0
 21
-69.666664
 31
0.0
  0
LINE
  8
0
 10
127.55513
 20
-107.666664
 30
0.0
 11
179.0
 21
-107.666664
 31
0.0
  0
LINE
  8
0
 10
114.999985
 20
-114.915367
 30
0.0
 11
127.555122
 21
-107.666656
 31
0.0
  0
LINE
  8
0
 10
114.727249
 20
-114.442955
 30
0.0
 11
140.909012
 21
-99.326912
 31
0.0
  0
LINE
  8
0
 10
178.999985
 20
-107.666656
 30
0.0
 11
183.0
 21
-111.666664
 31
0.0
  0
LINE
  8
0
 10
183.0
 20
-111.666664
 30
0.0
 11
195.0
 21
-111.666664
 31
0.0
  0
LINE
  8
0
 10
179.0
 20
-73.666664
 30
0.0
 11
179.0
 21
-107.666664
 31
0.0
  0
LINE
  8
0
 10
183.0
 20
-79.850006
 30
0.0
 11
195.0
 21
-79.850006
 31
0.0
  0
LINE
  8
0
 10
183.0
 20
-101.483322
 30
0.0
 11
195.0
 21
-101.483322
 31
0.0
  0
LINE
  8
0
 62
     2
 10
195.0
 20
-79.850006
 30
0.0
 11
183.0
 21
-101.483315
 31
0.0
  0
LINE
  8
0
 62
     2
 10
183.000015
 20
-79.850006
 30
0.0
 11
195.000015
 21
-101.483315
 31
0.0
  0
LINE
  8
0
 10
183.0
 20
-101.483322
 30
0.0
 11
183.0
 21
-111.666664
 31
0.0
  0
LINE
  8
0
  6
CENTER
 62
     2
 10
235.0
 20
-56.871456
 30
0.0
 11
235.0
 21
-122.538124
 31
0.0
  0
LINE
  8
0
  6
CENTER
 62
     2
 10
255.833328
 20
-90.666664
 30
0.0
 11
214.5
 21
-90.666664
 31
0.0
  0
LINE
  8
0
 10
245.75
 20
-68.09594
 30
0.0
 11
245.75
 21
-72.626778
 31
0.0
  0
LINE
  8
0
 10
240.5
 20
-63.212158
 30
0.0
 11
240.5
 21
-70.399696
 31
0.0
  0
LINE
  8
0
 10
229.5
 20
-63.212158
 30
0.0
 11
229.5
 21
-70.399696
 31
0.0
  0
LINE
  8
0
 10
224.25
 20
-68.09594
 30
0.0
 11
224.25
 21
-72.626778
 31
0.0
  0
LINE
  8
0
 10
253.0
 20
-79.850006
 30
0.0
 11
253.0
 21
-101.483322
 31
0.0
  0
LINE
  8
0
 10
217.0
 20
-79.850006
 30
0.0
 11
217.0
 21
-101.483322
 31
0.0
  0
LINE
  8
0
 10
224.25
 20
-113.237389
 30
0.0
 11
224.25
 21
-108.706551
 31
0.0
  0
LINE
  8
0
 10
229.5
 20
-118.12117
 30
0.0
 11
229.5
 21
-110.933632
 31
0.0
  0
LINE
  8
0
 10
240.5
 20
-118.12117
 30
0.0
 11
240.5
 21
-110.933632
 31
0.0
  0
LINE
  8
0
 10
245.75
 20
-113.237389
 30
0.0
 11
245.75
 21
-108.706551
 31
0.0
  0
LINE
  8
0
 62
     2
 10
25.833336
 20
-90.666664
 30
0.0
 11
61.752357
 21
-90.666664
 31
0.0
  0
LINE
  8
0
  6
CENTER
 62
     2
 10
62.930107
 20
-90.666664
 30
0.0
 11
25.0
 21
-90.666664
 31
0.0
  0
LINE
  8
0
  6
CENTER
 62
     2
 10
45.0
 20
-61.564522
 30
0.0
 11
45.0
 21
-120.666664
 31
0.0
  0
LINE
  8
0
 10
60.5
 20
-75.866013
 30
0.0
 11
60.5
 21
-105.467316
 31
0.0
  0
LINE
  8
0
 10
29.5
 20
-75.866013
 30
0.0
 11
29.5
 21
-105.467316
 31
0.0
  0
LINE
  8
0
  6
DASHED
 62
     2
 10
29.5
 20
-78.166664
 30
0.0
 11
60.5
 21
-78.166664
 31
0.0
  0
LINE
  8
0
  6
DASHED
 62
     2
 10
29.5
 20
-103.166664
 30
0.0
 11
60.5
 21
-103.166664
 31
0.0
  0
LINE
  8
0
 10
34.25
 20
-68.09594
 30
0.0
 11
34.25
 21
-113.237389
 31
0.0
  0
LINE
  8
0
 10
39.5
 20
-63.212158
 30
0.0
 11
39.5
 21
-118.12117
 31
0.0
  0
LINE
  8
0
 10
50.5
 20
-63.212158
 30
0.0
 11
50.5
 21
-118.12117
 31
0.0
  0
LINE
  8
0
 10
55.75
 20
-68.09594
 30
0.0
 11
55.75
 21
-113.237389
 31
0.0
  0
ARC
  8
0
 10
-220.0
 20
87.333336
 30
0.0
 40
16.0
 50
60.0
 51
300.0
  0
CIRCLE
  8
0
 10
-220.0
 20
87.333336
 30
0.0
 40
6.0
  0
ARC
  8
0
 10
-220.0
 20
87.333336
 30
0.0
 40
14.832395
 50
59.999996
 51
300.0
  0
CIRCLE
  8
0
 10
-220.0
 20
87.333336
 30
0.0
 40
7.712826
  0
CIRCLE
  8
0
 10
-220.0
 20
87.333336
 30
0.0
 40
10.5
  0
CIRCLE
  8
0
 10
-220.0
 20
87.333336
 30
0.0
 40
12.832397
  0
ARC
  8
0
 10
-170.791656
 20
87.333336
 30
0.0
 40
7.958339
 50
135.830231
 51
224.169769
  0
ARC
  8
0
 10
-220.716141
 20
87.333336
 30
0.0
 40
17.560699
 50
330.114288
 51
29.885723
  0
ARC
  8
0
 10
-144.0
 20
87.333336
 30
0.0
 40
10.999998
 50
30.272627
 51
149.727371
  0
ARC
  8
0
 10
-144.0
 20
87.333336
 30
0.0
 40
16.0
 50
67.975685
 51
112.024315
  0
ARC
  8
0
 10
-144.0
 20
87.333336
 30
0.0
 40
10.999998
 50
210.272629
 51
329.727386
  0
CIRCLE
  8
0
 62
     2
 10
-144.0
 20
87.333336
 30
0.0
 40
6.0
  0
CIRCLE
  8
0
 10
-144.0
 20
87.333336
 30
0.0
 40
4.5
  0
ARC
  8
0
 10
-144.0
 20
87.333336
 30
0.0
 40
16.0
 50
247.975693
 51
292.024323
  0
ARC
  8
0
 10
-262.0
 20
87.333336
 30
0.0
 40
16.0
 50
67.975685
 51
112.024315
  0
ARC
  8
0
 10
-262.0
 20
87.333336
 30
0.0
 40
11.112498
 50
43.952942
 51
57.320961
  0
ARC
  8
0
 10
-262.0
 20
87.333336
 30
0.0
 40
11.112501
 50
302.679047
 51
316.047058
  0
ARC
  8
0
 10
-262.0
 20
87.333336
 30
0.0
 40
11.112501
 50
122.679039
 51
136.047058
  0
ARC
  8
0
 10
-262.0
 20
87.333336
 30
0.0
 40
11.112498
 50
223.952942
 51
237.320953
  0
ARC
  8
0
 10
-262.0
 20
87.333336
 30
0.0
 40
16.0
 50
247.975693
 51
292.024323
  0
CIRCLE
  8
0
 10
-37.5
 20
87.333336
 30
0.0
 40
7.0
  0
CIRCLE
  8
0
 10
-37.5
 20
87.333336
 30
0.0
 40
8.428524
  0
CIRCLE
  8
0
 10
-37.5
 20
87.333336
 30
0.0
 40
10.757671
  0
CIRCLE
  8
0
 10
-37.5
 20
87.333336
 30
0.0
 40
13.395428
  0
CIRCLE
  8
0
 10
-37.5
 20
87.333336
 30
0.0
 40
14.585953
  0
CIRCLE
  8
0
 10
-37.5
 20
87.333336
 30
0.0
 40
16.635803
  0
ARC
  8
0
 10
-37.5
 20
87.333336
 30
0.0
 40
17.000002
 50
60.000004
 51
300.0
  0
ARC
  8
0
 10
-24.228394
 20
87.333336
 30
0.0
 40
10.000002
 50
300.0
 51
60.000015
  0
ARC
  8
0
 10
17.299995
 20
87.333336
 30
0.0
 40
8.299998
 50
134.330399
 51
225.669586
  0
ARC
  8
0
 10
46.5
 20
87.333336
 30
0.0
 40
12.5
 50
28.357639
 51
151.642395
  0
ARC
  8
0
 10
46.5
 20
87.333336
 30
0.0
 40
16.999998
 50
78.118843
 51
101.88118
  0
ARC
  8
0
 10
46.5
 20
87.333336
 30
0.0
 40
14.585951
 50
62.433743
 51
76.116005
  0
ARC
  8
0
 10
46.5
 20
87.333336
 30
0.0
 40
14.585956
 50
103.88401
 51
117.566269
  0
ARC
  8
0
 10
46.5
 20
87.333336
 30
0.0
 40
12.5
 50
208.357605
 51
331.642365
  0
CIRCLE
  8
0
 62
     2
 10
46.5
 20
87.333336
 30
0.0
 40
7.0
  0
CIRCLE
  8
0
 10
46.5
 20
87.333336
 30
0.0
 40
5.5
  0
ARC
  8
0
 10
46.5
 20
87.333336
 30
0.0
 40
14.585953
 50
242.433731
 51
256.115997
  0
ARC
  8
0
 10
46.5
 20
87.333336
 30
0.0
 40
17.0
 50
258.118805
 51
281.881165
  0
ARC
  8
0
 10
46.5
 20
87.333336
 30
0.0
 40
14.585955
 50
283.884003
 51
297.566254
  0
ARC
  8
0
 10
-74.5
 20
87.333336
 30
0.0
 40
16.999998
 50
78.118843
 51
101.88118
  0
ARC
  8
0
 10
-74.5
 20
87.333336
 30
0.0
 40
12.699998
 50
41.579845
 51
57.893414
  0
ARC
  8
0
 10
-74.5
 20
87.333336
 30
0.0
 40
15.000003
 50
63.256321
 51
76.506599
  0
ARC
  8
0
 10
-74.5
 20
87.333336
 30
0.0
 40
17.0
 50
258.118805
 51
281.881165
  0
ARC
  8
0
 10
-74.5
 20
87.333336
 30
0.0
 40
14.999996
 50
243.256302
 51
256.506561
  0
ARC
  8
0
 10
-74.5
 20
87.333336
 30
0.0
 40
12.699998
 50
221.579849
 51
237.893402
  0
ARC
  8
0
 10
-74.5
 20
87.333336
 30
0.0
 40
15.000002
 50
103.493423
 51
116.74369
  0
ARC
  8
0
 10
-74.5
 20
87.333336
 30
0.0
 40
12.699997
 50
122.106606
 51
138.420151
  0
ARC
  8
0
 10
-74.5
 20
87.333336
 30
0.0
 40
12.700003
 50
302.106598
 51
318.420166
  0
ARC
  8
0
 10
-74.5
 20
87.333336
 30
0.0
 40
15.000001
 50
283.493408
 51
296.743683
  0
CIRCLE
  8
0
 10
156.5
 20
87.333336
 30
0.0
 40
9.0
  0
ARC
  8
0
 10
156.5
 20
87.333336
 30
0.0
 40
20.999998
 50
59.999996
 51
300.0
  0
CIRCLE
  8
0
 10
156.5
 20
87.333336
 30
0.0
 40
10.943748
  0
CIRCLE
  8
0
 10
156.5
 20
87.333336
 30
0.0
 40
13.562931
  0
CIRCLE
  8
0
 10
156.5
 20
87.333336
 30
0.0
 40
16.558609
  0
CIRCLE
  8
0
 10
156.5
 20
87.333336
 30
0.0
 40
17.944359
  0
CIRCLE
  8
0
 10
156.5
 20
87.333336
 30
0.0
 40
20.512192
  0
ARC
  8
0
 10
173.524384
 20
87.333336
 30
0.0
 40
11.999999
 50
300.0
 51
59.999996
  0
ARC
  8
0
 10
225.666656
 20
87.333336
 30
0.0
 40
11.166667
 50
136.999161
 51
223.000839
  0
ARC
  8
0
 10
254.5
 20
87.333336
 30
0.0
 40
21.0
 50
77.626373
 51
102.373627
  0
ARC
  8
0
 10
254.5
 20
87.333336
 30
0.0
 40
18.5
 50
63.516125
 51
75.921959
  0
ARC
  8
0
 10
254.5
 20
87.333336
 30
0.0
 40
18.5
 50
284.078033
 51
296.483887
  0
ARC
  8
0
 10
254.5
 20
87.333336
 30
0.0
 40
21.0
 50
257.626373
 51
282.373627
  0
ARC
  8
0
 10
254.5
 20
87.333336
 30
0.0
 40
18.5
 50
243.516068
 51
255.921967
  0
ARC
  8
0
 10
254.5
 20
87.333336
 30
0.0
 40
18.499996
 50
104.077995
 51
116.483818
  0
ARC
  8
0
 10
254.5
 20
87.333336
 30
0.0
 40
15.499998
 50
29.428692
 51
150.571304
  0
ARC
  8
0
 10
254.5
 20
87.333336
 30
0.0
 40
15.499998
 50
209.428696
 51
330.571289
  0
CIRCLE
  8
0
 62
     2
 10
254.5
 20
87.333336
 30
0.0
 40
9.0
  0
CIRCLE
  8
0
 10
254.5
 20
87.333336
 30
0.0
 40
7.0
  0
ARC
  8
0
 10
114.5
 20
87.333336
 30
0.0
 40
15.875
 50
43.580257
 51
58.688877
  0
ARC
  8
0
 10
114.5
 20
87.333336
 30
0.0
 40
15.875003
 50
301.311127
 51
316.419739
  0
ARC
  8
0
 10
114.5
 20
87.333336
 30
0.0
 40
15.875
 50
223.580261
 51
238.688843
  0
ARC
  8
0
 10
114.5
 20
87.333336
 30
0.0
 40
15.874998
 50
121.311096
 51
136.419708
  0
ARC
  8
0
 10
114.5
 20
87.333336
 30
0.0
 40
21.0
 50
77.626373
 51
102.373642
  0
ARC
  8
0
 10
114.5
 20
87.333336
 30
0.0
 40
18.499996
 50
104.077995
 51
116.483818
  0
ARC
  8
0
 10
114.5
 20
87.333336
 30
0.0
 40
18.5
 50
63.516125
 51
75.921959
  0
ARC
  8
0
 10
114.5
 20
87.333336
 30
0.0
 40
21.000002
 50
257.626343
 51
282.373627
  0
ARC
  8
0
 10
114.5
 20
87.333336
 30
0.0
 40
18.499998
 50
243.516098
 51
255.921936
  0
ARC
  8
0
 10
114.5
 20
87.333336
 30
0.0
 40
18.5
 50
284.078033
 51
296.483887
  0
CIRCLE
  8
0
 10
-183.0
 20
-90.666664
 30
0.0
 40
11.0
  0
CIRCLE
  8
0
 10
-183.0
 20
-90.666664
 30
0.0
 40
12.919075
  0
CIRCLE
  8
0
 10
-183.0
 20
-90.666664
 30
0.0
 40
16.365818
  0
CIRCLE
  8
0
 10
-183.0
 20
-90.666664
 30
0.0
 40
20.0
  0
CIRCLE
  8
0
 10
-183.0
 20
-90.666664
 30
0.0
 40
24.387497
  0
ARC
  8
0
 10
-183.0
 20
-90.666664
 30
0.0
 40
25.0
 50
60.0
 51
299.999969
  0
ARC
  8
0
 10
-154.225006
 20
-90.666664
 30
0.0
 40
10.000001
 50
300.0
 51
60.000004
  0
ARC
  8
0
 10
-100.428574
 20
-90.666664
 30
0.0
 40
14.071421
 50
138.700455
 51
221.29953
  0
ARC
  8
0
 10
-59.0
 20
-90.666664
 30
0.0
 40
18.5
 50
30.132719
 51
149.86731
  0
ARC
  8
0
 10
-59.0
 20
-90.666664
 30
0.0
 40
18.499996
 50
210.13269
 51
329.867279
  0
CIRCLE
  8
0
 62
     2
 10
-59.0
 20
-90.666664
 30
0.0
 40
11.0
  0
CIRCLE
  8
0
 10
-59.0
 20
-90.666664
 30
0.0
 40
9.0
  0
ARC
  8
0
 10
-59.0
 20
-90.666664
 30
0.0
 40
23.000002
 50
103.835182
 51
115.081841
  0
ARC
  8
0
 10
-59.0
 20
-90.666664
 30
0.0
 40
25.0
 50
77.29097
 51
102.709053
  0
ARC
  8
0
 10
-59.0
 20
-90.666664
 30
0.0
 40
23.000002
 50
64.918121
 51
76.164772
  0
ARC
  8
0
 10
-59.0
 20
-90.666664
 30
0.0
 40
22.999998
 50
244.918091
 51
256.164764
  0
ARC
  8
0
 10
-59.0
 20
-90.666664
 30
0.0
 40
25.000002
 50
257.290955
 51
282.709045
  0
ARC
  8
0
 10
-59.0
 20
-90.666664
 30
0.0
 40
22.999998
 50
283.835236
 51
295.081909
  0
ARC
  8
0
 10
-237.0
 20
-90.666664
 30
0.0
 40
25.0
 50
77.29097
 51
102.709068
  0
ARC
  8
0
 10
-237.0
 20
-90.666664
 30
0.0
 40
23.000002
 50
64.918121
 51
76.164772
  0
ARC
  8
0
 10
-237.0
 20
-90.666664
 30
0.0
 40
25.000004
 50
257.290924
 51
282.709045
  0
ARC
  8
0
 10
-237.0
 20
-90.666664
 30
0.0
 40
22.999998
 50
283.835236
 51
295.081879
  0
ARC
  8
0
 10
-237.0
 20
-90.666664
 30
0.0
 40
23.000002
 50
244.918076
 51
256.164764
  0
ARC
  8
0
 10
-237.0
 20
-90.666664
 30
0.0
 40
23.000002
 50
103.835182
 51
115.081841
  0
ARC
  8
0
 10
-237.0
 20
-90.666664
 30
0.0
 40
19.049999
 50
42.700546
 51
59.215458
  0
ARC
  8
0
 10
-237.0
 20
-90.666664
 30
0.0
 40
19.049997
 50
300.784546
 51
317.299469
  0
ARC
  8
0
 10
-237.0
 20
-90.666664
 30
0.0
 40
19.049995
 50
222.700531
 51
239.215454
  0
ARC
  8
0
 10
-237.0
 20
-90.666664
 30
0.0
 40
19.049995
 50
120.784492
 51
137.299438
  0
CIRCLE
  8
0
 10
101.0
 20
-90.666664
 30
0.0
 40
12.5
  0
CIRCLE
  8
0
 10
101.0
 20
-90.666664
 30
0.0
 40
14.800648
  0
CIRCLE
  8
0
 10
101.0
 20
-90.666664
 30
0.0
 40
18.540405
  0
CIRCLE
  8
0
 10
101.0
 20
-90.666664
 30
0.0
 40
24.387497
  0
CIRCLE
  8
0
 10
101.0
 20
-90.666664
 30
0.0
 40
27.45451
  0
ARC
  8
0
 10
101.0
 20
-90.666664
 30
0.0
 40
28.0
 50
60.0
 51
311.328186
  0
ARC
  8
0
 10
135.909027
 20
-90.666664
 30
0.0
 40
10.000001
 50
300.0
 51
60.000004
  0
ARC
  8
0
 10
195.625
 20
-90.666664
 30
0.0
 40
16.624998
 50
139.411209
 51
220.588791
  0
ARC
  8
0
 10
235.0
 20
-90.666664
 30
0.0
 40
28.000002
 50
78.671814
 51
101.328217
  0
ARC
  8
0
 10
235.0
 20
-90.666664
 30
0.0
 40
25.000002
 50
64.53244
 51
77.29097
  0
ARC
  8
0
 10
235.0
 20
-90.666664
 30
0.0
 40
24.999996
 50
102.709
 51
115.467522
  0
ARC
  8
0
 10
235.0
 20
-90.666664
 30
0.0
 40
21.000002
 50
31.002729
 51
148.997284
  0
ARC
  8
0
 10
235.0
 20
-90.666664
 30
0.0
 40
20.999998
 50
211.002716
 51
328.997284
  0
ARC
  8
0
 10
235.0
 20
-90.666664
 30
0.0
 40
25.000002
 50
244.532486
 51
257.291016
  0
ARC
  8
0
 10
235.0
 20
-90.666664
 30
0.0
 40
28.000002
 50
258.671783
 51
281.328186
  0
ARC
  8
0
 10
235.0
 20
-90.666664
 30
0.0
 40
25.0
 50
282.709045
 51
295.46756
  0
CIRCLE
  8
0
 62
     2
 10
235.0
 20
-90.666664
 30
0.0
 40
13.0
  0
CIRCLE
  8
0
 10
235.0
 20
-90.666664
 30
0.0
 40
11.0
  0
ARC
  8
0
 10
45.0
 20
-90.666664
 30
0.0
 40
21.431501
 50
43.67783
 51
59.894211
  0
ARC
  8
0
 10
45.0
 20
-90.666664
 30
0.0
 40
28.0
 50
258.671783
 51
281.328186
  0
ARC
  8
0
 10
45.0
 20
-90.666664
 30
0.0
 40
25.0
 50
282.709045
 51
295.46756
  0
ARC
  8
0
 10
45.0
 20
-90.666664
 30
0.0
 40
21.431498
 50
300.105804
 51
316.322174
  0
ARC
  8
0
 10
45.0
 20
-90.666664
 30
0.0
 40
21.431499
 50
223.677811
 51
239.894211
  0
ARC
  8
0
 10
45.0
 20
-90.666664
 30
0.0
 40
24.999996
 50
244.532425
 51
257.290955
  0
ARC
  8
0
 10
45.0
 20
-90.666664
 30
0.0
 40
21.431501
 50
120.105759
 51
136.322144
  0
ARC
  8
0
 10
45.0
 20
-90.666664
 30
0.0
 40
24.999996
 50
102.709
 51
115.467522
  0
ARC
  8
0
 10
45.0
 20
-90.666664
 30
0.0
 40
28.000002
 50
78.671814
 51
101.328201
  0
ARC
  8
0
 10
45.0
 20
-90.666664
 30
0.0
 40
25.000002
 50
64.53244
 51
77.29097
  0
TEXT
  8
0
 10
174.200241
 20
180.830002
 30
0.0
 40
6.3
  1
DATE: AUG ,1994
 41
1.052632
  0
TEXT
  8
0
 10
167.564667
 20
-192.100006
 30
0.0
 40
9.0
  1
KOGANEI CORP.
 41
1.052632
  0
TEXT
  8
0
 10
-269.149719
 20
180.830002
 30
0.0
 40
6.3
  1
CYLINDER RODEND
 41
1.052632
  0
TEXT
  8
0
 10
105.516289
 20
154.830002
 30
0.0
 40
6.3
  1
MODEL:CRE-18X1.5
 41
1.052632
  0
TEXT
  8
0
 10
-270.049713
 20
154.830002
 30
0.0
 40
6.3
  1
MODEL:CRE-12X1.25
 41
1.052632
  0
TEXT
  8
0
 10
-82.266716
 20
154.830002
 30
0.0
 40
6.3
  1
MODEL:CRE-14X1.5
 41
1.052632
  0
TEXT
  8
0
 10
-270.049713
 20
-5.170001
 30
0.0
 40
6.3
  1
MODEL:CRE-22X1.5
 41
1.052632
  0
TEXT
  8
0
 10
7.996965
 20
-4.410161
 30
0.0
 40
6.3
  1
MODEL:CRE-26X1.5
 41
1.052632
  0
ENDSEC
  0
EOF
