  0
SECTION
  2
HEADER
  9
$ACADVER
  1
AC1012
  9
$DWGCODEPAGE
  3
dos932
  9
$INSBASE
 10
0.0
 20
0.0
 30
0.0
  9
$EXTMIN
 10
-138.39999389648437
 20
-94.800003051757812
 30
0.0
  9
$EXTMAX
 10
138.35000610351562
 20
94.5
 30
0.0
  9
$LIMMIN
 10
-148.5
 20
-105.00000000000001
  9
$LIMMAX
 10
148.5
 20
105.00000000000001
  9
$ORTHOMODE
 70
               0
  9
$REGENMODE
 70
               1
  9
$FILLMODE
 70
               1
  9
$QTEXTMODE
 70
               0
  9
$MIRRTEXT
 70
               1
  9
$DRAGMODE
 70
               2
  9
$LTSCALE
 40
1.0
  9
$OSMODE
 70
               0
  9
$ATTMODE
 70
               1
  9
$TEXTSIZE
 40
3.2000000476837158
  9
$TRACEWID
 40
0.05
  9
$TEXTSTYLE
  7
MX_NOTE_STANDARD
  9
$CLAYER
  8
0
  9
$CELTYPE
  6
CONTINUOUS
  9
$CECOLOR
 62
             256
  9
$CELTSCALE
 40
1.0
  9
$DELOBJ
 70
               1
  9
$DISPSILH
 70
               0
  9
$DIMSCALE
 40
1.0
  9
$DIMASZ
 40
2.5
  9
$DIMEXO
 40
1.5
  9
$DIMDLI
 40
3.75
  9
$DIMRND
 40
0.0
  9
$DIMDLE
 40
0.0
  9
$DIMEXE
 40
1.5
  9
$DIMTP
 40
0.0
  9
$DIMTM
 40
0.0
  9
$DIMTXT
 40
3.2000000476837158
  9
$DIMCEN
 40
2.5
  9
$DIMTSZ
 40
0.0
  9
$DIMTOL
 70
               0
  9
$DIMLIM
 70
               0
  9
$DIMTIH
 70
               0
  9
$DIMTOH
 70
               0
  9
$DIMSE1
 70
               0
  9
$DIMSE2
 70
               0
  9
$DIMTAD
 70
               1
  9
$DIMZIN
 70
               8
  9
$DIMBLK
  1

  9
$DIMASO
 70
               1
  9
$DIMSHO
 70
               1
  9
$DIMPOST
  1

  9
$DIMAPOST
  1

  9
$DIMALT
 70
               0
  9
$DIMALTD
 70
               4
  9
$DIMALTF
 40
0.03937007874016
  9
$DIMLFAC
 40
1.0
  9
$DIMTOFL
 70
               1
  9
$DIMTVP
 40
0.0
  9
$DIMTIX
 70
               0
  9
$DIMSOXD
 70
               0
  9
$DIMSAH
 70
               1
  9
$DIMBLK1
  1
_OPEN30
  9
$DIMBLK2
  1
_OPEN30
  9
$DIMSTYLE
  2
MXDIMSTYLE
  9
$DIMCLRD
 70
               0
  9
$DIMCLRE
 70
               0
  9
$DIMCLRT
 70
               0
  9
$DIMTFAC
 40
1.0
  9
$DIMGAP
 40
1.0
  9
$DIMJUST
 70
               0
  9
$DIMSD1
 70
               0
  9
$DIMSD2
 70
               0
  9
$DIMTOLJ
 70
               0
  9
$DIMTZIN
 70
               0
  9
$DIMALTZ
 70
               0
  9
$DIMALTTZ
 70
               0
  9
$DIMFIT
 70
               3
  9
$DIMUPT
 70
               1
  9
$DIMUNIT
 70
               2
  9
$DIMDEC
 70
               2
  9
$DIMTDEC
 70
               2
  9
$DIMALTU
 70
               2
  9
$DIMALTTD
 70
               4
  9
$DIMTXSTY
  7
MX_NOTE_STANDARD
  9
$DIMAUNIT
 70
               0
  9
$LUNITS
 70
               2
  9
$LUPREC
 70
               4
  9
$SKETCHINC
 40
0.1
  9
$FILLETRAD
 40
0.0
  9
$AUNITS
 70
               0
  9
$AUPREC
 70
               0
  9
$MENU
  1
acad
  9
$ELEVATION
 40
0.0
  9
$PELEVATION
 40
0.0
  9
$THICKNESS
 40
0.0
  9
$LIMCHECK
 70
               0
  9
$BLIPMODE
 70
               1
  9
$CHAMFERA
 40
0.0
  9
$CHAMFERB
 40
0.0
  9
$CHAMFERC
 40
0.0
  9
$CHAMFERD
 40
0.0
  9
$SKPOLY
 70
               0
  9
$TDCREATE
 40
2454085.536608796
  9
$TDUPDATE
 40
2454085.536608796
  9
$TDINDWG
 40
0.0000000000
  9
$TDUSRTIMER
 40
0.0000000000
  9
$USRTIMER
 70
               1
  9
$ANGBASE
 50
0.0
  9
$ANGDIR
 70
               0
  9
$PDMODE
 70
               0
  9
$PDSIZE
 40
0.0
  9
$PLINEWID
 40
0.0
  9
$COORDS
 70
               1
  9
$SPLFRAME
 70
               0
  9
$SPLINETYPE
 70
               6
  9
$SPLINESEGS
 70
               8
  9
$ATTDIA
 70
               0
  9
$ATTREQ
 70
               1
  9
$HANDLING
 70
               1
  9
$HANDSEED
  5
18A
  9
$SURFTAB1
 70
               6
  9
$SURFTAB2
 70
               6
  9
$SURFTYPE
 70
               6
  9
$SURFU
 70
               6
  9
$SURFV
 70
               6
  9
$UCSNAME
  2

  9
$UCSORG
 10
0.0
 20
0.0
 30
0.0
  9
$UCSXDIR
 10
1.0
 20
0.0
 30
0.0
  9
$UCSYDIR
 10
0.0
 20
1.0
 30
0.0
  9
$PUCSNAME
  2

  9
$PUCSORG
 10
0.0
 20
0.0
 30
0.0
  9
$PUCSXDIR
 10
1.0
 20
0.0
 30
0.0
  9
$PUCSYDIR
 10
0.0
 20
1.0
 30
0.0
  9
$USERI1
 70
               0
  9
$USERI2
 70
               0
  9
$USERI3
 70
               0
  9
$USERI4
 70
               0
  9
$USERI5
 70
               0
  9
$USERR1
 40
0.0
  9
$USERR2
 40
0.0
  9
$USERR3
 40
0.0
  9
$USERR4
 40
0.0
  9
$USERR5
 40
0.0
  9
$WORLDVIEW
 70
               1
  9
$SHADEDGE
 70
               3
  9
$SHADEDIF
 70
              70
  9
$TILEMODE
 70
               1
  9
$MAXACTVP
 70
              16
  9
$PINSBASE
 10
0.0
 20
0.0
 30
0.0
  9
$PLIMCHECK
 70
               0
  9
$PEXTMIN
 10
1.0000000000000000E+20
 20
1.0000000000000000E+20
 30
1.0000000000000000E+20
  9
$PEXTMAX
 10
-1.0000000000000000E+20
 20
-1.0000000000000000E+20
 30
-1.0000000000000000E+20
  9
$PLIMMIN
 10
0.0
 20
0.0
  9
$PLIMMAX
 10
12.0
 20
9.0
  9
$UNITMODE
 70
               0
  9
$VISRETAIN
 70
               0
  9
$PLINEGEN
 70
               1
  9
$PSLTSCALE
 70
               0
  9
$TREEDEPTH
 70
            3020
  9
$PICKSTYLE
 70
               1
  9
$CMLSTYLE
  2
Standard
  9
$CMLJUST
 70
               0
  9
$CMLSCALE
 40
1.0
  9
$SAVEIMAGES
 70
               0
  0
ENDSEC
  0
SECTION
  2
CLASSES
  0
CLASS
  1
LWPOLYLINE
  2
AcDbPolyline
  3
"AutoCAD"
 90
    32768
280
               0
281
               1
  0
CLASS
  1
IMAGE
  2
AcDbRasterImage
  3
ISM
 90
    32895
280
               0
281
               1
  0
CLASS
  1
OLE2FRAME
  2
AcDbOle2Frame
  3
""
 90
    32768
280
               0
281
               1
  0
CLASS
  1
HATCH
  2
AcDbHatch
  3
"ACAD_SEDONA"
 90
    32768
280
               0
281
               1
  0
CLASS
  1
DICTIONARYVAR
  2
AcDbDictionaryVar
  3
"AutoCAD"
 90
    32768
280
               0
281
               0
  0
CLASS
  1
RASTERVARIABLES
  2
AcDbRasterVariables
  3
ISM
 90
    32768
280
               0
281
               0
  0
CLASS
  1
IMAGEDEF
  2
AcDbRasterImageDef
  3
ISM
 90
    32768
280
               0
281
               0
  0
CLASS
  1
IMAGEDEF_REACTOR
  2
AcDbRasterImageDefReactor
  3
ISM
 90
    32769
280
               0
281
               0
  0
CLASS
  1
IDBUFFER
  2
AcDbIdBuffer
  3
"Acad"
 90
    32768
280
               0
281
               0
  0
CLASS
  1
SPATIAL_FILTER
  2
AcDbSpatialFilter
  3
"Acad"
 90
    32768
280
               0
281
               0
  0
CLASS
  1
XRECORD
  2
AcDbXrecord
  3
"<Built In>"
 90
    32768
280
               0
281
               0
  0
CLASS
  1
SORTENTSTABLE
  2
AcDbSortentsTable
  3
"AutoCAD"
 90
    32768
280
               0
281
               0
  0
CLASS
  1
LAYER_INDEX
  2
AcDbLayerIndex
  3
"Acad"
 90
    32768
280
               0
281
               0
  0
CLASS
  1
SPATIAL_INDEX
  2
AcDbSpatialIndex
  3
"Acad"
 90
    32768
280
               0
281
               0
  0
CLASS
  1
OBJECT_PTR
  2
CAseDLPNTableRecord
  3
"ASE-LPNTableRecord"
 90
    32769
280
               0
281
               0
  0
CLASS
  1
LAYOUT
  2
AcDbLayout
  3
"AutoCAD 2000"
 90
    32768
280
               0
281
               0
  0
CLASS
  1
PLOTSETTINGS
  2
AcDbPlotSettings
  3
"AutoCAD 2000"
 90
    32768
280
               0
281
               0
  0
CLASS
  1
ACDBDICTIONARYWDFLT
  2
AcDbDictionaryWithDefault
  3
"AutoCAD 2000"
 90
    32768
280
               0
281
               0
  0
CLASS
  1
ACDBPLACEHOLDER
  2
AcDbPlaceHolder
  3
"AutoCAD 2000"
 90
    32768
280
               0
281
               0
  0
ENDSEC
  0
SECTION
  2
TABLES
  0
TABLE
  2
VPORT
  5
7
100
AcDbSymbolTable
 70
               1
  0
VPORT
  5
15
100
AcDbSymbolTableRecord
100
AcDbViewportTableRecord
  2
*ACTIVE
 70
               0
 10
0.0
 20
0.0
 11
1.0
 21
1.0
 12
0.0
 22
0.0
 13
0.0
 23
0.0
 14
1.0
 24
1.0
 15
0.0
 25
0.0
 16
0.0
 26
0.0
 36
1.0
 17
0.0
 27
0.0
 37
0.0
 40
212.10000000000002
 41
1.7320508075688772
 42
50.0
 43
0.0
 44
0.0
 50
0.0
 51
0.0
 71
               0
 72
             100
 73
               1
 74
               1
 75
               0
 76
               0
 77
               0
 78
               0
  0
ENDTAB
  0
TABLE
  2
LTYPE
  5
4
100
AcDbSymbolTable
 70
               5
  0
LTYPE
  5
11
100
AcDbSymbolTableRecord
100
AcDbLinetypeTableRecord
  2
BYBLOCK
 70
              64
  3

 72
              65
 73
               0
 40
0.0
  0
LTYPE
  5
12
100
AcDbSymbolTableRecord
100
AcDbLinetypeTableRecord
  2
BYLAYER
 70
              64
  3

 72
              65
 73
               0
 40
0.0
  0
LTYPE
  5
13
100
AcDbSymbolTableRecord
100
AcDbLinetypeTableRecord
  2
CONTINUOUS
 70
              64
  3
Solid line
 72
              65
 73
               0
 40
0.0
  0
LTYPE
  5
36
100
AcDbSymbolTableRecord
100
AcDbLinetypeTableRecord
  2
CENTER
 70
              64
  3
Center ____ _ ____ _ ____ _ ____ _ ____ _ ____
 72
              65
 73
               4
 40
50.800000000000004
 49
31.75
 74
               0
 49
-6.3499999999999996
 74
               0
 49
6.3499999999999996
 74
               0
 49
-6.3499999999999996
 74
               0
  0
LTYPE
  5
B4
100
AcDbSymbolTableRecord
100
AcDbLinetypeTableRecord
  2
DASHED
 70
              64
  3
Dashed __ __ __ __ __ __ __ __ __ __ __ __ __ _
 72
              65
 73
               2
 40
19.049999999999997
 49
12.699999999999999
 74
               0
 49
-6.3499999999999996
 74
               0
  0
ENDTAB
  0
TABLE
  2
LAYER
  5
2
100
AcDbSymbolTable
 70
               2
  0
LAYER
  5
14
100
AcDbSymbolTableRecord
100
AcDbLayerTableRecord
  2
0
 70
               0
 62
               7
  6
CONTINUOUS
  0
LAYER
  5
1D
100
AcDbSymbolTableRecord
100
AcDbLayerTableRecord
  2
DEFPOINTS
 70
               0
 62
               7
  6
CONTINUOUS
  0
ENDTAB
  0
TABLE
  2
STYLE
  5
3
100
AcDbSymbolTable
 70
               1
  0
STYLE
  5
17
100
AcDbSymbolTableRecord
100
AcDbTextStyleTableRecord
  2
MX_NOTE_STANDARD
 70
               0
 40
0.0
 41
1.0
 50
0.0
 71
               0
 42
3.2000000476837158
  3
txt.shx
  4
extfont.shx
  0
ENDTAB
  0
TABLE
  2
VIEW
  5
5
100
AcDbSymbolTable
 70
               0
  0
ENDTAB
  0
TABLE
  2
UCS
  5
6
100
AcDbSymbolTable
 70
               0
  0
ENDTAB
  0
TABLE
  2
APPID
  5
8
100
AcDbSymbolTable
 70
               1
  0
APPID
  5
16
100
AcDbSymbolTableRecord
100
AcDbRegAppTableRecord
  2
ACAD
 70
               0
  0
ENDTAB
  0
TABLE
  2
DIMSTYLE
  5
9
100
AcDbSymbolTable
 70
               1
  0
DIMSTYLE
105
18
100
AcDbSymbolTableRecord
100
AcDbDimStyleTableRecord
  2
MXDIMSTYLE
 70
               0
  3

  4

  5

  6
_OPEN30
  7
_OPEN30
 40
1.0
 41
2.5
 42
1.5
 43
3.75
 44
1.5
 45
0.0
 46
0.0
 47
0.0
 48
0.0
 71
               0
 72
               0
 73
               0
 74
               0
 75
               0
 76
               0
 77
               1
 78
               8
140
3.2000000476837158
141
2.5
142
0.0
143
0.03937007874016
144
1.0
145
0.0
146
1.0
147
1.0
170
               0
171
               4
172
               1
173
               1
174
               0
175
               0
176
               0
177
               0
178
               0
270
               2
271
               2
272
               2
273
               2
274
               4
275
               0
280
               0
281
               0
282
               0
283
               0
284
               0
285
               0
286
               0
287
               3
288
               1
340
17
  0
ENDTAB
  0
TABLE
  2
BLOCK_RECORD
  5
1
100
AcDbSymbolTable
 70
               5
  0
BLOCK_RECORD
  5
A
100
AcDbSymbolTableRecord
100
AcDbBlockTableRecord
  2
*MODEL_SPACE
  0
BLOCK_RECORD
  5
B
100
AcDbSymbolTableRecord
100
AcDbBlockTableRecord
  2
*PAPER_SPACE
  0
BLOCK_RECORD
  5
1E
100
AcDbSymbolTableRecord
100
AcDbBlockTableRecord
  2
RSR-1
  0
BLOCK_RECORD
  5
1F
100
AcDbSymbolTableRecord
100
AcDbBlockTableRecord
  2
RSR-2
  0
BLOCK_RECORD
  5
20
100
AcDbSymbolTableRecord
100
AcDbBlockTableRecord
  2
RSR-3
  0
BLOCK_RECORD
  5
21
100
AcDbSymbolTableRecord
100
AcDbBlockTableRecord
  2
RSR-4
  0
BLOCK_RECORD
  5
22
100
AcDbSymbolTableRecord
100
AcDbBlockTableRecord
  2
_OPEN30
  0
ENDTAB
  0
ENDSEC
  0
SECTION
  2
BLOCKS
  0
BLOCK
  5
D
100
AcDbEntity
  8
0
100
AcDbBlockBegin
  2
*MODEL_SPACE
 70
               0
 10
0.0
 20
0.0
 30
0.0
  3
*MODEL_SPACE
  1

  0
ENDBLK
  5
E
100
AcDbEntity
  8
0
100
AcDbBlockEnd
  0
BLOCK
  5
F
100
AcDbEntity
 67
               1
  8
0
100
AcDbBlockBegin
  2
*PAPER_SPACE
 70
               0
 10
0.0
 20
0.0
 30
0.0
  3
*PAPER_SPACE
  1

  0
ENDBLK
  5
10
100
AcDbEntity
 67
               1
  8
0
100
AcDbBlockEnd
  0
BLOCK
  5
28
100
AcDbEntity
  8
0
100
AcDbBlockBegin
  2
RSR-1
 70
               0
 10
0.0
 20
0.0
 30
0.0
  3
RSR-1
  1

  0
LINE
  5
29
100
AcDbEntity
  8
0
  6
CONTINUOUS
 62
               7
100
AcDbLine
 10
-28.079448679967413
 20
-12.701705922171771
 30
0.0
 11
-18.575516369547621
 21
-12.701705922171771
 31
0.0
  0
LINE
  5
2A
100
AcDbEntity
  8
0
  6
CONTINUOUS
 62
               7
100
AcDbLine
 10
-18.089738494333883
 20
-10.000000000000005
 30
0.0
 11
-9.0900000000000034
 21
-10.000000000000005
 31
0.0
  0
LINE
  5
2B
100
AcDbEntity
  8
0
  6
CONTINUOUS
 62
               7
100
AcDbLine
 10
-50.330000000000013
 20
-10.000000000000005
 30
0.0
 11
-28.569123752583266
 21
-10.000000000000005
 31
0.0
  0
LINE
  5
2C
100
AcDbEntity
  8
0
  6
CONTINUOUS
 62
               7
100
AcDbLine
 10
-4.0900000000000034
 20
4.9999999999999956
 30
0.0
 11
-4.0900000000000034
 21
-5.0000000000000053
 31
0.0
  0
LINE
  5
2D
100
AcDbEntity
  8
0
  6
CONTINUOUS
 62
               7
100
AcDbLine
 10
3.4699999999999989
 20
4.6900000000000075
 30
0.0
 11
3.4699999999999989
 21
-4.6900000000000173
 31
0.0
  0
LINE
  5
2E
100
AcDbEntity
  8
0
  6
CONTINUOUS
 62
               7
100
AcDbLine
 10
-4.0900000000000034
 20
-4.920000000000007
 30
0.0
 11
3.4699999999999989
 21
-4.6900000000000173
 31
0.0
  0
LINE
  5
2F
100
AcDbEntity
  8
0
  6
CONTINUOUS
 62
               7
100
AcDbLine
 10
3.4699999999999989
 20
4.6900000000000075
 30
0.0
 11
-4.0900000000000034
 21
4.9199999999999973
 31
0.0
  0
LINE
  5
30
100
AcDbEntity
  8
0
  6
CONTINUOUS
 62
               7
100
AcDbLine
 10
3.9699999999999989
 20
4.1600000000000064
 30
0.0
 11
3.9699999999999989
 21
-4.1600000000000161
 31
0.0
  0
LINE
  5
31
100
AcDbEntity
  8
0
  6
CONTINUOUS
 62
               7
100
AcDbLine
 10
3.4699999999999989
 20
-4.6900000000000173
 30
0.0
 11
3.9699999999999989
 21
-4.1600000000000161
 31
0.0
  0
LINE
  5
32
100
AcDbEntity
  8
0
  6
CONTINUOUS
 62
               7
100
AcDbLine
 10
3.9699999999999989
 20
4.1600000000000064
 30
0.0
 11
3.4699999999999989
 21
4.6900000000000075
 31
0.0
  0
ARC
  5
33
100
AcDbEntity
  8
0
  6
CONTINUOUS
 62
               7
100
AcDbCircle
 10
-50.335765423071862
 20
-9.0057654230718551
 30
0.0
 40
0.9942512932165006
100
AcDbArc
 50
180.0
 51
270.33224624668696
  0
ARC
  5
34
100
AcDbEntity
  8
0
  6
CONTINUOUS
 62
               7
100
AcDbCircle
 10
-28.329923573570486
 20
-9.5532978542520386
 30
0.0
 40
10.249923573570477
100
AcDbArc
 50
342.11152787425476
 51
0.0
  0
ARC
  5
35
100
AcDbEntity
  8
0
  6
CONTINUOUS
 62
               7
100
AcDbCircle
 10
-18.252840335960652
 20
-9.525000000000011
 30
0.0
 40
10.327327440462128
100
AcDbArc
 50
180.32659513403323
 51
197.91431573808245
  0
LINE
  5
37
100
AcDbEntity
  8
0
  6
CENTER
 62
               2
100
AcDbLine
 10
0.0
 20
6.8999999999999879
 30
0.0
 11
0.0
 21
-6.900000000000011
 31
0.0
  0
LINE
  5
38
100
AcDbEntity
  8
0
  6
CONTINUOUS
 62
               2
100
AcDbLine
 10
-4.0200000000000102
 20
4.3975816993463912
 30
0.0
 11
3.9699999999999989
 21
4.1441543865710617
 31
0.0
  0
LINE
  5
39
100
AcDbEntity
  8
0
  6
CONTINUOUS
 62
               2
100
AcDbLine
 10
-5.0673863636363805
 20
4.9999999999999956
 30
0.0
 11
-4.0200000000000102
 21
4.3975816993463912
 31
0.0
  0
LINE
  5
3A
100
AcDbEntity
  8
0
  6
CONTINUOUS
 62
               2
100
AcDbLine
 10
-4.0200000000000102
 20
-4.4043137254902014
 30
0.0
 11
3.9699999999999989
 21
-4.1508864127148701
 31
0.0
  0
LINE
  5
3B
100
AcDbEntity
  8
0
  6
CONTINUOUS
 62
               2
100
AcDbLine
 10
-4.0200000000000102
 20
-4.4043137254902014
 30
0.0
 11
-5.06758620689655
 21
-5.0000000000000036
 31
0.0
  0
LINE
  5
3C
100
AcDbEntity
  8
0
  6
CENTER
 62
               2
100
AcDbLine
 10
-23.333443145751961
 20
-4.9919061279296866
 30
0.0
 11
-23.333443145751961
 21
5.0080938720703143
 31
0.0
  0
LINE
  5
3D
100
AcDbEntity
  8
0
  6
CONTINUOUS
 62
               7
100
AcDbLine
 10
-28.079448679974945
 20
-6.350852961100097
 30
0.0
 11
-18.575516369547596
 21
-6.3508529610858826
 31
0.0
  0
LINE
  5
3E
100
AcDbEntity
  8
0
  6
CONTINUOUS
 62
               7
100
AcDbLine
 10
-28.079448679970348
 20
6.3508529610859012
 30
0.0
 11
-18.575516369547593
 21
6.3508529610859004
 31
0.0
  0
LINE
  5
3F
100
AcDbEntity
  8
0
  6
CONTINUOUS
 62
               7
100
AcDbLine
 10
-28.079448679970344
 20
12.701705922171767
 30
0.0
 11
-18.575516369547596
 21
12.701705922171765
 31
0.0
  0
LINE
  5
40
100
AcDbEntity
  8
0
  6
CONTINUOUS
 62
               7
100
AcDbLine
 10
-9.0900000000000034
 20
9.9999999999999947
 30
0.0
 11
-18.089738494333883
 21
9.9999999999999947
 31
0.0
  0
LINE
  5
41
100
AcDbEntity
  8
0
  6
CONTINUOUS
 62
               7
100
AcDbLine
 10
-28.569123752583025
 20
9.9999999999999947
 30
0.0
 11
-50.330000000000013
 21
9.9999999999999947
 31
0.0
  0
LINE
  5
42
100
AcDbEntity
  8
0
  6
CONTINUOUS
 62
               7
100
AcDbLine
 10
-57.047242870749969
 20
-0.000000000016156
 30
0.0
 11
-56.612580804862432
 21
-0.0000000000000053
 31
0.0
  0
LINE
  5
43
100
AcDbEntity
  8
0
  6
CONTINUOUS
 62
               7
100
AcDbLine
 10
-56.28000000015615
 20
-7.0000000000000053
 30
0.0
 11
-57.379999999441537
 21
-7.0000000000000053
 31
0.0
  0
LINE
  5
44
100
AcDbEntity
  8
0
  6
CONTINUOUS
 62
               7
100
AcDbLine
 10
-56.280000000556555
 20
6.9999999999999964
 30
0.0
 11
-57.379999999823937
 21
6.9999999999999964
 31
0.0
  0
LINE
  5
45
100
AcDbEntity
  8
0
  6
CONTINUOUS
 62
               7
100
AcDbLine
 10
-54.830000000000098
 20
-7.5000000000000053
 30
0.0
 11
-54.830000000000098
 21
7.4999999999999947
 31
0.0
  0
LINE
  5
46
100
AcDbEntity
  8
0
  6
CONTINUOUS
 62
               7
100
AcDbLine
 10
-55.829999999999984
 20
-7.5000000000000053
 30
0.0
 11
-55.829999999999984
 21
7.4999999999999947
 31
0.0
  0
LINE
  5
47
100
AcDbEntity
  8
0
  6
CONTINUOUS
 62
               7
100
AcDbLine
 10
-54.830000000000098
 20
7.4999999999999947
 30
0.0
 11
-55.829999999999984
 21
7.4999999999999947
 31
0.0
  0
LINE
  5
48
100
AcDbEntity
  8
0
  6
CONTINUOUS
 62
               7
100
AcDbLine
 10
-55.829999999999984
 20
-7.5000000000000053
 30
0.0
 11
-54.830000000000098
 21
-7.5000000000000053
 31
0.0
  0
LINE
  5
49
100
AcDbEntity
  8
0
  6
CONTINUOUS
 62
               7
100
AcDbLine
 10
-57.603375305744571
 20
5.9999999999999956
 30
0.0
 11
-58.029999999999959
 21
5.9999999999999956
 31
0.0
  0
LINE
  5
4A
100
AcDbEntity
  8
0
  6
CONTINUOUS
 62
               7
100
AcDbLine
 10
-58.029999999999959
 20
-6.0000000000000053
 30
0.0
 11
-57.603375305744564
 21
-6.0000000000000053
 31
0.0
  0
LINE
  5
4B
100
AcDbEntity
  8
0
  6
CONTINUOUS
 62
               7
100
AcDbLine
 10
-58.029999999999959
 20
5.9999999999999956
 30
0.0
 11
-58.029999999999959
 21
-6.0000000000000053
 31
0.0
  0
LINE
  5
4C
100
AcDbEntity
  8
0
  6
CONTINUOUS
 62
               7
100
AcDbLine
 10
-58.530000000000015
 20
-5.5000000000000107
 30
0.0
 11
-58.530000000000015
 21
5.5000000000000018
 31
0.0
  0
LINE
  5
4D
100
AcDbEntity
  8
0
  6
CONTINUOUS
 62
               7
100
AcDbLine
 10
-58.029999999999959
 20
5.9999999999999956
 30
0.0
 11
-58.530000000000015
 21
5.5000000000000018
 31
0.0
  0
LINE
  5
4E
100
AcDbEntity
  8
0
  6
CONTINUOUS
 62
               7
100
AcDbLine
 10
-58.530000000000015
 20
-5.5000000000000107
 30
0.0
 11
-58.029999999999959
 21
-6.0000000000000053
 31
0.0
  0
LINE
  5
4F
100
AcDbEntity
  8
0
  6
CONTINUOUS
 62
               7
100
AcDbLine
 10
-51.330016716288384
 20
5.9999999999999956
 30
0.0
 11
-54.829999999999984
 21
5.9999999999999956
 31
0.0
  0
LINE
  5
50
100
AcDbEntity
  8
0
  6
CONTINUOUS
 62
               7
100
AcDbLine
 10
-54.829999999999984
 20
-6.0000000000000053
 30
0.0
 11
-51.330016716288384
 21
-6.0000000000000053
 31
0.0
  0
LINE
  5
51
100
AcDbEntity
  8
0
  6
CONTINUOUS
 62
               7
100
AcDbLine
 10
-71.830000000000013
 20
5.4999999999999956
 30
0.0
 11
-71.830000000000013
 21
-5.5000000000000053
 31
0.0
  0
LINE
  5
52
100
AcDbEntity
  8
0
  6
CONTINUOUS
 62
               7
100
AcDbLine
 10
-77.830000000000013
 20
5.4999999999999956
 30
0.0
 11
-77.830000000000013
 21
-5.5000000000000053
 31
0.0
  0
LINE
  5
53
100
AcDbEntity
  8
0
  6
CONTINUOUS
 62
               7
100
AcDbLine
 10
-71.830000000000013
 20
5.4999999999999956
 30
0.0
 11
-77.830000000000013
 21
5.4999999999999956
 31
0.0
  0
LINE
  5
54
100
AcDbEntity
  8
0
  6
CONTINUOUS
 62
               7
100
AcDbLine
 10
-77.830000000000013
 20
-5.5000000000000053
 30
0.0
 11
-71.830000000000013
 21
-5.5000000000000053
 31
0.0
  0
LINE
  5
55
100
AcDbEntity
  8
0
  6
CONTINUOUS
 62
               7
100
AcDbLine
 10
-78.830000000000013
 20
4.4999999999999956
 30
0.0
 11
-78.830000000000013
 21
-4.5000000000000053
 31
0.0
  0
LINE
  5
56
100
AcDbEntity
  8
0
  6
CONTINUOUS
 62
               7
100
AcDbLine
 10
-77.830000000000013
 20
5.4999999999999956
 30
0.0
 11
-78.830000000000013
 21
4.4999999999999956
 31
0.0
  0
LINE
  5
57
100
AcDbEntity
  8
0
  6
CONTINUOUS
 62
               7
100
AcDbLine
 10
-78.830000000000013
 20
-4.5000000000000053
 30
0.0
 11
-77.830000000000013
 21
-5.5000000000000053
 31
0.0
  0
LINE
  5
58
100
AcDbEntity
  8
0
  6
CONTINUOUS
 62
               7
100
AcDbLine
 10
-70.830000000000013
 20
4.4999999999999956
 30
0.0
 11
-70.830000000000013
 21
-4.5000000000000053
 31
0.0
  0
LINE
  5
59
100
AcDbEntity
  8
0
  6
CONTINUOUS
 62
               7
100
AcDbLine
 10
-71.830000000000013
 20
-5.5000000000000053
 30
0.0
 11
-70.830000000000013
 21
-4.5000000000000053
 31
0.0
  0
LINE
  5
5A
100
AcDbEntity
  8
0
  6
CONTINUOUS
 62
               7
100
AcDbLine
 10
-70.830000000000013
 20
4.4999999999999956
 30
0.0
 11
-71.830000000000013
 21
5.4999999999999956
 31
0.0
  0
LINE
  5
5B
100
AcDbEntity
  8
0
  6
CONTINUOUS
 62
               7
100
AcDbLine
 10
-61.899403413030853
 20
0.0000000000218829
 30
0.0
 11
-59.157427362502759
 21
-0.0000000000000036
 31
0.0
  0
LINE
  5
5C
100
AcDbEntity
  8
0
  6
CONTINUOUS
 62
               7
100
AcDbLine
 10
-58.887028235350442
 20
-4.0000000000000018
 30
0.0
 11
-62.170938970016621
 21
-4.0000000000000018
 31
0.0
  0
LINE
  5
5D
100
AcDbEntity
  8
0
  6
CONTINUOUS
 62
               7
100
AcDbLine
 10
-58.887028235350996
 20
3.9999999999999973
 30
0.0
 11
-62.170938970024267
 21
3.9999999999999973
 31
0.0
  0
LINE
  5
5E
100
AcDbEntity
  8
0
  6
CONTINUOUS
 62
               7
100
AcDbLine
 10
-70.330000000000055
 20
-2.5000000000000053
 30
0.0
 11
-70.330000000000055
 21
2.4999999999999956
 31
0.0
  0
LINE
  5
5F
100
AcDbEntity
  8
0
  6
CONTINUOUS
 62
               7
100
AcDbLine
 10
-70.830000000000013
 20
-3.0000000000000053
 30
0.0
 11
-70.330000000000055
 21
-2.5000000000000462
 31
0.0
  0
LINE
  5
60
100
AcDbEntity
  8
0
  6
CONTINUOUS
 62
               7
100
AcDbLine
 10
-70.330000000000055
 20
2.5000000000000373
 30
0.0
 11
-70.830000000000013
 21
2.9999999999999956
 31
0.0
  0
LINE
  5
61
100
AcDbEntity
  8
0
  6
CONTINUOUS
 62
               7
100
AcDbLine
 10
-62.530000000000015
 20
-2.079592790581053
 30
0.0
 11
-62.530000000000015
 21
2.079592790581045
 31
0.0
  0
LINE
  5
62
100
AcDbEntity
  8
0
  6
CONTINUOUS
 62
               7
100
AcDbLine
 10
-62.508444170673783
 20
2.4999999999999956
 30
0.0
 11
-70.330000000000055
 21
2.4999999999999956
 31
0.0
  0
LINE
  5
63
100
AcDbEntity
  8
0
  6
CONTINUOUS
 62
               7
100
AcDbLine
 10
-70.330000000000055
 20
-2.5000000000000053
 30
0.0
 11
-62.508444170673783
 21
-2.5000000000000053
 31
0.0
  0
ARC
  5
64
100
AcDbEntity
  8
0
  6
CONTINUOUS
 62
               7
100
AcDbCircle
 10
-50.335765423071862
 20
9.0057654230718445
 30
0.0
 40
0.9942512932165006
100
AcDbArc
 50
89.667753753313022
 51
180.0
  0
ARC
  5
65
100
AcDbEntity
  8
0
  6
CONTINUOUS
 62
               7
100
AcDbCircle
 10
-44.0613758733301
 20
3.4999999999999956
 30
0.0
 40
13.770829627423097
100
AcDbArc
 50
165.27634696180564
 51
178.97454412091838
  0
ARC
  5
66
100
AcDbEntity
  8
0
  6
CONTINUOUS
 62
               7
100
AcDbCircle
 10
-44.0613758733301
 20
-3.5000000000000053
 30
0.0
 40
13.770829627423097
100
AcDbArc
 50
178.97454412091815
 51
194.72371947786152
  0
ARC
  5
67
100
AcDbEntity
  8
0
  6
CONTINUOUS
 62
               7
100
AcDbCircle
 10
-69.605508891259788
 20
3.4999999999999956
 30
0.0
 40
13.777488421735047
100
AcDbArc
 50
0.9712675942617453
 51
14.716441500682917
  0
ARC
  5
68
100
AcDbEntity
  8
0
  6
CONTINUOUS
 62
               7
100
AcDbCircle
 10
-69.605508891259788
 20
-3.5000000000000053
 30
0.0
 40
13.777488421735047
100
AcDbArc
 50
345.28361858827958
 51
359.02873240573825
  0
ARC
  5
69
100
AcDbEntity
  8
0
  6
CONTINUOUS
 62
               7
100
AcDbCircle
 10
-64.307184517526935
 20
2.0000237166034953
 30
0.0
 40
5.7773695794336888
100
AcDbArc
 50
0.4585980784180517
 51
20.253462725765136
  0
ARC
  5
6A
100
AcDbEntity
  8
0
  6
CONTINUOUS
 62
               7
100
AcDbCircle
 10
-64.307184517526935
 20
-2.0000237166035042
 30
0.0
 40
5.7773695794336888
100
AcDbArc
 50
339.74712263071171
 51
359.54140192158195
  0
ARC
  5
6B
100
AcDbEntity
  8
0
  6
CONTINUOUS
 62
               7
100
AcDbCircle
 10
-56.75971087677199
 20
1.9944849975959329
 30
0.0
 40
5.7709167297813657
100
AcDbArc
 50
159.66478488796702
 51
179.15498795950052
  0
ARC
  5
6C
100
AcDbEntity
  8
0
  6
CONTINUOUS
 62
               7
100
AcDbCircle
 10
-56.75971087677199
 20
-1.9944849975959418
 30
0.0
 40
5.7709167297813657
100
AcDbArc
 50
180.84501204049948
 51
200.33566199551225
  0
CIRCLE
  5
6D
100
AcDbEntity
  8
0
  6
CONTINUOUS
 62
               7
100
AcDbCircle
 10
-23.333443145751961
 20
0.0080938720703134
 30
0.0
 40
4.1999998092651367
  0
ARC
  5
6E
100
AcDbEntity
  8
0
  6
CONTINUOUS
 62
               7
100
AcDbCircle
 10
-28.329923573570486
 20
9.5532978542520279
 30
0.0
 40
10.249923573570477
100
AcDbArc
 50
0.0
 51
17.887879254895292
  0
ARC
  5
6F
100
AcDbEntity
  8
0
  6
CONTINUOUS
 62
               7
100
AcDbCircle
 10
-18.252840335960652
 20
9.5250000000000004
 30
0.0
 40
10.327327440462128
100
AcDbArc
 50
162.08495662611327
 51
179.67340486596677
  0
LINE
  5
70
100
AcDbEntity
  8
0
  6
CONTINUOUS
 62
               7
100
AcDbLine
 10
-57.830000000000013
 20
-3.7464513866813061
 30
0.0
 11
-57.830000000000013
 21
3.7464513866812963
 31
0.0
  0
CIRCLE
  5
71
100
AcDbEntity
  8
0
  6
CONTINUOUS
 62
               7
100
AcDbCircle
 10
-38.58634308427591
 20
-0.0000000000000053
 30
0.0
 40
1.00782596136671
  0
ARC
  5
72
100
AcDbEntity
  8
0
  6
CONTINUOUS
 62
               7
100
AcDbCircle
 10
-54.677636140224344
 20
-1.9999999999999307
 30
0.0
 40
7.4935920987587066
100
AcDbArc
 50
164.52043348781069
 51
195.4795665121905
  0
ARC
  5
73
100
AcDbEntity
  8
0
  6
CONTINUOUS
 62
               7
100
AcDbCircle
 10
-54.677636140310575
 20
1.9999999999883435
 30
0.0
 40
7.4935920986725124
100
AcDbArc
 50
164.52043348753517
 51
195.47956651228
  0
ARC
  5
74
100
AcDbEntity
  8
0
  6
CONTINUOUS
 62
               7
100
AcDbCircle
 10
-66.410447042773711
 20
-2.0000000000000053
 30
0.0
 40
7.5237154705901652
100
AcDbArc
 50
344.58395396945821
 51
15.416046030541819
  0
ARC
  5
75
100
AcDbEntity
  8
0
  6
CONTINUOUS
 62
               7
100
AcDbCircle
 10
-66.410447042773768
 20
1.9999999999999956
 30
0.0
 40
7.5237154705902061
100
AcDbArc
 50
344.58395396945826
 51
15.416046030541718
  0
LINE
  5
76
100
AcDbEntity
  8
0
  6
CONTINUOUS
 62
               7
100
AcDbLine
 10
-56.056738201228782
 20
-6.0000000000000053
 30
0.0
 11
-55.829999999999984
 21
-6.0000000000000053
 31
0.0
  0
LINE
  5
77
100
AcDbEntity
  8
0
  6
CONTINUOUS
 62
               7
100
AcDbLine
 10
-56.056738201228782
 20
5.9999999999999956
 30
0.0
 11
-55.829999999999984
 21
5.9999999999999956
 31
0.0
  0
ARC
  5
78
100
AcDbEntity
  8
0
  6
CONTINUOUS
 62
               7
100
AcDbCircle
 10
-38.807076266348702
 20
-3.5000000000085585
 30
0.0
 40
18.572928626266112
100
AcDbArc
 50
169.13787308064161
 51
190.86212691930464
  0
ARC
  5
79
100
AcDbEntity
  8
0
  6
CONTINUOUS
 62
               7
100
AcDbCircle
 10
-38.807076266178157
 20
3.4999999999924958
 30
0.0
 40
18.572928626436664
100
AcDbArc
 50
169.13787308074589
 51
190.86212691925772
  0
ARC
  5
7A
100
AcDbEntity
  8
0
  6
CONTINUOUS
 62
               7
100
AcDbCircle
 10
-74.862594769960538
 20
3.500000000000032
 30
0.0
 40
18.582599649302999
100
AcDbArc
 50
349.14359476195989
 51
10.856405238039832
  0
ARC
  5
7B
100
AcDbEntity
  8
0
  6
CONTINUOUS
 62
               7
100
AcDbCircle
 10
-74.862594769960822
 20
-3.5000000000000071
 30
0.0
 40
18.582599649303276
100
AcDbArc
 50
349.14359476196017
 51
10.85640523803978
  0
CIRCLE
  5
7C
100
AcDbEntity
  8
0
  6
CONTINUOUS
 62
               2
100
AcDbCircle
 10
-23.333443145751961
 20
-0.0000000000000053
 30
0.0
 40
2.5
  0
CIRCLE
  5
7D
100
AcDbEntity
  8
0
  6
CONTINUOUS
 62
               7
100
AcDbCircle
 10
-23.333443145751961
 20
-0.0000000000000053
 30
0.0
 40
2.0670000000000002
  0
ARC
  5
7E
100
AcDbEntity
  8
0
  6
CONTINUOUS
 62
               7
100
AcDbCircle
 10
11.959184828610994
 20
-0.0000000000071001
 30
0.0
 40
40.539184828610999
100
AcDbArc
 50
170.98693900087028
 51
189.0130609991287
  0
ARC
  5
7F
100
AcDbEntity
  8
0
  6
CONTINUOUS
 62
               7
100
AcDbCircle
 10
-59.026043662363833
 20
0.0000000000000089
 30
0.0
 40
40.946043662363827
100
AcDbArc
 50
351.0772318072448
 51
8.9227681927552087
  0
ARC
  5
80
100
AcDbEntity
  8
0
  6
CONTINUOUS
 62
               7
100
AcDbCircle
 10
-18.257559770414428
 20
9.5262695544825799
 30
0.0
 40
10.322440229585581
100
AcDbArc
 50
164.94353971848429
 51
197.91601962444008
  0
ARC
  5
81
100
AcDbEntity
  8
0
  6
CONTINUOUS
 62
               7
100
AcDbCircle
 10
-28.676208734580378
 20
9.5532978542520279
 30
0.0
 40
10.596208734580371
100
AcDbArc
 50
342.40867671488928
 51
0.0
  0
LINE
  5
82
100
AcDbEntity
  8
0
  6
CONTINUOUS
 62
               7
100
AcDbLine
 10
-9.0900000000000034
 20
6.9999999999999956
 30
0.0
 11
-5.5900000000000034
 21
6.9999999999999956
 31
0.0
  0
LINE
  5
83
100
AcDbEntity
  8
0
  6
CONTINUOUS
 62
               7
100
AcDbLine
 10
-5.5900000000000034
 20
4.3301270189221936
 30
0.0
 11
-8.5900000000000034
 21
4.3301270189317576
 31
0.0
  0
LINE
  5
84
100
AcDbEntity
  8
0
  6
CONTINUOUS
 62
               7
100
AcDbLine
 10
-8.5900000000000034
 20
4.3301270189281054
 30
0.0
 11
-8.5900000000000034
 21
-4.3301270189281009
 31
0.0
  0
LINE
  5
85
100
AcDbEntity
  8
0
  6
CONTINUOUS
 62
               7
100
AcDbLine
 10
-8.5900000000000034
 20
4.3301270189281054
 30
0.0
 11
-5.5900000000000034
 21
-4.3301270189222034
 31
0.0
  0
LINE
  5
86
100
AcDbEntity
  8
0
  6
CONTINUOUS
 62
               7
100
AcDbLine
 10
-8.5900000000000034
 20
-4.3301270189317673
 30
0.0
 11
-5.5900000000000034
 21
4.3301270189221936
 31
0.0
  0
LINE
  5
87
100
AcDbEntity
  8
0
  6
CONTINUOUS
 62
               7
100
AcDbLine
 10
-5.5900000000000034
 20
-7.0000000000000053
 30
0.0
 11
-9.0900000000000034
 21
-7.0000000000000053
 31
0.0
  0
LINE
  5
88
100
AcDbEntity
  8
0
  6
CONTINUOUS
 62
               7
100
AcDbLine
 10
-8.5900000000000034
 20
-4.3301270189317673
 30
0.0
 11
-5.5900000000000034
 21
-4.3301270189222034
 31
0.0
  0
LINE
  5
89
100
AcDbEntity
  8
0
  6
CONTINUOUS
 62
               7
100
AcDbLine
 10
-5.5900000000000034
 20
6.9999999999999956
 30
0.0
 11
-5.5900000000000034
 21
-7.0000000000000053
 31
0.0
  0
LINE
  5
8A
100
AcDbEntity
  8
0
  6
CONTINUOUS
 62
               2
100
AcDbLine
 10
-57.686196922705903
 20
5.4999999999999947
 30
0.0
 11
-58.530000000000015
 21
5.4999999999999947
 31
0.0
  0
LINE
  5
8B
100
AcDbEntity
  8
0
  6
CONTINUOUS
 62
               2
100
AcDbLine
 10
-51.33001671628837
 20
5.4999999999999947
 30
0.0
 11
-54.830000000000098
 21
5.4999999999999947
 31
0.0
  0
LINE
  5
8C
100
AcDbEntity
  8
0
  6
CONTINUOUS
 62
               2
100
AcDbLine
 10
-55.829999999999984
 20
5.4999999999999947
 30
0.0
 11
-55.973957724534728
 21
5.4999999999999947
 31
0.0
  0
LINE
  5
8D
100
AcDbEntity
  8
0
  6
CONTINUOUS
 62
               2
100
AcDbLine
 10
-51.33001671628837
 20
-5.5000000000000053
 30
0.0
 11
-54.830000000000098
 21
-5.5000000000000053
 31
0.0
  0
LINE
  5
8E
100
AcDbEntity
  8
0
  6
CONTINUOUS
 62
               2
100
AcDbLine
 10
-55.829999999999984
 20
-5.5000000000000053
 30
0.0
 11
-55.973957724534728
 21
-5.5000000000000053
 31
0.0
  0
LINE
  5
8F
100
AcDbEntity
  8
0
  6
CONTINUOUS
 62
               2
100
AcDbLine
 10
-57.686196922705903
 20
-5.5000000000000053
 30
0.0
 11
-58.530000000000015
 21
-5.5000000000000053
 31
0.0
  0
ARC
  5
90
100
AcDbEntity
  8
0
  6
CONTINUOUS
 62
               7
100
AcDbCircle
 10
-28.676208734580456
 20
-9.5532978542520386
 30
0.0
 40
10.596208734580445
100
AcDbArc
 50
0.0
 51
17.591323285110612
  0
ARC
  5
91
100
AcDbEntity
  8
0
  6
CONTINUOUS
 62
               7
100
AcDbCircle
 10
-18.257559770463374
 20
-9.5262695544890601
 30
0.0
 40
10.322440229536635
100
AcDbArc
 50
162.08398037551711
 51
195.05646020571595
  0
LINE
  5
92
100
AcDbEntity
  8
0
  6
CENTER
 62
               2
100
AcDbLine
 10
-81.83001671628837
 20
-0.0000000000000053
 30
0.0
 11
6.4939999999999998
 21
-0.0000000000000053
 31
0.0
  0
LINE
  5
93
100
AcDbEntity
  8
0
  6
CONTINUOUS
 62
               7
100
AcDbLine
 10
-5.5900000000000034
 20
-5.0000000000000053
 30
0.0
 11
-4.0900000000000034
 21
-5.0000000000000053
 31
0.0
  0
LINE
  5
94
100
AcDbEntity
  8
0
  6
CONTINUOUS
 62
               7
100
AcDbLine
 10
-4.0900000000000034
 20
4.9999999999999956
 30
0.0
 11
-5.5900000000000034
 21
4.9999999999999956
 31
0.0
  0
LINE
  5
95
100
AcDbEntity
  8
0
  6
CONTINUOUS
 62
               7
100
AcDbLine
 10
-28.580000000000009
 20
-9.5262695544890601
 30
0.0
 11
-28.580000000000009
 21
9.5838671042313894
 31
0.0
  0
LINE
  5
96
100
AcDbEntity
  8
0
  6
CONTINUOUS
 62
               7
100
AcDbLine
 10
-18.080000000000009
 20
9.5532978542520279
 30
0.0
 11
-18.080000000000009
 21
-9.5532978542520386
 31
0.0
  0
LINE
  5
97
100
AcDbEntity
  8
0
  6
CONTINUOUS
 62
               7
100
AcDbLine
 10
-9.0900000000000034
 20
9.9999999999999947
 30
0.0
 11
-9.0900000000000034
 21
-10.000000000000005
 31
0.0
  0
LINE
  5
98
100
AcDbEntity
  8
0
  6
CONTINUOUS
 62
               7
100
AcDbLine
 10
-51.33001671628837
 20
9.0057654230718445
 30
0.0
 11
-51.33001671628837
 21
-9.0057654230718551
 31
0.0
  0
ENDBLK
  5
99
100
AcDbEntity
  8
0
100
AcDbBlockEnd
  0
BLOCK
  5
9A
100
AcDbEntity
  8
0
100
AcDbBlockBegin
  2
RSR-2
 70
               0
 10
0.0
 20
0.0
 30
0.0
  3
RSR-2
  1

  0
CIRCLE
  5
9B
100
AcDbEntity
  8
0
  6
CONTINUOUS
 62
               7
100
AcDbCircle
 10
0.0
 20
0.0
 30
0.0
 40
9.0
  0
CIRCLE
  5
9C
100
AcDbEntity
  8
0
  6
CONTINUOUS
 62
               7
100
AcDbCircle
 10
0.0
 20
0.0
 30
0.0
 40
10.00001671628835
  0
CIRCLE
  5
9D
100
AcDbEntity
  8
0
  6
CONTINUOUS
 62
               7
100
AcDbCircle
 10
0.0
 20
0.0
 30
0.0
 40
6.0
  0
CIRCLE
  5
9E
100
AcDbEntity
  8
0
  6
CONTINUOUS
 62
               7
100
AcDbCircle
 10
0.0
 20
0.0
 30
0.0
 40
4.5
  0
CIRCLE
  5
9F
100
AcDbEntity
  8
0
  6
CONTINUOUS
 62
               7
100
AcDbCircle
 10
0.0
 20
0.0
 30
0.0
 40
5.5
  0
ARC
  5
A0
100
AcDbEntity
  8
0
  6
CONTINUOUS
 62
               7
100
AcDbCircle
 10
0.0
 20
0.0
 30
0.0
 40
7.5
100
AcDbArc
 50
9.0653945375481939
 51
50.902090652941837
  0
ARC
  5
A1
100
AcDbEntity
  8
0
  6
CONTINUOUS
 62
               7
100
AcDbCircle
 10
0.0
 20
0.0
 30
0.0
 40
7.5
100
AcDbArc
 50
308.9617750150145
 51
350.97068340936772
  0
ARC
  5
A2
100
AcDbEntity
  8
0
  6
CONTINUOUS
 62
               7
100
AcDbCircle
 10
0.0
 20
0.0
 30
0.0
 40
7.5
100
AcDbArc
 50
249.04704583718686
 51
291.01268787850603
  0
ARC
  5
A3
100
AcDbEntity
  8
0
  6
CONTINUOUS
 62
               7
100
AcDbCircle
 10
0.0
 20
0.0
 30
0.0
 40
7.5
100
AcDbArc
 50
189.11037666247134
 51
230.91624069496655
  0
ARC
  5
A4
100
AcDbEntity
  8
0
  6
CONTINUOUS
 62
               7
100
AcDbCircle
 10
0.0
 20
0.0
 30
0.0
 40
7.5
100
AcDbArc
 50
129.14907998553457
 51
170.86031616542431
  0
LINE
  5
A5
100
AcDbEntity
  8
0
  6
CENTER
 62
               2
100
AcDbLine
 10
0.0
 20
15.701705922171772
 30
0.0
 11
0.0
 21
-15.701705922171765
 31
0.0
  0
LINE
  5
A6
100
AcDbEntity
  8
0
  6
CENTER
 62
               2
100
AcDbLine
 10
-16.999999999999993
 20
0.0
 30
0.0
 11
13.999999999987693
 21
0.0
 31
0.0
  0
LINE
  5
A7
100
AcDbEntity
  8
0
  6
CONTINUOUS
 62
               7
100
AcDbLine
 10
-11.599999999999994
 20
3.9052081891002555
 30
0.0
 11
-13.999999999999995
 21
3.9052081891003034
 31
0.0
  0
LINE
  5
A8
100
AcDbEntity
  8
0
  6
CONTINUOUS
 62
               7
100
AcDbLine
 10
-13.999999999999995
 20
-3.8890204449596695
 30
0.0
 11
-13.999999999999995
 21
3.9052081891003025
 31
0.0
  0
LINE
  5
A9
100
AcDbEntity
  8
0
  6
CONTINUOUS
 62
               7
100
AcDbLine
 10
-11.600000000000051
 20
-4.4919061279296812
 30
0.0
 11
-11.600000000000051
 21
4.5080938720703179
 31
0.0
  0
LINE
  5
AA
100
AcDbEntity
  8
0
  6
CONTINUOUS
 62
               7
100
AcDbLine
 10
-11.600000000000051
 20
-4.4919061279296812
 30
0.0
 11
-11.000000000000114
 21
-4.4919061279296812
 31
0.0
  0
LINE
  5
AB
100
AcDbEntity
  8
0
  6
CONTINUOUS
 62
               7
100
AcDbLine
 10
-11.000000000000114
 20
4.508093872070317
 30
0.0
 11
-11.600000000000051
 21
4.508093872070317
 31
0.0
  0
LINE
  5
AC
100
AcDbEntity
  8
0
  6
CONTINUOUS
 62
               7
100
AcDbLine
 10
-11.599999999999994
 20
-3.8890204449596197
 30
0.0
 11
-13.999999999999995
 21
-3.8890204449596677
 31
0.0
  0
LINE
  5
AD
100
AcDbEntity
  8
0
  6
CONTINUOUS
 62
               7
100
AcDbLine
 10
-13.707673950168209
 20
0.0000000000000053
 30
0.0
 11
-11.884205881780957
 21
0.0000000000000053
 31
0.0
  0
LINE
  5
AE
100
AcDbEntity
  8
0
  6
CONTINUOUS
 62
               7
100
AcDbLine
 10
-11.0
 20
-6.3508529610858915
 30
0.0
 11
0.0000000000000284
 21
-12.701705922171765
 31
0.0
  0
LINE
  5
AF
100
AcDbEntity
  8
0
  6
CONTINUOUS
 62
               7
100
AcDbLine
 10
10.999999999975387
 20
-6.3508529611000881
 30
0.0
 11
0.0000000000000284
 21
-12.701705922171765
 31
0.0
  0
LINE
  5
B0
100
AcDbEntity
  8
0
  6
CONTINUOUS
 62
               7
100
AcDbLine
 10
11.0
 20
6.3508529610859084
 30
0.0
 11
10.999999999975387
 21
-6.3508529611000881
 31
0.0
  0
LINE
  5
B1
100
AcDbEntity
  8
0
  6
CONTINUOUS
 62
               7
100
AcDbLine
 10
0.0
 20
12.701705922171772
 30
0.0
 11
11.0
 21
6.3508529610859084
 31
0.0
  0
LINE
  5
B2
100
AcDbEntity
  8
0
  6
CONTINUOUS
 62
               7
100
AcDbLine
 10
0.0
 20
12.701705922171772
 30
0.0
 11
-10.999999999972545
 21
6.350852961101733
 31
0.0
  0
LINE
  5
B3
100
AcDbEntity
  8
0
  6
CONTINUOUS
 62
               7
100
AcDbLine
 10
-10.999999999972545
 20
6.350852961101733
 30
0.0
 11
-11.0
 21
-6.3508529610858915
 31
0.0
  0
LINE
  5
B5
100
AcDbEntity
  8
0
  6
DASHED
 62
               7
100
AcDbLine
 10
0.0
 20
1.0080938720703188
 30
0.0
 11
0.0
 21
-0.9919061279296813
 31
0.0
  0
LINE
  5
B6
100
AcDbEntity
  8
0
  6
CONTINUOUS
 62
               7
100
AcDbLine
 10
-4.0414518843273584
 20
7.0000000000000018
 30
0.0
 11
-8.0829037686640675
 21
0.0000000000161631
 31
0.0
  0
LINE
  5
B7
100
AcDbEntity
  8
0
  6
CONTINUOUS
 62
               7
100
AcDbLine
 10
-8.0829037686640675
 20
0.0000000000161631
 30
0.0
 11
-4.0414518843273868
 21
-6.9999999999999964
 31
0.0
  0
LINE
  5
B8
100
AcDbEntity
  8
0
  6
CONTINUOUS
 62
               7
100
AcDbLine
 10
-4.0414518843273868
 20
-6.9999999999999964
 30
0.0
 11
4.0414518843273868
 21
-7.0000000000000071
 31
0.0
  0
LINE
  5
B9
100
AcDbEntity
  8
0
  6
CONTINUOUS
 62
               7
100
AcDbLine
 10
8.0829037686640959
 20
-0.0000000000161489
 30
0.0
 11
4.0414518843273868
 21
-7.0000000000000071
 31
0.0
  0
LINE
  5
BA
100
AcDbEntity
  8
0
  6
CONTINUOUS
 62
               7
100
AcDbLine
 10
4.0414518843273868
 20
7.0000000000000018
 30
0.0
 11
8.0829037686640959
 21
-0.0000000000161489
 31
0.0
  0
LINE
  5
BB
100
AcDbEntity
  8
0
  6
CONTINUOUS
 62
               7
100
AcDbLine
 10
-4.0414518843273584
 20
7.0000000000000018
 30
0.0
 11
4.0414518843273868
 21
7.0000000000000018
 31
0.0
  0
ARC
  5
BC
100
AcDbEntity
  8
0
  6
CONTINUOUS
 62
               7
100
AcDbCircle
 10
0.0
 20
0.0
 30
0.0
 40
7.5
100
AcDbArc
 50
69.13015430480678
 51
110.83994857491011
  0
ARC
  5
BD
100
AcDbEntity
  8
0
  6
CONTINUOUS
 62
               7
100
AcDbCircle
 10
-7.3039095541980945
 20
-1.9568926437762375
 30
0.0
 40
6.6960904458019295
100
AcDbArc
 50
163.00764764205246
 51
196.77090650626928
  0
ARC
  5
BE
100
AcDbEntity
  8
0
  6
CONTINUOUS
 62
               7
100
AcDbCircle
 10
-7.3657966486557829
 20
1.9476258366403414
 30
0.0
 40
6.6342033513442544
100
AcDbArc
 50
162.83801226213942
 51
197.07201372345619
  0
ARC
  5
BF
100
AcDbEntity
  8
0
  6
CONTINUOUS
 62
               7
100
AcDbCircle
 10
-18.451281652637789
 20
-1.9528379614283349
 30
0.0
 40
6.8512816526377414
100
AcDbArc
 50
343.58446799780313
 51
16.560791484320653
  0
ARC
  5
C0
100
AcDbEntity
  8
0
  6
CONTINUOUS
 62
               7
100
AcDbCircle
 10
-18.362726574733927
 20
1.947614217635298
 30
0.0
 40
6.7649413530166846
100
AcDbArc
 50
343.26783586978195
 51
16.820445157398961
  0
ENDBLK
  5
C1
100
AcDbEntity
  8
0
100
AcDbBlockEnd
  0
BLOCK
  5
C2
100
AcDbEntity
  8
0
100
AcDbBlockBegin
  2
RSR-3
 70
               0
 10
0.0
 20
0.0
 30
0.0
  3
RSR-3
  1

  0
CIRCLE
  5
C3
100
AcDbEntity
  8
0
  6
CONTINUOUS
 62
               7
100
AcDbCircle
 10
-0.0000000000000018
 20
0.0
 30
0.0
 40
5.0
  0
CIRCLE
  5
C4
100
AcDbEntity
  8
0
  6
CONTINUOUS
 62
               7
100
AcDbCircle
 10
-0.0000000000000018
 20
0.0
 30
0.0
 40
4.6900000000000119
  0
CIRCLE
  5
C5
100
AcDbEntity
  8
0
  6
CONTINUOUS
 62
               2
100
AcDbCircle
 10
-0.0000000000000018
 20
0.0
 30
0.0
 40
4.1600000000000108
  0
ARC
  5
C6
100
AcDbEntity
  8
0
  6
CONTINUOUS
 62
               7
100
AcDbCircle
 10
-0.0000000000000018
 20
0.0
 30
0.0
 40
7.0
100
AcDbArc
 50
321.78678929820023
 51
38.213210701799703
  0
ARC
  5
C7
100
AcDbEntity
  8
0
  6
CONTINUOUS
 62
               7
100
AcDbCircle
 10
-0.0000000000000018
 20
0.0
 30
0.0
 40
7.0
100
AcDbArc
 50
141.78678929820026
 51
218.21321070179974
  0
ARC
  5
C8
100
AcDbEntity
  8
0
  6
CONTINUOUS
 62
               7
100
AcDbCircle
 10
-0.0000000000000018
 20
0.0
 30
0.0
 40
7.0
100
AcDbArc
 50
218.21321070173821
 51
321.78678929826179
  0
ARC
  5
C9
100
AcDbEntity
  8
0
  6
CONTINUOUS
 62
               7
100
AcDbCircle
 10
-0.0000000000000018
 20
0.0
 30
0.0
 40
7.0
100
AcDbArc
 50
38.213210701738184
 51
141.78678929826182
  0
LINE
  5
CA
100
AcDbEntity
  8
0
  6
CONTINUOUS
 62
               7
100
AcDbLine
 10
13.999999999999993
 20
-3.8890204449596659
 30
0.0
 11
11.599999999999993
 21
-3.889020444959618
 31
0.0
  0
LINE
  5
CB
100
AcDbEntity
  8
0
  6
CONTINUOUS
 62
               7
100
AcDbLine
 10
11.600000000000049
 20
4.5080938720703188
 30
0.0
 11
11.000000000000112
 21
4.5080938720703188
 31
0.0
  0
LINE
  5
CC
100
AcDbEntity
  8
0
  6
CONTINUOUS
 62
               7
100
AcDbLine
 10
11.000000000000112
 20
-4.4919061279296812
 30
0.0
 11
11.600000000000049
 21
-4.4919061279296812
 31
0.0
  0
LINE
  5
CD
100
AcDbEntity
  8
0
  6
CONTINUOUS
 62
               7
100
AcDbLine
 10
11.600000000000049
 20
4.5080938720703196
 30
0.0
 11
11.600000000000049
 21
-4.4919061279296812
 31
0.0
  0
LINE
  5
CE
100
AcDbEntity
  8
0
  6
CONTINUOUS
 62
               7
100
AcDbLine
 10
13.999999999999993
 20
3.9052081891003052
 30
0.0
 11
11.599999999999993
 21
3.9052081891002572
 31
0.0
  0
LINE
  5
CF
100
AcDbEntity
  8
0
  6
CONTINUOUS
 62
               7
100
AcDbLine
 10
13.711672435541423
 20
0.0
 30
0.0
 11
11.880318465445781
 21
0.0000000000000604
 31
0.0
  0
LINE
  5
D0
100
AcDbEntity
  8
0
  6
CONTINUOUS
 62
               7
100
AcDbLine
 10
13.999999999999993
 20
-3.8890204449596659
 30
0.0
 11
13.999999999999993
 21
3.9052081891003052
 31
0.0
  0
LINE
  5
D1
100
AcDbEntity
  8
0
  6
CONTINUOUS
 62
               7
100
AcDbLine
 10
10.999999999999998
 20
-6.3508529610858915
 30
0.0
 11
10.999999999999998
 21
6.3508529610858719
 31
0.0
  0
LINE
  5
D2
100
AcDbEntity
  8
0
  6
CONTINUOUS
 62
               7
100
AcDbLine
 10
10.999999999999998
 20
6.3508529610858719
 30
0.0
 11
0.0000000000000266
 21
12.701705922171771
 31
0.0
  0
LINE
  5
D3
100
AcDbEntity
  8
0
  6
CONTINUOUS
 62
               7
100
AcDbLine
 10
-10.999999999999973
 20
6.3508529610859057
 30
0.0
 11
0.0000000000000266
 21
12.701705922171771
 31
0.0
  0
LINE
  5
D4
100
AcDbEntity
  8
0
  6
CONTINUOUS
 62
               7
100
AcDbLine
 10
-10.999999999999988
 20
-6.3508529610858773
 30
0.0
 11
-10.999999999999973
 21
6.3508529610859057
 31
0.0
  0
LINE
  5
D5
100
AcDbEntity
  8
0
  6
CONTINUOUS
 62
               7
100
AcDbLine
 10
5.4999999999999982
 20
-4.3301270189221945
 30
0.0
 11
5.4999999999999982
 21
4.3301270189221954
 31
0.0
  0
LINE
  5
D6
100
AcDbEntity
  8
0
  6
CONTINUOUS
 62
               7
100
AcDbLine
 10
-5.5000000000000018
 20
4.3301270189221954
 30
0.0
 11
-5.5000000000000018
 21
-4.3301270189221945
 31
0.0
  0
ARC
  5
D7
100
AcDbEntity
  8
0
  6
CONTINUOUS
 62
               7
100
AcDbCircle
 10
18.48448840011639
 20
-1.9445102224798116
 30
0.0
 40
6.8844884001163198
100
AcDbArc
 50
163.5936344155235
 51
196.40636558447636
  0
ARC
  5
D8
100
AcDbEntity
  8
0
  6
CONTINUOUS
 62
               7
100
AcDbCircle
 10
18.54075073851655
 20
1.9526040945501322
 30
0.0
 40
6.9407507385165008
100
AcDbArc
 50
163.66072165669286
 51
196.33927834330714
  0
ARC
  5
D9
100
AcDbEntity
  8
0
  6
CONTINUOUS
 62
               7
100
AcDbCircle
 10
7.2441500315859955
 20
1.9526040945501517
 30
0.0
 40
6.7558499684139992
100
AcDbArc
 50
343.20045501390319
 51
16.799544986096887
  0
ARC
  5
DA
100
AcDbEntity
  8
0
  6
CONTINUOUS
 62
               7
100
AcDbCircle
 10
7.2988495272528198
 20
-1.944510222479833
 30
0.0
 40
6.7011504727471687
100
AcDbArc
 50
343.13153199191981
 51
16.868468008080104
  0
CIRCLE
  5
DB
100
AcDbEntity
  8
0
  6
CONTINUOUS
 62
               2
100
AcDbCircle
 10
-0.0000000000000018
 20
0.0
 30
0.0
 40
2.5
  0
CIRCLE
  5
DC
100
AcDbEntity
  8
0
  6
CONTINUOUS
 62
               7
100
AcDbCircle
 10
-0.0000000000000018
 20
0.0
 30
0.0
 40
2.0670000000000002
  0
LINE
  5
DD
100
AcDbEntity
  8
0
  6
CONTINUOUS
 62
               7
100
AcDbLine
 10
-0.0000000000000018
 20
-12.701705922171765
 30
0.0
 11
-10.999999999999988
 21
-6.3508529610858773
 31
0.0
  0
LINE
  5
DE
100
AcDbEntity
  8
0
  6
CONTINUOUS
 62
               7
100
AcDbLine
 10
-0.0000000000000018
 20
-12.701705922171765
 30
0.0
 11
10.999999999999998
 21
-6.3508529610858915
 31
0.0
  0
LINE
  5
DF
100
AcDbEntity
  8
0
  6
CENTER
 62
               2
100
AcDbLine
 10
17.399999999999999
 20
0.0
 30
0.0
 11
-13.999999999999973
 21
0.0
 31
0.0
  0
LINE
  5
E0
100
AcDbEntity
  8
0
  6
CENTER
 62
               2
100
AcDbLine
 10
-0.0000000000000018
 20
-15.701705922171765
 30
0.0
 11
-0.0000000000000018
 21
15.701705922171769
 31
0.0
  0
CIRCLE
  5
E1
100
AcDbEntity
  8
0
  6
CONTINUOUS
 62
               7
100
AcDbCircle
 10
-0.0000000000000018
 20
0.0
 30
0.0
 40
10.0
  0
ENDBLK
  5
E2
100
AcDbEntity
  8
0
100
AcDbBlockEnd
  0
BLOCK
  5
E3
100
AcDbEntity
  8
0
100
AcDbBlockBegin
  2
RSR-4
 70
               0
 10
0.0
 20
0.0
 30
0.0
  3
RSR-4
  1

  0
ARC
  5
E4
100
AcDbEntity
  8
0
  6
CONTINUOUS
 62
               7
100
AcDbCircle
 10
-56.759710876771997
 20
-1.9944849975959329
 30
0.0
 40
5.7709167297813657
100
AcDbArc
 50
180.84501204049948
 51
207.04851164054682
  0
ARC
  5
E5
100
AcDbEntity
  8
0
  6
CONTINUOUS
 62
               7
100
AcDbCircle
 10
-56.759710876771997
 20
1.9944849975959329
 30
0.0
 40
5.7709167297813657
100
AcDbArc
 50
153.81469691008661
 51
179.15498795950052
  0
ARC
  5
E6
100
AcDbEntity
  8
0
  6
CONTINUOUS
 62
               7
100
AcDbCircle
 10
-56.759710876771997
 20
1.9944849975959329
 30
0.0
 40
5.7709167297813657
100
AcDbArc
 50
152.95534854957663
 51
153.81469691008661
  0
ARC
  5
E7
100
AcDbEntity
  8
0
  6
CONTINUOUS
 62
               7
100
AcDbCircle
 10
-64.307184517526935
 20
-2.0000237166034935
 30
0.0
 40
5.7773695794336888
100
AcDbArc
 50
333.85182003129023
 51
359.54140192158195
  0
ARC
  5
E8
100
AcDbEntity
  8
0
  6
CONTINUOUS
 62
               7
100
AcDbCircle
 10
-64.307184517526935
 20
-2.0000237166034935
 30
0.0
 40
5.7773695794336888
100
AcDbArc
 50
333.04965827809696
 51
333.85182003129029
  0
ARC
  5
E9
100
AcDbEntity
  8
0
  6
CONTINUOUS
 62
               7
100
AcDbCircle
 10
-64.307184517526935
 20
2.0000237166034935
 30
0.0
 40
5.7773695794336888
100
AcDbArc
 50
24.142438010335933
 51
26.954470050672565
  0
ARC
  5
EA
100
AcDbEntity
  8
0
  6
CONTINUOUS
 62
               7
100
AcDbCircle
 10
-64.307184517526935
 20
2.0000237166034935
 30
0.0
 40
5.7773695794336888
100
AcDbArc
 50
0.4585980784181025
 51
24.142438010335958
  0
ARC
  5
EB
100
AcDbEntity
  8
0
  6
CONTINUOUS
 62
               7
100
AcDbCircle
 10
-44.061375873330107
 20
-3.5
 30
0.0
 40
13.770829627423097
100
AcDbArc
 50
198.61745861952457
 51
199.4378864560249
  0
ARC
  5
EC
100
AcDbEntity
  8
0
  6
CONTINUOUS
 62
               7
100
AcDbCircle
 10
-44.061375873330107
 20
-3.5
 30
0.0
 40
13.770829627423097
100
AcDbArc
 50
181.02545587908165
 51
198.61745861952457
  0
ARC
  5
ED
100
AcDbEntity
  8
0
  6
CONTINUOUS
 62
               7
100
AcDbCircle
 10
-44.061375873330107
 20
3.5
 30
0.0
 40
13.770829627423097
100
AcDbArc
 50
160.99936668672058
 51
178.97454412091835
  0
ARC
  5
EE
100
AcDbEntity
  8
0
  6
CONTINUOUS
 62
               7
100
AcDbCircle
 10
-44.061375873330107
 20
3.5
 30
0.0
 40
13.770829627423097
100
AcDbArc
 50
160.56225472412797
 51
160.99936668672058
  0
ARC
  5
EF
100
AcDbEntity
  8
0
  6
CONTINUOUS
 62
               7
100
AcDbCircle
 10
-69.605508891259788
 20
-3.5
 30
0.0
 40
13.777488421735047
100
AcDbArc
 50
340.98929823869219
 51
359.02873240573825
  0
ARC
  5
F0
100
AcDbEntity
  8
0
  6
CONTINUOUS
 62
               7
100
AcDbCircle
 10
-69.605508891259788
 20
-3.5
 30
0.0
 40
13.777488421735047
100
AcDbArc
 50
340.57201191599921
 51
340.98929823869224
  0
ARC
  5
F1
100
AcDbEntity
  8
0
  6
CONTINUOUS
 62
               7
100
AcDbCircle
 10
-69.605508891259788
 20
3.5
 30
0.0
 40
13.777488421735047
100
AcDbArc
 50
18.609559652711166
 51
19.428112604701994
  0
ARC
  5
F2
100
AcDbEntity
  8
0
  6
CONTINUOUS
 62
               7
100
AcDbCircle
 10
-69.605508891259788
 20
3.5
 30
0.0
 40
13.777488421735047
100
AcDbArc
 50
0.9712675942616944
 51
18.609559652711141
  0
ARC
  5
F3
100
AcDbEntity
  8
0
  6
CONTINUOUS
 62
               7
100
AcDbCircle
 10
-50.335765423071869
 20
-9.0057654230718498
 30
0.0
 40
0.9942512932165006
100
AcDbArc
 50
180.0
 51
270.33224624668696
  0
ARC
  5
F4
100
AcDbEntity
  8
0
  6
CONTINUOUS
 62
               7
100
AcDbCircle
 10
-50.335765423071869
 20
9.0057654230718498
 30
0.0
 40
0.9942512932165006
100
AcDbArc
 50
89.667753753313022
 51
180.0
  0
ARC
  5
F5
100
AcDbEntity
  8
0
  6
CONTINUOUS
 62
               7
100
AcDbCircle
 10
-28.32992357357049
 20
-9.5532978542520368
 30
0.0
 40
10.249923573570477
100
AcDbArc
 50
351.88615349873629
 51
0.0000000000000509
  0
ARC
  5
F6
100
AcDbEntity
  8
0
  6
CONTINUOUS
 62
               7
100
AcDbCircle
 10
-28.32992357357049
 20
9.5532978542520368
 30
0.0
 40
10.249923573570477
100
AcDbArc
 50
0.0
 51
8.114139216496957
  0
ARC
  5
F7
100
AcDbEntity
  8
0
  6
CONTINUOUS
 62
               7
100
AcDbCircle
 10
-18.252840335960656
 20
-9.5250000000000057
 30
0.0
 40
10.327327440462128
100
AcDbArc
 50
180.32659513403323
 51
188.21154274789052
  0
ARC
  5
F8
100
AcDbEntity
  8
0
  6
CONTINUOUS
 62
               7
100
AcDbCircle
 10
-18.252840335960659
 20
9.5250000000000057
 30
0.0
 40
10.327327440462128
100
AcDbArc
 50
171.78848016665566
 51
179.67340486596677
  0
LINE
  5
F9
100
AcDbEntity
  8
0
  6
CONTINUOUS
 62
               7
100
AcDbLine
 10
-19.330000000000013
 20
11.599999999999994
 30
0.0
 11
-18.833443145751932
 21
11.880314353204568
 31
0.0
  0
LINE
  5
FA
100
AcDbEntity
  8
0
  6
CONTINUOUS
 62
               7
100
AcDbLine
 10
-19.505692352923525
 20
14.000000000000009
 30
0.0
 11
-19.330000000000013
 21
14.000000000000009
 31
0.0
  0
LINE
  5
FB
100
AcDbEntity
  8
0
  6
CONTINUOUS
 62
               7
100
AcDbLine
 10
-18.833443145751964
 20
13.711676665275329
 30
0.0
 11
-19.330000000000013
 21
14.000000000000009
 31
0.0
  0
LINE
  5
FC
100
AcDbEntity
  8
0
  6
CONTINUOUS
 62
               7
100
AcDbLine
 10
-27.833443145751968
 20
11.884201775827719
 30
0.0
 11
-27.330000000000013
 21
11.599999999999994
 31
0.0
  0
LINE
  5
FD
100
AcDbEntity
  8
0
  6
CONTINUOUS
 62
               7
100
AcDbLine
 10
-27.330000000000013
 20
14.000000000000009
 30
0.0
 11
-27.833443145751968
 21
13.70767817343434
 31
0.0
  0
LINE
  5
FE
100
AcDbEntity
  8
0
  6
CONTINUOUS
 62
               7
100
AcDbLine
 10
-27.330000000000013
 20
14.000000000000009
 30
0.0
 11
-27.146307345387466
 21
14.000000000000009
 31
0.0
  0
LINE
  5
FF
100
AcDbEntity
  8
0
  6
CONTINUOUS
 62
               7
100
AcDbLine
 10
-62.530000000000022
 20
-2.0795927905810458
 30
0.0
 11
-62.530000000000022
 21
2.0795927905810458
 31
0.0
  0
LINE
  5
100
100
AcDbEntity
  8
0
  6
CONTINUOUS
 62
               7
100
AcDbLine
 10
-70.330000000000055
 20
-2.5
 30
0.0
 11
-62.508444170673783
 21
-2.5
 31
0.0
  0
LINE
  5
101
100
AcDbEntity
  8
0
  6
CONTINUOUS
 62
               7
100
AcDbLine
 10
-62.508444170673783
 20
2.5
 30
0.0
 11
-70.330000000000055
 21
2.5
 31
0.0
  0
LINE
  5
102
100
AcDbEntity
  8
0
  6
CONTINUOUS
 62
               7
100
AcDbLine
 10
-70.330000000000055
 20
2.5000000000000426
 30
0.0
 11
-70.830000000000013
 21
3.0
 31
0.0
  0
LINE
  5
103
100
AcDbEntity
  8
0
  6
CONTINUOUS
 62
               7
100
AcDbLine
 10
-70.830000000000013
 20
-3.0
 30
0.0
 11
-70.330000000000055
 21
-2.5000000000000426
 31
0.0
  0
LINE
  5
104
100
AcDbEntity
  8
0
  6
CONTINUOUS
 62
               7
100
AcDbLine
 10
-70.330000000000055
 20
-2.5
 30
0.0
 11
-70.330000000000055
 21
2.5
 31
0.0
  0
LINE
  5
105
100
AcDbEntity
  8
0
  6
CONTINUOUS
 62
               7
100
AcDbLine
 10
-18.833443145751968
 20
13.711676665275329
 30
0.0
 11
-18.833443145751932
 21
11.88031435320454
 31
0.0
  0
LINE
  5
106
100
AcDbEntity
  8
0
  6
CONTINUOUS
 62
               7
100
AcDbLine
 10
-22.733443145751966
 20
13.100000000000051
 30
0.0
 11
-22.733443145751966
 21
14.000000000000052
 31
0.0
  0
LINE
  5
107
100
AcDbEntity
  8
0
  6
CONTINUOUS
 62
               7
100
AcDbLine
 10
-23.933443145751969
 20
13.100000000000051
 30
0.0
 11
-22.733443145751966
 21
13.100000000000051
 31
0.0
  0
LINE
  5
108
100
AcDbEntity
  8
0
  6
CONTINUOUS
 62
               7
100
AcDbLine
 10
-23.933443145751969
 20
14.000000000000052
 30
0.0
 11
-23.933443145751969
 21
13.100000000000051
 31
0.0
  0
LINE
  5
109
100
AcDbEntity
  8
0
  6
CONTINUOUS
 62
               7
100
AcDbLine
 10
-21.083443145751968
 20
13.714747000562889
 30
0.0
 11
-21.083443145752007
 21
11.877329305008331
 31
0.0
  0
LINE
  5
10A
100
AcDbEntity
  8
0
  6
CONTINUOUS
 62
               7
100
AcDbLine
 10
-19.505692352923525
 20
14.000000000000009
 30
0.0
 11
-22.733443145751966
 21
14.000000000000052
 31
0.0
  0
LINE
  5
10B
100
AcDbEntity
  8
0
  6
CONTINUOUS
 62
               7
100
AcDbLine
 10
-27.833443145751968
 20
13.707673950168195
 30
0.0
 11
-27.833443145751968
 21
11.884205881780929
 31
0.0
  0
LINE
  5
10C
100
AcDbEntity
  8
0
  6
CONTINUOUS
 62
               7
100
AcDbLine
 10
-25.583443145751964
 20
13.712744636878577
 30
0.0
 11
-25.583443145751964
 21
11.879276047479109
 31
0.0
  0
LINE
  5
10D
100
AcDbEntity
  8
0
  6
CONTINUOUS
 62
               7
100
AcDbLine
 10
-23.933443145751969
 20
14.000000000000052
 30
0.0
 11
-27.146307345387466
 21
14.000000000000009
 31
0.0
  0
LINE
  5
10E
100
AcDbEntity
  8
0
  6
CONTINUOUS
 62
               7
100
AcDbLine
 10
-61.899403413030861
 20
-4.618802153504376
 30
0.0
 11
-59.157427362502766
 21
-4.6188021535170094
 31
0.0
  0
LINE
  5
10F
100
AcDbEntity
  8
0
  6
CONTINUOUS
 62
               7
100
AcDbLine
 10
-61.899403413024416
 20
-2.3094010767584905
 30
0.0
 11
-59.157427362502766
 21
-2.3094010767584905
 31
0.0
  0
LINE
  5
110
100
AcDbEntity
  8
0
  6
CONTINUOUS
 62
               7
100
AcDbLine
 10
-61.899403413024423
 20
4.6188021535169952
 30
0.0
 11
-59.15742736249657
 21
4.6188021535169952
 31
0.0
  0
LINE
  5
111
100
AcDbEntity
  8
0
  6
CONTINUOUS
 62
               7
100
AcDbLine
 10
-61.899403413030846
 20
2.3094010767585047
 30
0.0
 11
-59.157427362502766
 21
2.3094010767585047
 31
0.0
  0
LINE
  5
112
100
AcDbEntity
  8
0
  6
CONTINUOUS
 62
               7
100
AcDbLine
 10
-27.833443145751968
 20
11.600000000000051
 30
0.0
 11
-18.833443145751968
 21
11.600000000000051
 31
0.0
  0
LINE
  5
113
100
AcDbEntity
  8
0
  6
CONTINUOUS
 62
               7
100
AcDbLine
 10
-27.833443145751968
 20
11.600000000000051
 30
0.0
 11
-27.833443145751968
 21
11.000000000000114
 31
0.0
  0
LINE
  5
114
100
AcDbEntity
  8
0
  6
CONTINUOUS
 62
               7
100
AcDbLine
 10
-18.833443145751968
 20
11.000000000000114
 30
0.0
 11
-18.833443145751968
 21
11.600000000000051
 31
0.0
  0
LINE
  5
115
100
AcDbEntity
  8
0
  6
CONTINUOUS
 62
               7
100
AcDbLine
 10
3.9699999999999989
 20
4.1600000000000108
 30
0.0
 11
3.4699999999999989
 21
4.6900000000000119
 31
0.0
  0
LINE
  5
116
100
AcDbEntity
  8
0
  6
CONTINUOUS
 62
               7
100
AcDbLine
 10
3.4699999999999989
 20
-4.6900000000000119
 30
0.0
 11
3.9699999999999989
 21
-4.1600000000000108
 31
0.0
  0
LINE
  5
117
100
AcDbEntity
  8
0
  6
CONTINUOUS
 62
               7
100
AcDbLine
 10
3.9699999999999989
 20
4.1600000000000108
 30
0.0
 11
3.9699999999999989
 21
-4.1600000000000108
 31
0.0
  0
LINE
  5
118
100
AcDbEntity
  8
0
  6
CONTINUOUS
 62
               7
100
AcDbLine
 10
3.4699999999999989
 20
4.6900000000000119
 30
0.0
 11
-4.0900000000000034
 21
4.9200000000000017
 31
0.0
  0
LINE
  5
119
100
AcDbEntity
  8
0
  6
CONTINUOUS
 62
               7
100
AcDbLine
 10
-4.0900000000000034
 20
-4.9200000000000017
 30
0.0
 11
3.4699999999999989
 21
-4.6900000000000119
 31
0.0
  0
LINE
  5
11A
100
AcDbEntity
  8
0
  6
CONTINUOUS
 62
               7
100
AcDbLine
 10
3.4699999999999989
 20
4.6900000000000119
 30
0.0
 11
3.4699999999999989
 21
-4.6900000000000119
 31
0.0
  0
LINE
  5
11B
100
AcDbEntity
  8
0
  6
CONTINUOUS
 62
               7
100
AcDbLine
 10
-5.5900000000000034
 20
-5.0
 30
0.0
 11
-4.0900000000000034
 21
-5.0
 31
0.0
  0
LINE
  5
11C
100
AcDbEntity
  8
0
  6
CONTINUOUS
 62
               7
100
AcDbLine
 10
-4.0900000000000034
 20
5.0
 30
0.0
 11
-5.5900000000000034
 21
5.0
 31
0.0
  0
LINE
  5
11D
100
AcDbEntity
  8
0
  6
CONTINUOUS
 62
               7
100
AcDbLine
 10
-4.0900000000000034
 20
5.0
 30
0.0
 11
-4.0900000000000034
 21
-5.0
 31
0.0
  0
LINE
  5
11E
100
AcDbEntity
  8
0
  6
CONTINUOUS
 62
               7
100
AcDbLine
 10
-70.830000000000013
 20
4.5
 30
0.0
 11
-71.830000000000013
 21
5.5
 31
0.0
  0
LINE
  5
11F
100
AcDbEntity
  8
0
  6
CONTINUOUS
 62
               7
100
AcDbLine
 10
-71.830000000000013
 20
-5.5
 30
0.0
 11
-70.830000000000013
 21
-4.5
 31
0.0
  0
LINE
  5
120
100
AcDbEntity
  8
0
  6
CONTINUOUS
 62
               7
100
AcDbLine
 10
-70.830000000000013
 20
4.5
 30
0.0
 11
-70.830000000000013
 21
-4.5
 31
0.0
  0
LINE
  5
121
100
AcDbEntity
  8
0
  6
CONTINUOUS
 62
               7
100
AcDbLine
 10
-78.830000000000013
 20
-4.5
 30
0.0
 11
-77.830000000000013
 21
-5.5
 31
0.0
  0
LINE
  5
122
100
AcDbEntity
  8
0
  6
CONTINUOUS
 62
               7
100
AcDbLine
 10
-77.830000000000013
 20
5.5
 30
0.0
 11
-78.830000000000013
 21
4.5
 31
0.0
  0
LINE
  5
123
100
AcDbEntity
  8
0
  6
CONTINUOUS
 62
               7
100
AcDbLine
 10
-78.830000000000013
 20
4.5
 30
0.0
 11
-78.830000000000013
 21
-4.5
 31
0.0
  0
LINE
  5
124
100
AcDbEntity
  8
0
  6
CONTINUOUS
 62
               7
100
AcDbLine
 10
-77.830000000000013
 20
-5.5
 30
0.0
 11
-71.830000000000013
 21
-5.5
 31
0.0
  0
LINE
  5
125
100
AcDbEntity
  8
0
  6
CONTINUOUS
 62
               7
100
AcDbLine
 10
-71.830000000000013
 20
5.5
 30
0.0
 11
-77.830000000000013
 21
5.5
 31
0.0
  0
LINE
  5
126
100
AcDbEntity
  8
0
  6
CONTINUOUS
 62
               7
100
AcDbLine
 10
-77.830000000000013
 20
5.5
 30
0.0
 11
-77.830000000000013
 21
-5.5
 31
0.0
  0
LINE
  5
127
100
AcDbEntity
  8
0
  6
CONTINUOUS
 62
               7
100
AcDbLine
 10
-71.830000000000013
 20
5.5
 30
0.0
 11
-71.830000000000013
 21
-5.5
 31
0.0
  0
LINE
  5
128
100
AcDbEntity
  8
0
  6
CONTINUOUS
 62
               7
100
AcDbLine
 10
-54.829999999999984
 20
-6.0
 30
0.0
 11
-51.330016716288391
 21
-6.0
 31
0.0
  0
LINE
  5
129
100
AcDbEntity
  8
0
  6
CONTINUOUS
 62
               7
100
AcDbLine
 10
-51.330016716288391
 20
6.0
 30
0.0
 11
-54.829999999999984
 21
6.0
 31
0.0
  0
LINE
  5
12A
100
AcDbEntity
  8
0
  6
CONTINUOUS
 62
               7
100
AcDbLine
 10
-58.029999999999966
 20
-6.0
 30
0.0
 11
-57.603375305744578
 21
-6.0
 31
0.0
  0
LINE
  5
12B
100
AcDbEntity
  8
0
  6
CONTINUOUS
 62
               7
100
AcDbLine
 10
-55.829999999999984
 20
6.0
 30
0.0
 11
-56.056738201228782
 21
6.0
 31
0.0
  0
LINE
  5
12C
100
AcDbEntity
  8
0
  6
CONTINUOUS
 62
               7
100
AcDbLine
 10
-57.829999999999984
 20
-3.7464513866813007
 30
0.0
 11
-57.829999999999984
 21
3.7464513866813007
 31
0.0
  0
LINE
  5
12D
100
AcDbEntity
  8
0
  6
CONTINUOUS
 62
               7
100
AcDbLine
 10
-58.029999999999966
 20
-6.0
 30
0.0
 11
-58.029999999999966
 21
6.0
 31
0.0
  0
LINE
  5
12E
100
AcDbEntity
  8
0
  6
CONTINUOUS
 62
               7
100
AcDbLine
 10
-58.530000000000015
 20
-5.5
 30
0.0
 11
-58.029999999999966
 21
-6.0
 31
0.0
  0
LINE
  5
12F
100
AcDbEntity
  8
0
  6
CONTINUOUS
 62
               7
100
AcDbLine
 10
-58.029999999999966
 20
6.0
 30
0.0
 11
-58.530000000000015
 21
5.5
 31
0.0
  0
LINE
  5
130
100
AcDbEntity
  8
0
  6
CONTINUOUS
 62
               7
100
AcDbLine
 10
-58.530000000000015
 20
-5.5
 30
0.0
 11
-58.530000000000015
 21
5.5
 31
0.0
  0
LINE
  5
131
100
AcDbEntity
  8
0
  6
CONTINUOUS
 62
               7
100
AcDbLine
 10
-57.047242870749969
 20
-8.0829037686640817
 30
0.0
 11
-56.612580804862432
 21
-8.0829037686547593
 31
0.0
  0
LINE
  5
132
100
AcDbEntity
  8
0
  6
CONTINUOUS
 62
               7
100
AcDbLine
 10
-57.047242870749969
 20
8.0829037686640817
 30
0.0
 11
-56.612580804866134
 21
8.0829037686547593
 31
0.0
  0
LINE
  5
133
100
AcDbEntity
  8
0
  6
CONTINUOUS
 62
               7
100
AcDbLine
 10
-57.047242870753259
 20
4.0414518843273726
 30
0.0
 11
-56.612580804858091
 21
4.0414518843396792
 31
0.0
  0
LINE
  5
134
100
AcDbEntity
  8
0
  6
CONTINUOUS
 62
               7
100
AcDbLine
 10
-57.047242870753294
 20
-4.0414518843273868
 30
0.0
 11
-56.612580804862432
 21
-4.0414518843273868
 31
0.0
  0
LINE
  5
135
100
AcDbEntity
  8
0
  6
CONTINUOUS
 62
               7
100
AcDbLine
 10
-55.829999999999984
 20
-7.5
 30
0.0
 11
-55.829999999999984
 21
7.5
 31
0.0
  0
LINE
  5
136
100
AcDbEntity
  8
0
  6
CONTINUOUS
 62
               7
100
AcDbLine
 10
-54.830000000000098
 20
-7.5
 30
0.0
 11
-54.830000000000098
 21
7.5
 31
0.0
  0
LINE
  5
137
100
AcDbEntity
  8
0
  6
CONTINUOUS
 62
               7
100
AcDbLine
 10
-55.829999999999984
 20
-7.5
 30
0.0
 11
-54.830000000000098
 21
-7.5
 31
0.0
  0
LINE
  5
138
100
AcDbEntity
  8
0
  6
CONTINUOUS
 62
               7
100
AcDbLine
 10
-54.830000000000098
 20
7.5
 30
0.0
 11
-55.829999999999984
 21
7.5
 31
0.0
  0
LINE
  5
139
100
AcDbEntity
  8
0
  6
CONTINUOUS
 62
               7
100
AcDbLine
 10
-28.569238305335531
 20
-10.0
 30
0.0
 11
-50.330000000000013
 21
-10.0
 31
0.0
  0
LINE
  5
13A
100
AcDbEntity
  8
0
  6
CONTINUOUS
 62
               7
100
AcDbLine
 10
-28.569238305335535
 20
10.0
 30
0.0
 11
-50.330000000000013
 21
10.0
 31
0.0
  0
LINE
  5
13B
100
AcDbEntity
  8
0
  6
CONTINUOUS
 62
               7
100
AcDbLine
 10
-28.580000000000013
 20
-9.5838671042311105
 30
0.0
 11
-28.580000000000013
 21
9.5838671042317145
 31
0.0
  0
LINE
  5
13C
100
AcDbEntity
  8
0
  6
CONTINUOUS
 62
               7
100
AcDbLine
 10
-18.089738494333886
 20
-10.0
 30
0.0
 11
-9.0900000000000034
 21
-10.0
 31
0.0
  0
LINE
  5
13D
100
AcDbEntity
  8
0
  6
CONTINUOUS
 62
               7
100
AcDbLine
 10
-9.0900000000000034
 20
10.0
 30
0.0
 11
-18.089738494333886
 21
10.0
 31
0.0
  0
LINE
  5
13E
100
AcDbEntity
  8
0
  6
CONTINUOUS
 62
               7
100
AcDbLine
 10
-18.080000000000013
 20
-9.5532978542520368
 30
0.0
 11
-18.080000000000013
 21
9.5532978542520368
 31
0.0
  0
LINE
  5
13F
100
AcDbEntity
  8
0
  6
CONTINUOUS
 62
               7
100
AcDbLine
 10
-9.0900000000000034
 20
10.0
 30
0.0
 11
-9.0900000000000034
 21
-10.0
 31
0.0
  0
LINE
  5
140
100
AcDbEntity
  8
0
  6
CONTINUOUS
 62
               7
100
AcDbLine
 10
-51.33001671628837
 20
9.0057654230718498
 30
0.0
 11
-51.33001671628837
 21
-9.0057654230718498
 31
0.0
  0
LINE
  5
141
100
AcDbEntity
  8
0
  6
CONTINUOUS
 62
               7
100
AcDbLine
 10
-18.18260933947268
 20
-10.999999999999986
 30
0.0
 11
-18.575516369547596
 21
-10.999999999999986
 31
0.0
  0
LINE
  5
142
100
AcDbEntity
  8
0
  6
CONTINUOUS
 62
               7
100
AcDbLine
 10
-18.182609339538885
 20
11.000000000000014
 30
0.0
 11
-18.5755163695476
 21
11.000000000000014
 31
0.0
  0
LINE
  5
143
100
AcDbEntity
  8
0
  6
CONTINUOUS
 62
               7
100
AcDbLine
 10
-28.079448679970348
 20
-10.999999999999986
 30
0.0
 11
-18.575516369547596
 21
-10.999999999999986
 31
0.0
  0
LINE
  5
144
100
AcDbEntity
  8
0
  6
CONTINUOUS
 62
               7
100
AcDbLine
 10
-28.079448679975474
 20
10.999999999972545
 30
0.0
 11
-18.575516369547604
 21
11.000000000000014
 31
0.0
  0
LINE
  5
145
100
AcDbEntity
  8
0
  6
CONTINUOUS
 62
               7
100
AcDbLine
 10
-28.079448679970348
 20
0.0000000000000142
 30
0.0
 11
-18.5755163695476
 21
0.0000000000000142
 31
0.0
  0
LINE
  5
146
100
AcDbEntity
  8
0
  6
CONTINUOUS
 62
               7
100
AcDbLine
 10
-28.079448679967982
 20
11.000000000000014
 30
0.0
 11
-28.474292388045107
 21
11.000000846700345
 31
0.0
  0
LINE
  5
147
100
AcDbEntity
  8
0
  6
CONTINUOUS
 62
               7
100
AcDbLine
 10
-28.079448679970351
 20
-10.999999999999986
 30
0.0
 11
-28.47429165469169
 21
-10.999999999999986
 31
0.0
  0
LINE
  5
148
100
AcDbEntity
  8
0
  6
CONTINUOUS
 62
               7
100
AcDbLine
 10
-56.056738201228782
 20
-6.0
 30
0.0
 11
-55.829999999999984
 21
-6.0
 31
0.0
  0
LINE
  5
149
100
AcDbEntity
  8
0
  6
CONTINUOUS
 62
               7
100
AcDbLine
 10
-57.603375305744578
 20
6.0
 30
0.0
 11
-58.029999999999966
 21
6.0
 31
0.0
  0
ARC
  5
14A
100
AcDbEntity
  8
0
  6
CONTINUOUS
 62
               7
100
AcDbCircle
 10
-52.214480685421421
 20
0.0000000000134435
 30
0.0
 40
9.9564582846028582
100
AcDbArc
 50
166.58809295340421
 51
193.41190704675483
  0
ARC
  5
14B
100
AcDbEntity
  8
0
  6
CONTINUOUS
 62
               7
100
AcDbCircle
 10
-68.884192570683751
 20
0.0000000000001279
 30
0.0
 40
9.9971643353710071
100
AcDbArc
 50
346.64371638487785
 51
13.356283615120821
  0
ARC
  5
14C
100
AcDbEntity
  8
0
  6
CONTINUOUS
 62
               7
100
AcDbCircle
 10
-62.585103897857863
 20
6.0621816975497325
 30
0.0
 40
6.3051075386873103
100
AcDbArc
 50
341.30738282893719
 51
18.690797331673107
  0
ARC
  5
14D
100
AcDbEntity
  8
0
  6
CONTINUOUS
 62
               7
100
AcDbCircle
 10
-51.078057628564238
 20
6.0621823684095801
 30
0.0
 40
6.3019460601362125
100
AcDbArc
 50
161.29978807435941
 51
198.70234886721644
  0
ARC
  5
14E
100
AcDbEntity
  8
0
  6
CONTINUOUS
 62
               7
100
AcDbCircle
 10
-32.671197099784038
 20
-0.0000000000000568
 30
0.0
 40
24.708802900215968
100
AcDbArc
 50
170.58621961529511
 51
189.41378038470464
  0
ARC
  5
14F
100
AcDbEntity
  8
0
  6
CONTINUOUS
 62
               7
100
AcDbCircle
 10
-81.001726396769286
 20
0.0000000000192557
 30
0.0
 40
24.721726396769277
100
AcDbArc
 50
350.59118548019813
 51
9.4088145197402593
  0
ARC
  5
150
100
AcDbEntity
  8
0
  6
CONTINUOUS
 62
               7
100
AcDbCircle
 10
-51.07806102399914
 20
-6.0621816873266141
 30
0.0
 40
6.3019426255995565
100
AcDbArc
 50
161.29764709938095
 51
198.70053616595916
  0
ARC
  5
151
100
AcDbEntity
  8
0
  6
CONTINUOUS
 62
               7
100
AcDbCircle
 10
-62.585080031794803
 20
-6.0621778264909949
 30
0.0
 40
6.3050836908831522
100
AcDbArc
 50
341.30734664353378
 51
18.692653356464753
  0
ARC
  5
152
100
AcDbEntity
  8
0
  6
CONTINUOUS
 62
               7
100
AcDbCircle
 10
1.8869575361182171
 20
-5.4999999999999858
 30
0.0
 40
30.466957536118226
100
AcDbArc
 50
169.5997497819765
 51
190.40025021802356
  0
ARC
  5
153
100
AcDbEntity
  8
0
  6
CONTINUOUS
 62
               7
100
AcDbCircle
 10
1.8869575359678095
 20
5.4999999999862723
 30
0.0
 40
30.466957535967811
100
AcDbArc
 50
169.59974978195254
 51
190.40025021804919
  0
ARC
  5
154
100
AcDbEntity
  8
0
  6
CONTINUOUS
 62
               7
100
AcDbCircle
 10
-48.851472292966335
 20
5.5
 30
0.0
 40
30.771472292966322
100
AcDbArc
 50
349.70379894595686
 51
10.296201054043157
  0
ARC
  5
155
100
AcDbEntity
  8
0
  6
CONTINUOUS
 62
               7
100
AcDbCircle
 10
-48.85147229296588
 20
-5.5
 30
0.0
 40
30.771472292965868
100
AcDbArc
 50
349.70379894595675
 51
10.296201054043259
  0
ARC
  5
156
100
AcDbEntity
  8
0
  6
CONTINUOUS
 62
               7
100
AcDbCircle
 10
-26.703830448375314
 20
13.98699815220489
 30
0.0
 40
2.3869981522048414
100
AcDbArc
 50
241.75546253915277
 51
297.99346346333692
  0
ARC
  5
157
100
AcDbEntity
  8
0
  6
CONTINUOUS
 62
               7
100
AcDbCircle
 10
-26.703848336893735
 20
11.67136908874013
 30
0.0
 40
2.3286309112598826
100
AcDbArc
 50
61.239899765855931
 51
119.01834775048692
  0
ARC
  5
158
100
AcDbEntity
  8
0
  6
CONTINUOUS
 62
               7
100
AcDbCircle
 10
-23.933443145751905
 20
9.1175574005624842
 30
0.0
 40
4.8824425994375726
100
AcDbArc
 50
90.000000000000028
 51
109.75175833123055
  0
ARC
  5
159
100
AcDbEntity
  8
0
  6
CONTINUOUS
 62
               7
100
AcDbCircle
 10
-23.329568613206078
 20
20.834493193587008
 30
0.0
 40
9.2344931935869514
100
AcDbArc
 50
255.87304434851373
 51
284.07738226463459
  0
ARC
  5
15A
100
AcDbEntity
  8
0
  6
CONTINUOUS
 62
               7
100
AcDbCircle
 10
-22.73344314575203
 20
9.0852939684763303
 30
0.0
 40
4.9147060315237212
100
AcDbArc
 50
70.383241463557368
 51
90.0
  0
ARC
  5
15B
100
AcDbEntity
  8
0
  6
CONTINUOUS
 62
               7
100
AcDbCircle
 10
-19.961269259288166
 20
14.009023768400297
 30
0.0
 40
2.4090237684002496
100
AcDbArc
 50
242.2366306039645
 51
297.91539656309538
  0
ARC
  5
15C
100
AcDbEntity
  8
0
  6
CONTINUOUS
 62
               7
100
AcDbCircle
 10
-19.961258539622289
 20
11.650037744444825
 30
0.0
 40
2.3499622555551851
100
AcDbArc
 50
61.319225040592393
 51
118.52440416431897
  0
LINE
  5
15D
100
AcDbEntity
  8
0
  6
CONTINUOUS
 62
               7
100
AcDbLine
 10
-5.5900000000000034
 20
-5.4999999999999858
 30
0.0
 11
-8.5900000000000176
 21
-5.4999999999999858
 31
0.0
  0
LINE
  5
15E
100
AcDbEntity
  8
0
  6
CONTINUOUS
 62
               7
100
AcDbLine
 10
-8.5900000000000034
 20
5.5
 30
0.0
 11
-5.5900000000000034
 21
5.5
 31
0.0
  0
LINE
  5
15F
100
AcDbEntity
  8
0
  6
CONTINUOUS
 62
               7
100
AcDbLine
 10
-9.0900000000000034
 20
7.0
 30
0.0
 11
-8.5900000000000034
 21
7.0
 31
0.0
  0
LINE
  5
160
100
AcDbEntity
  8
0
  6
CONTINUOUS
 62
               7
100
AcDbLine
 10
-8.5900000000000034
 20
7.0
 30
0.0
 11
-8.5900000000000034
 21
5.4999999999953673
 31
0.0
  0
LINE
  5
161
100
AcDbEntity
  8
0
  6
CONTINUOUS
 62
               7
100
AcDbLine
 10
-8.5900000000000176
 20
-6.9999999999999858
 30
0.0
 11
-9.0900000000000176
 21
-6.9999999999999858
 31
0.0
  0
LINE
  5
162
100
AcDbEntity
  8
0
  6
CONTINUOUS
 62
               7
100
AcDbLine
 10
-8.5900000000000176
 20
-5.4999999999953531
 30
0.0
 11
-8.5900000000000176
 21
-6.9999999999999858
 31
0.0
  0
LINE
  5
163
100
AcDbEntity
  8
0
  6
CONTINUOUS
 62
               7
100
AcDbLine
 10
-5.5900000000000034
 20
-5.5
 30
0.0
 11
-5.5900000000000034
 21
5.5
 31
0.0
  0
LINE
  5
164
100
AcDbEntity
  8
0
  6
CONTINUOUS
 62
               2
100
AcDbLine
 10
-4.0200000000000102
 20
4.3975816993463965
 30
0.0
 11
3.9699999999999989
 21
4.1441543865710671
 31
0.0
  0
LINE
  5
165
100
AcDbEntity
  8
0
  6
CENTER
 62
               2
100
AcDbLine
 10
0.0
 20
6.8999999999999915
 30
0.0
 11
0.0
 21
-6.9000000000000057
 31
0.0
  0
LINE
  5
166
100
AcDbEntity
  8
0
  6
CONTINUOUS
 62
               2
100
AcDbLine
 10
-5.0673863636363805
 20
5.0
 30
0.0
 11
-4.0200000000000102
 21
4.3975816993463965
 31
0.0
  0
LINE
  5
167
100
AcDbEntity
  8
0
  6
CONTINUOUS
 62
               2
100
AcDbLine
 10
-4.0200000000000102
 20
-4.4043137254901978
 30
0.0
 11
3.9699999999999989
 21
-4.1508864127148684
 31
0.0
  0
LINE
  5
168
100
AcDbEntity
  8
0
  6
CONTINUOUS
 62
               2
100
AcDbLine
 10
-4.0200000000000102
 20
-4.4043137254901978
 30
0.0
 11
-5.06758620689655
 21
-5.0
 31
0.0
  0
LINE
  5
169
100
AcDbEntity
  8
0
  6
CONTINUOUS
 62
               2
100
AcDbLine
 10
-51.33001671628837
 20
5.5
 30
0.0
 11
-54.830000000000098
 21
5.5
 31
0.0
  0
LINE
  5
16A
100
AcDbEntity
  8
0
  6
CONTINUOUS
 62
               2
100
AcDbLine
 10
-51.33001671628837
 20
-5.5
 30
0.0
 11
-54.830000000000098
 21
-5.5
 31
0.0
  0
LINE
  5
16B
100
AcDbEntity
  8
0
  6
CONTINUOUS
 62
               2
100
AcDbLine
 10
-55.829999999999984
 20
5.5
 30
0.0
 11
-55.973957724534728
 21
5.5
 31
0.0
  0
LINE
  5
16C
100
AcDbEntity
  8
0
  6
CONTINUOUS
 62
               2
100
AcDbLine
 10
-57.686196922705903
 20
5.5
 30
0.0
 11
-58.530000000000015
 21
5.5
 31
0.0
  0
LINE
  5
16D
100
AcDbEntity
  8
0
  6
CONTINUOUS
 62
               2
100
AcDbLine
 10
-57.686196922705903
 20
-5.5
 30
0.0
 11
-58.530000000000015
 21
-5.5
 31
0.0
  0
LINE
  5
16E
100
AcDbEntity
  8
0
  6
CONTINUOUS
 62
               2
100
AcDbLine
 10
-55.829999999999984
 20
-5.5
 30
0.0
 11
-55.973957724534728
 21
-5.5
 31
0.0
  0
ARC
  5
16F
100
AcDbEntity
  8
0
  6
CONTINUOUS
 62
               7
100
AcDbCircle
 10
-59.27009917073697
 20
3.4641316807186868
 30
0.0
 40
2.8716969837130808
100
AcDbArc
 50
156.2993713450968
 51
203.70998841625871
  0
ARC
  5
170
100
AcDbEntity
  8
0
  6
CONTINUOUS
 62
               7
100
AcDbCircle
 10
-61.589532111404594
 20
3.4641016151378139
 30
0.0
 40
2.692297688400012
100
AcDbArc
 50
334.60283948606644
 51
25.397160513931038
  0
ARC
  5
171
100
AcDbEntity
  8
0
  6
CONTINUOUS
 62
               7
100
AcDbCircle
 10
-59.270099170736998
 20
-3.4641316807188005
 30
0.0
 40
2.8716969837130808
100
AcDbArc
 50
156.29001158374098
 51
203.70062865490289
  0
ARC
  5
172
100
AcDbEntity
  8
0
  6
CONTINUOUS
 62
               7
100
AcDbCircle
 10
-61.589532111404623
 20
-3.4641016151379134
 30
0.0
 40
2.692297688400012
100
AcDbArc
 50
334.60283948606866
 51
25.397160513933276
  0
LINE
  5
173
100
AcDbEntity
  8
0
  6
CENTER
 62
               2
100
AcDbLine
 10
-81.830000000000013
 20
0.0
 30
0.0
 11
6.4939999999999998
 21
0.0
 31
0.0
  0
ENDBLK
  5
174
100
AcDbEntity
  8
0
100
AcDbBlockEnd
  0
BLOCK
  5
23
100
AcDbEntity
  8
0
  6
ByBlock
 62
               0
100
AcDbBlockBegin
  2
_OPEN30
 70
               2
 10
0.0
 20
0.0
 30
0.0
  3
_OPEN30
  1

  0
LINE
  5
24
100
AcDbEntity
  8
0
  6
ByBlock
 62
               0
100
AcDbLine
 10
-1.0
 20
0.267949
 30
0.0
 11
0.0
 21
0.0
 31
0.0
  0
LINE
  5
25
100
AcDbEntity
  8
0
  6
ByBlock
 62
               0
100
AcDbLine
 10
0.0
 20
0.0
 30
0.0
 11
-1.0
 21
-0.267949
 31
0.0
  0
LINE
  5
26
100
AcDbEntity
  8
0
  6
ByBlock
 62
               0
100
AcDbLine
 10
0.0
 20
0.0
 30
0.0
 11
-1.0
 21
0.0
 31
0.0
  0
ENDBLK
  5
27
100
AcDbEntity
  8
0
  6
ByBlock
 62
               0
100
AcDbBlockEnd
  0
ENDSEC
  0
SECTION
  2
ENTITIES
  0
INSERT
  5
175
100
AcDbEntity
  8
0
  6
ByBlock
100
AcDbBlockReference
  2
RSR-3
 10
90.0
 20
-30.0
 30
0.0
  0
INSERT
  5
176
100
AcDbEntity
  8
0
  6
ByBlock
100
AcDbBlockReference
  2
RSR-4
 10
39.999983283711643
 20
40.0
 30
0.0
  0
INSERT
  5
177
100
AcDbEntity
  8
0
  6
ByBlock
100
AcDbBlockReference
  2
RSR-2
 10
-90.0
 20
-30.0
 30
0.0
  0
INSERT
  5
178
100
AcDbEntity
  8
0
  6
ByBlock
100
AcDbBlockReference
  2
RSR-1
 10
40.0
 20
-29.999999999999993
 30
0.0
  0
MTEXT
  5
179
100
AcDbEntity
  8
0
  6
CONTINUOUS
 62
               7
100
AcDbMText
 10
-110.16666030883789
 20
89.099999904632568
 30
0.0
 40
3.1999998092651367
 41
0.0
 71
               1
 72
               1
  1
\A1;RSR
  0
LINE
  5
17A
100
AcDbEntity
  8
0
  6
CONTINUOUS
 62
               7
100
AcDbLine
 10
-138.39999389648437
 20
94.5
 30
0.0
 11
138.35000610351562
 21
94.5
 31
0.0
  0
LINE
  5
17B
100
AcDbEntity
  8
0
  6
CONTINUOUS
 62
               7
100
AcDbLine
 10
138.35000610351562
 20
94.5
 30
0.0
 11
138.35000610351562
 21
-94.800003051757812
 31
0.0
  0
LINE
  5
17C
100
AcDbEntity
  8
0
  6
CONTINUOUS
 62
               7
100
AcDbLine
 10
-138.39999389648437
 20
-94.800003051757812
 30
0.0
 11
138.35000610351562
 21
-94.800003051757812
 31
0.0
  0
LINE
  5
17D
100
AcDbEntity
  8
0
  6
CONTINUOUS
 62
               7
100
AcDbLine
 10
-138.39999389648437
 20
94.5
 30
0.0
 11
-138.39999389648437
 21
-94.800003051757812
 31
0.0
  0
LINE
  5
17E
100
AcDbEntity
  8
0
  6
CONTINUOUS
 62
               7
100
AcDbLine
 10
73.350006103515625
 20
-84.800003051757813
 30
0.0
 11
138.35000610351562
 21
-84.800003051757813
 31
0.0
  0
LINE
  5
17F
100
AcDbEntity
  8
0
  6
CONTINUOUS
 62
               7
100
AcDbLine
 10
-138.39999389648437
 20
84.5
 30
0.0
 11
-73.399993896484375
 21
84.5
 31
0.0
  0
LINE
  5
180
100
AcDbEntity
  8
0
  6
CONTINUOUS
 62
               7
100
AcDbLine
 10
73.350006103515625
 20
84.5
 30
0.0
 11
138.35000610351562
 21
84.5
 31
0.0
  0
LINE
  5
181
100
AcDbEntity
  8
0
  6
CONTINUOUS
 62
               7
100
AcDbLine
 10
73.350006103515625
 20
-84.800003051757813
 30
0.0
 11
73.350006103515625
 21
-94.800003051757812
 31
0.0
  0
LINE
  5
182
100
AcDbEntity
  8
0
  6
CONTINUOUS
 62
               7
100
AcDbLine
 10
73.350006103515625
 20
94.5
 30
0.0
 11
73.350006103515625
 21
84.5
 31
0.0
  0
LINE
  5
183
100
AcDbEntity
  8
0
  6
CONTINUOUS
 62
               7
100
AcDbLine
 10
-73.399993896484375
 20
94.5
 30
0.0
 11
-73.399993896484375
 21
84.5
 31
0.0
  0
MTEXT
  5
184
100
AcDbEntity
  8
0
  6
CONTINUOUS
 62
               7
100
AcDbMText
 10
77.440523342735503
 20
-89.800003051757812
 30
0.0
 40
4.5
 41
0.0
 71
               4
 72
               1
  1
\W1.121;\A1;KOGANEI CORP.
  0
MTEXT
  5
185
100
AcDbEntity
  8
0
  6
CONTINUOUS
 62
               7
100
AcDbMText
 10
93.749460369842424
 20
89.5
 30
0.0
 40
3.1999998092651367
 41
0.0
 71
               4
 72
               1
  1
\W1.311;\A1;Ver. 1.0
  0
MTEXT
  5
186
100
AcDbEntity
  8
0
  6
CONTINUOUS
 62
               7
100
AcDbMText
 10
-119.7820074619834
 20
93.099999904632568
 30
0.0
 40
3.1999998092651367
 41
0.0
 71
               1
 72
               1
  1
\W0.971;\A1;TAC VALVE
  0
MTEXT
  5
187
100
AcDbEntity
  8
0
  6
CONTINUOUS
 62
               7
100
AcDbMText
 10
-129.42399391242981
 20
74.5
 30
0.0
 40
3.2000000476837158
 41
0.0
 71
               4
 72
               1
  1
\W1.080;\A1;MODEL:RSR
  0
ENDSEC
  0
SECTION
  2
OBJECTS
  0
DICTIONARY
  5
19
100
AcDbDictionary
  3
ACAD_GROUP
350
1A
  3
ACAD_MLINESTYLE
350
1B
  0
DICTIONARY
  5
1A
102
{ACAD_REACTORS
330
19
102
}
100
AcDbDictionary
  0
DICTIONARY
  5
1B
102
{ACAD_REACTORS
330
19
102
}
100
AcDbDictionary
  3
STANDARD
350
1C
  0
MLINESTYLE
  5
1C
102
{ACAD_REACTORS
330
1B
102
}
100
AcDbMlineStyle
  2
Standard
 70
               0
  3

 62
               0
 51
90.0
 52
90.0
 71
               2
 49
0.5
 62
             256
  6
ByLayer
 49
-0.5
 62
             256
  6
ByLayer
  0
ENDSEC
  0
EOF
