  0
SECTION
  2
HEADER
  9
$ACADVER
  1
AC1012
  9
$DWGCODEPAGE
  3
dos932
  9
$INSBASE
 10
0.0
 20
0.0
 30
0.0
  9
$EXTMIN
 10
-138.4094391564276
 20
-94.80677969792248
 30
-0.0015258207003583
  9
$EXTMAX
 10
138.3594524451544
 20
94.50677747942865
 30
0.0000000349246037
  9
$LIMMIN
 10
-138.400994
 20
-94.8010031
  9
$LIMMAX
 10
138.351006
 20
94.501
  9
$ORTHOMODE
 70
     0
  9
$REGENMODE
 70
     1
  9
$FILLMODE
 70
     1
  9
$QTEXTMODE
 70
     0
  9
$MIRRTEXT
 70
     1
  9
$DRAGMODE
 70
     2
  9
$LTSCALE
 40
4.612499999999999
  9
$OSMODE
 70
    37
  9
$ATTMODE
 70
     1
  9
$TEXTSIZE
 40
0.2
  9
$TRACEWID
 40
0.05
  9
$TEXTSTYLE
  7
STANDARD
  9
$CLAYER
  8
0
  9
$CELTYPE
  6
CONTINUOUS
  9
$CECOLOR
 62
   256
  9
$CELTSCALE
 40
1.0
  9
$DELOBJ
 70
     1
  9
$DISPSILH
 70
     0
  9
$DIMSCALE
 40
1.0
  9
$DIMASZ
 40
0.18
  9
$DIMEXO
 40
0.0625
  9
$DIMDLI
 40
0.38
  9
$DIMRND
 40
0.0
  9
$DIMDLE
 40
0.0
  9
$DIMEXE
 40
0.18
  9
$DIMTP
 40
0.0
  9
$DIMTM
 40
0.0
  9
$DIMTXT
 40
0.18
  9
$DIMCEN
 40
0.09
  9
$DIMTSZ
 40
0.0
  9
$DIMTOL
 70
     0
  9
$DIMLIM
 70
     0
  9
$DIMTIH
 70
     1
  9
$DIMTOH
 70
     1
  9
$DIMSE1
 70
     0
  9
$DIMSE2
 70
     0
  9
$DIMTAD
 70
     0
  9
$DIMZIN
 70
     0
  9
$DIMBLK
  1

  9
$DIMASO
 70
     1
  9
$DIMSHO
 70
     1
  9
$DIMPOST
  1

  9
$DIMAPOST
  1

  9
$DIMALT
 70
     0
  9
$DIMALTD
 70
     2
  9
$DIMALTF
 40
25.4
  9
$DIMLFAC
 40
1.0
  9
$DIMTOFL
 70
     0
  9
$DIMTVP
 40
0.0
  9
$DIMTIX
 70
     0
  9
$DIMSOXD
 70
     0
  9
$DIMSAH
 70
     0
  9
$DIMBLK1
  1

  9
$DIMBLK2
  1

  9
$DIMSTYLE
  2
STANDARD
  9
$DIMCLRD
 70
     0
  9
$DIMCLRE
 70
     0
  9
$DIMCLRT
 70
     0
  9
$DIMTFAC
 40
1.0
  9
$DIMGAP
 40
0.09
  9
$DIMJUST
 70
     0
  9
$DIMSD1
 70
     0
  9
$DIMSD2
 70
     0
  9
$DIMTOLJ
 70
     1
  9
$DIMTZIN
 70
     0
  9
$DIMALTZ
 70
     0
  9
$DIMALTTZ
 70
     0
  9
$DIMFIT
 70
     3
  9
$DIMUPT
 70
     0
  9
$DIMUNIT
 70
     2
  9
$DIMDEC
 70
     4
  9
$DIMTDEC
 70
     4
  9
$DIMALTU
 70
     2
  9
$DIMALTTD
 70
     2
  9
$DIMTXSTY
  7
STANDARD
  9
$DIMAUNIT
 70
     0
  9
$LUNITS
 70
     2
  9
$LUPREC
 70
     4
  9
$SKETCHINC
 40
0.1
  9
$FILLETRAD
 40
0.0
  9
$AUNITS
 70
     0
  9
$AUPREC
 70
     0
  9
$MENU
  1
.
  9
$ELEVATION
 40
0.0
  9
$PELEVATION
 40
0.0
  9
$THICKNESS
 40
0.0
  9
$LIMCHECK
 70
     0
  9
$BLIPMODE
 70
     0
  9
$CHAMFERA
 40
0.0
  9
$CHAMFERB
 40
0.0
  9
$CHAMFERC
 40
0.0
  9
$CHAMFERD
 40
0.0
  9
$SKPOLY
 70
     0
  9
$TDCREATE
 40
2451967.780929097
  9
$TDUPDATE
 40
2451967.780946829
  9
$TDINDWG
 40
0.0000199421
  9
$TDUSRTIMER
 40
0.0000199421
  9
$USRTIMER
 70
     1
  9
$ANGBASE
 50
0.0
  9
$ANGDIR
 70
     0
  9
$PDMODE
 70
     0
  9
$PDSIZE
 40
0.0
  9
$PLINEWID
 40
0.0
  9
$COORDS
 70
     0
  9
$SPLFRAME
 70
     0
  9
$SPLINETYPE
 70
     6
  9
$SPLINESEGS
 70
     8
  9
$ATTDIA
 70
     0
  9
$ATTREQ
 70
     1
  9
$HANDLING
 70
 10241
  9
$HANDSEED
  5
310
  9
$SURFTAB1
 70
     6
  9
$SURFTAB2
 70
     6
  9
$SURFTYPE
 70
     6
  9
$SURFU
 70
     6
  9
$SURFV
 70
     6
  9
$UCSNAME
  2

  9
$UCSORG
 10
0.0
 20
0.0
 30
0.0
  9
$UCSXDIR
 10
1.0
 20
0.0
 30
0.0
  9
$UCSYDIR
 10
0.0
 20
1.0
 30
0.0
  9
$PUCSNAME
  2

  9
$PUCSORG
 10
0.0
 20
0.0
 30
0.0
  9
$PUCSXDIR
 10
1.0
 20
0.0
 30
0.0
  9
$PUCSYDIR
 10
0.0
 20
1.0
 30
0.0
  9
$USERI1
 70
     0
  9
$USERI2
 70
     0
  9
$USERI3
 70
     0
  9
$USERI4
 70
     0
  9
$USERI5
 70
     0
  9
$USERR1
 40
0.0
  9
$USERR2
 40
0.0
  9
$USERR3
 40
0.0
  9
$USERR4
 40
0.0
  9
$USERR5
 40
0.0
  9
$WORLDVIEW
 70
     1
  9
$SHADEDGE
 70
     3
  9
$SHADEDIF
 70
    70
  9
$TILEMODE
 70
     1
  9
$MAXACTVP
 70
    64
  9
$PINSBASE
 10
0.0
 20
0.0
 30
0.0
  9
$PLIMCHECK
 70
     0
  9
$PEXTMIN
 10
1.000000000000000E+20
 20
1.000000000000000E+20
 30
1.000000000000000E+20
  9
$PEXTMAX
 10
-1.000000000000000E+20
 20
-1.000000000000000E+20
 30
-1.000000000000000E+20
  9
$PLIMMIN
 10
0.0
 20
0.0
  9
$PLIMMAX
 10
12.0
 20
9.0
  9
$UNITMODE
 70
     0
  9
$VISRETAIN
 70
     1
  9
$PLINEGEN
 70
     0
  9
$PSLTSCALE
 70
     1
  9
$TREEDEPTH
 70
  3020
  9
$PICKSTYLE
 70
     1
  9
$CMLSTYLE
  2
STANDARD
  9
$CMLJUST
 70
     0
  9
$CMLSCALE
 40
1.0
  9
$SAVEIMAGES
 70
     1
  0
ENDSEC
  0
SECTION
  2
CLASSES
  0
CLASS
  1
ACDBDICTIONARYWDFLT
  2
AcDbDictionaryWithDefault
  3
AutoCAD 2000
 90
    32768
280
     0
281
     0
  0
CLASS
  1
ACDBPLACEHOLDER
  2
AcDbPlaceHolder
  3
AutoCAD 2000
 90
    32768
280
     0
281
     0
  0
CLASS
  1
LAYOUT
  2
AcDbLayout
  3
AutoCAD 2000
 90
    32768
280
     0
281
     0
  0
CLASS
  1
LONG_TRANSACTION
  2
AcDbLongTransaction
  3
AutoCAD 2000
 90
    32768
280
     0
281
     0
  0
CLASS
  1
LWPOLYLINE
  2
AcDbPolyline
  3
AutoCAD 2000
 90
    32768
280
     0
281
     1
  0
CLASS
  1
HATCH
  2
AcDbHatch
  3
AutoCAD 2000
 90
    32768
280
     0
281
     1
  0
CLASS
  1
XRECORD
  2
AcDbXrecord
  3
AutoCAD 2000
 90
    32768
280
     0
281
     0
  0
ENDSEC
  0
SECTION
  2
TABLES
  0
TABLE
  2
VPORT
  5
8
330
0
100
AcDbSymbolTable
 70
     3
  0
VPORT
  5
30B
330
8
100
AcDbSymbolTableRecord
100
AcDbViewportTableRecord
  2
*ACTIVE
 70
     0
 10
0.0
 20
0.0
 11
1.0
 21
1.0
 12
-0.0249933556366102
 22
-0.1500011092469151
 13
0.0
 23
0.0
 14
1.0
 24
1.0
 15
0.0
 25
0.0
 16
0.0
 26
0.0
 36
1.0
 17
0.0
 27
0.0
 37
0.0
 40
192.3185342754043
 41
2.12997347480106
 42
50.0
 43
0.0
 44
0.0
 50
0.0
 51
0.0
 71
     0
 72
   100
 73
     1
 74
     1
 75
     0
 76
     0
 77
     0
 78
     0
  0
ENDTAB
  0
TABLE
  2
LTYPE
  5
5
330
0
100
AcDbSymbolTable
 70
     5
  0
LTYPE
  5
13
330
5
100
AcDbSymbolTableRecord
100
AcDbLinetypeTableRecord
  2
BYBLOCK
 70
     0
  3

 72
    65
 73
     0
 40
0.0
  0
LTYPE
  5
14
330
5
100
AcDbSymbolTableRecord
100
AcDbLinetypeTableRecord
  2
BYLAYER
 70
     0
  3

 72
    65
 73
     0
 40
0.0
  0
LTYPE
  5
15
330
5
100
AcDbSymbolTableRecord
100
AcDbLinetypeTableRecord
  2
CONTINUOUS
 70
     0
  3
Solid-Line
 72
    65
 73
     0
 40
0.0
  0
LTYPE
  5
22
330
5
100
AcDbSymbolTableRecord
100
AcDbLinetypeTableRecord
  2
DASHED
 70
     0
  3
DASHED
 72
    65
 73
     2
 40
0.75
 49
0.5
 74
     0
 49
-0.25
 74
     0
  0
LTYPE
  5
23
330
5
100
AcDbSymbolTableRecord
100
AcDbLinetypeTableRecord
  2
HIDDEN
 70
     0
  3
HIDDEN
 72
    65
 73
     2
 40
0.375
 49
0.25
 74
     0
 49
-0.125
 74
     0
  0
LTYPE
  5
24
330
5
100
AcDbSymbolTableRecord
100
AcDbLinetypeTableRecord
  2
CENTER
 70
     0
  3
CENTER
 72
    65
 73
     4
 40
2.0
 49
1.25
 74
     0
 49
-0.25
 74
     0
 49
0.25
 74
     0
 49
-0.25
 74
     0
  0
LTYPE
  5
25
330
5
100
AcDbSymbolTableRecord
100
AcDbLinetypeTableRecord
  2
PHANTOM
 70
     0
  3
PHANTOM
 72
    65
 73
     6
 40
2.5
 49
1.25
 74
     0
 49
-0.25
 74
     0
 49
0.25
 74
     0
 49
-0.25
 74
     0
 49
0.25
 74
     0
 49
-0.25
 74
     0
  0
ENDTAB
  0
TABLE
  2
LAYER
  5
2
330
0
100
AcDbSymbolTable
 70
     1
  0
LAYER
  5
10
330
2
100
AcDbSymbolTableRecord
100
AcDbLayerTableRecord
  2
0
 70
     0
 62
     7
  6
CONTINUOUS
  0
ENDTAB
  0
TABLE
  2
STYLE
  5
3
330
0
100
AcDbSymbolTable
 70
     3
  0
STYLE
  5
11
330
3
100
AcDbSymbolTableRecord
100
AcDbTextStyleTableRecord
  2
STANDARD
 70
     0
 40
0.0
 41
1.0
 50
0.0
 71
     0
 42
0.2
  3
txt
  4

  0
STYLE
  5
26
330
3
100
AcDbSymbolTableRecord
100
AcDbTextStyleTableRecord
  2
MONOTXT
 70
     0
 40
0.0
 41
1.0
 50
0.0
 71
     0
 42
0.2
  3
monotxt
  4

  0
STYLE
  5
27
330
3
100
AcDbSymbolTableRecord
100
AcDbTextStyleTableRecord
  2
BIGFONT
 70
     0
 40
0.0
 41
1.0
 50
0.0
 71
     0
 42
0.2
  3
txt
  4
bigfont
  0
ENDTAB
  0
TABLE
  2
VIEW
  5
6
330
0
100
AcDbSymbolTable
 70
     0
  0
ENDTAB
  0
TABLE
  2
UCS
  5
7
330
0
100
AcDbSymbolTable
 70
     0
  0
ENDTAB
  0
TABLE
  2
APPID
  5
9
330
0
100
AcDbSymbolTable
 70
     1
  0
APPID
  5
12
330
9
100
AcDbSymbolTableRecord
100
AcDbRegAppTableRecord
  2
ACAD
 70
     0
  0
ENDTAB
  0
TABLE
  2
DIMSTYLE
  5
A
330
0
100
AcDbSymbolTable
 70
     1
  0
DIMSTYLE
105
2D4
330
A
100
AcDbSymbolTableRecord
100
AcDbDimStyleTableRecord
  2
STANDARD
 70
     0
  3

  4

  5

  6

  7

 40
1.0
 41
0.18
 42
0.0625
 43
0.38
 44
0.18
 45
0.0
 46
0.0
 47
0.0
 48
0.0
140
0.18
141
0.09
142
0.0
143
25.4
144
1.0
145
0.0
146
1.0
147
0.09
 71
     0
 72
     0
 73
     1
 74
     1
 75
     0
 76
     0
 77
     0
 78
     0
170
     0
171
     2
172
     0
173
     0
174
     0
175
     0
176
     0
177
     0
178
     0
270
     2
271
     4
272
     4
273
     2
274
     2
340
11
275
     0
280
     0
281
     0
282
     0
283
     1
284
     0
285
     0
286
     0
287
     3
288
     0
  0
ENDTAB
  0
TABLE
  2
BLOCK_RECORD
  5
1
330
0
100
AcDbSymbolTable
 70
     0
  0
BLOCK_RECORD
  5
1E
102
{ACAD_XDICTIONARY
360
30E
102
}
330
1
100
AcDbSymbolTableRecord
100
AcDbBlockTableRecord
  2
*MODEL_SPACE
  0
BLOCK_RECORD
  5
1A
102
{ACAD_XDICTIONARY
360
30C
102
}
330
1
100
AcDbSymbolTableRecord
100
AcDbBlockTableRecord
  2
*PAPER_SPACE
  0
ENDTAB
  0
ENDSEC
  0
SECTION
  2
BLOCKS
  0
BLOCK
  5
1F
330
1E
100
AcDbEntity
  8
0
100
AcDbBlockBegin
  2
*MODEL_SPACE
 70
     0
 10
0.0
 20
0.0
 30
0.0
  3
*MODEL_SPACE
  1

  0
ENDBLK
  5
20
330
1E
100
AcDbEntity
  8
0
100
AcDbBlockEnd
  0
BLOCK
  5
1B
330
1A
100
AcDbEntity
 67
     1
  8
0
100
AcDbBlockBegin
  2
*PAPER_SPACE
 70
     0
 10
0.0
 20
0.0
 30
0.0
  3
*PAPER_SPACE
  1

  0
ENDBLK
  5
1C
330
1A
100
AcDbEntity
 67
     1
  8
0
100
AcDbBlockEnd
  0
ENDSEC
  0
SECTION
  2
ENTITIES
  0
LINE
  5
2C
330
1E
100
AcDbEntity
  8
0
  6
PHANTOM
 62
     6
100
AcDbLine
 10
-100.024994
 20
-76.1500015
 30
0.0
 11
-56.0249939
 21
-76.1500015
 31
0.0
  0
LINE
  5
2D
330
1E
100
AcDbEntity
  8
0
  6
CENTER
 62
     2
100
AcDbLine
 10
-78.0249939
 20
-73.99980129999999
 30
0.0
 11
-78.0249939
 21
-10.4114993
 31
0.0
  0
LINE
  5
2E
330
1E
100
AcDbEntity
  8
0
  6
PHANTOM
 62
     6
100
AcDbLine
 10
-63.0249939
 20
-47.1500015
 30
0.0
 11
-56.0249939
 21
-47.1500015
 31
0.0
  0
LINE
  5
2F
330
1E
100
AcDbEntity
  8
0
  6
PHANTOM
 62
     6
100
AcDbLine
 10
-63.0249939
 20
-63.1500015
 30
0.0
 11
-56.0249939
 21
-63.1500015
 31
0.0
  0
LINE
  5
30
330
1E
100
AcDbEntity
  8
0
  6
PHANTOM
 62
     6
100
AcDbLine
 10
-63.0249939
 20
-49.7472245
 30
0.0
 11
-56.0249939
 21
-49.7472245
 31
0.0
  0
LINE
  5
31
330
1E
100
AcDbEntity
  8
0
  6
PHANTOM
 62
     6
100
AcDbLine
 10
-63.0249939
 20
-51.0530355
 30
0.0
 11
-56.0249939
 21
-51.0530355
 31
0.0
  0
LINE
  5
32
330
1E
100
AcDbEntity
  8
0
  6
PHANTOM
 62
     6
100
AcDbLine
 10
-63.0249939
 20
-60.5527785
 30
0.0
 11
-56.0249939
 21
-60.5527785
 31
0.0
  0
LINE
  5
33
330
1E
100
AcDbEntity
  8
0
  6
PHANTOM
 62
     6
100
AcDbLine
 10
-63.0249939
 20
-59.2469675
 30
0.0
 11
-56.0249939
 21
-59.2469675
 31
0.0
  0
LINE
  5
34
330
1E
100
AcDbEntity
  8
0
  6
PHANTOM
 62
     6
100
AcDbLine
 10
-100.024994
 20
-60.5527785
 30
0.0
 11
-93.02499389999999
 21
-60.5527785
 31
0.0
  0
LINE
  5
35
330
1E
100
AcDbEntity
  8
0
  6
PHANTOM
 62
     6
100
AcDbLine
 10
-100.024994
 20
-49.7472245
 30
0.0
 11
-93.02499389999999
 21
-49.7472245
 31
0.0
  0
LINE
  5
36
330
1E
100
AcDbEntity
  8
0
  6
PHANTOM
 62
     6
100
AcDbLine
 10
-100.024994
 20
-59.2469675
 30
0.0
 11
-93.02499389999999
 21
-59.2469675
 31
0.0
  0
LINE
  5
37
330
1E
100
AcDbEntity
  8
0
  6
PHANTOM
 62
     6
100
AcDbLine
 10
-100.024994
 20
-51.0530355
 30
0.0
 11
-93.02499389999999
 21
-51.0530355
 31
0.0
  0
LINE
  5
38
330
1E
100
AcDbEntity
  8
0
  6
PHANTOM
 62
     6
100
AcDbLine
 10
-63.0249939
 20
-58.1500015
 30
0.0
 11
-56.0249939
 21
-58.1500015
 31
0.0
  0
LINE
  5
39
330
1E
100
AcDbEntity
  8
0
  6
PHANTOM
 62
     6
100
AcDbLine
 10
-63.0249939
 20
-52.1500015
 30
0.0
 11
-56.0249939
 21
-52.1500015
 31
0.0
  0
LINE
  5
3A
330
1E
100
AcDbEntity
  8
0
  6
PHANTOM
 62
     6
100
AcDbLine
 10
-100.024994
 20
-58.1500015
 30
0.0
 11
-93.02499389999999
 21
-58.1500015
 31
0.0
  0
LINE
  5
3B
330
1E
100
AcDbEntity
  8
0
  6
PHANTOM
 62
     6
100
AcDbLine
 10
-100.024994
 20
-52.1500015
 30
0.0
 11
-93.02499389999999
 21
-52.1500015
 31
0.0
  0
LINE
  5
3C
330
1E
100
AcDbEntity
  8
0
  6
PHANTOM
 62
     6
100
AcDbLine
 10
-56.0249939
 20
-47.1500015
 30
0.0
 11
-56.0249939
 21
-52.1500015
 31
0.0
  0
LINE
  5
3D
330
1E
100
AcDbEntity
  8
0
  6
PHANTOM
 62
     6
100
AcDbLine
 10
-100.024994
 20
-47.1500015
 30
0.0
 11
-100.024994
 21
-52.1500015
 31
0.0
  0
LINE
  5
3E
330
1E
100
AcDbEntity
  8
0
  6
PHANTOM
 62
     6
100
AcDbLine
 10
-100.024994
 20
-63.1500015
 30
0.0
 11
-93.02499389999999
 21
-63.1500015
 31
0.0
  0
LINE
  5
3F
330
1E
100
AcDbEntity
  8
0
  6
PHANTOM
 62
     6
100
AcDbLine
 10
-100.024994
 20
-47.1500015
 30
0.0
 11
-93.02499389999999
 21
-47.1500015
 31
0.0
  0
ARC
  5
40
330
1E
100
AcDbEntity
  8
0
 62
     7
100
AcDbCircle
 10
-102.224994
 20
-50.45000149999999
 30
0.0
 40
0.2
100
AcDbArc
 50
90.00000020000001
 51
180.0
  0
ARC
  5
41
330
1E
100
AcDbEntity
  8
0
 62
     7
100
AcDbCircle
 10
-102.224994
 20
-59.85000150000001
 30
0.0
 40
0.2
100
AcDbArc
 50
180.0
 51
270.0
  0
LINE
  5
42
330
1E
100
AcDbEntity
  8
0
  6
DASHED
 62
     2
100
AcDbLine
 10
-102.424994
 20
-52.1500015
 30
0.0
 11
-99.3249939
 21
-52.1500015
 31
0.0
  0
LINE
  5
43
330
1E
100
AcDbEntity
  8
0
  6
DASHED
 62
     2
100
AcDbLine
 10
-102.424994
 20
-58.1500015
 30
0.0
 11
-99.3249939
 21
-58.1500015
 31
0.0
  0
LINE
  5
44
330
1E
100
AcDbEntity
  8
0
 62
     7
100
AcDbLine
 10
-100.3249939999999
 20
-50.6000015
 30
0.0
 11
-99.63217359999999
 21
-50.2000015
 31
0.0
  0
LINE
  5
45
330
1E
100
AcDbEntity
  8
0
 62
     7
100
AcDbLine
 10
-100.3249939999999
 20
-59.7000015
 30
0.0
 11
-99.63217359999999
 21
-60.1000015
 31
0.0
  0
LINE
  5
46
330
1E
100
AcDbEntity
  8
0
 62
     7
100
AcDbLine
 10
-102.424994
 20
-59.85000150000001
 30
0.0
 11
-102.424994
 21
-50.45000149999999
 31
0.0
  0
LINE
  5
47
330
1E
100
AcDbEntity
  8
0
 62
     7
100
AcDbLine
 10
-99.63217359999999
 20
-50.2000015
 30
0.0
 11
-93.02499389999999
 21
-50.2000015
 31
0.0
  0
LINE
  5
48
330
1E
100
AcDbEntity
  8
0
 62
     7
100
AcDbLine
 10
-102.224994
 20
-50.2500015
 30
0.0
 11
-101.424994
 21
-50.2500015
 31
0.0
  0
LINE
  5
49
330
1E
100
AcDbEntity
  8
0
 62
     7
100
AcDbLine
 10
-101.424994
 20
-50.2500015
 30
0.0
 11
-100.9249939999999
 21
-51.11602689999999
 31
0.0
  0
LINE
  5
4A
330
1E
100
AcDbEntity
  8
0
 62
     7
100
AcDbLine
 10
-100.9249939999999
 20
-51.6500015
 30
0.0
 11
-100.3249939999999
 21
-51.6500015
 31
0.0
  0
LINE
  5
4B
330
1E
100
AcDbEntity
  8
0
 62
     7
100
AcDbLine
 10
-101.424994
 20
-50.2500015
 30
0.0
 11
-101.424994
 21
-60.0500015
 31
0.0
  0
LINE
  5
4C
330
1E
100
AcDbEntity
  8
0
 62
     7
100
AcDbLine
 10
-100.9249939999999
 20
-51.11602689999999
 30
0.0
 11
-100.9249939999999
 21
-59.1839761
 31
0.0
  0
LINE
  5
4D
330
1E
100
AcDbEntity
  8
0
 62
     7
100
AcDbLine
 10
-100.3249939999999
 20
-50.6000015
 30
0.0
 11
-100.3249939999999
 21
-59.7000015
 31
0.0
  0
LINE
  5
4E
330
1E
100
AcDbEntity
  8
0
 62
     7
100
AcDbLine
 10
-100.9249939999999
 20
-58.6500015
 30
0.0
 11
-100.3249939999999
 21
-58.6500015
 31
0.0
  0
LINE
  5
4F
330
1E
100
AcDbEntity
  8
0
 62
     7
100
AcDbLine
 10
-101.424994
 20
-60.0500015
 30
0.0
 11
-100.9249939999999
 21
-59.1839761
 31
0.0
  0
LINE
  5
50
330
1E
100
AcDbEntity
  8
0
 62
     7
100
AcDbLine
 10
-102.224994
 20
-60.0500015
 30
0.0
 11
-101.424994
 21
-60.0500015
 31
0.0
  0
LINE
  5
51
330
1E
100
AcDbEntity
  8
0
 62
     7
100
AcDbLine
 10
-99.63217359999999
 20
-60.1000015
 30
0.0
 11
-93.02499389999999
 21
-60.1000015
 31
0.0
  0
LINE
  5
52
330
1E
100
AcDbEntity
  8
0
 62
     7
100
AcDbLine
 10
-56.4178142
 20
-60.1000015
 30
0.0
 11
-63.0249939
 21
-60.1000015
 31
0.0
  0
LINE
  5
53
330
1E
100
AcDbEntity
  8
0
 62
     7
100
AcDbLine
 10
-53.8249939
 20
-60.0500015
 30
0.0
 11
-54.6249939
 21
-60.0500015
 31
0.0
  0
LINE
  5
54
330
1E
100
AcDbEntity
  8
0
 62
     7
100
AcDbLine
 10
-54.6249939
 20
-60.0500015
 30
0.0
 11
-55.1249939
 21
-59.1839761
 31
0.0
  0
LINE
  5
55
330
1E
100
AcDbEntity
  8
0
 62
     7
100
AcDbLine
 10
-55.1249939
 20
-58.6500015
 30
0.0
 11
-55.7249939
 21
-58.6500015
 31
0.0
  0
LINE
  5
56
330
1E
100
AcDbEntity
  8
0
 62
     7
100
AcDbLine
 10
-55.7249939
 20
-50.6000015
 30
0.0
 11
-55.7249939
 21
-59.7000015
 31
0.0
  0
LINE
  5
57
330
1E
100
AcDbEntity
  8
0
 62
     7
100
AcDbLine
 10
-55.1249939
 20
-51.11602689999999
 30
0.0
 11
-55.1249939
 21
-59.1839761
 31
0.0
  0
LINE
  5
58
330
1E
100
AcDbEntity
  8
0
 62
     7
100
AcDbLine
 10
-54.6249939
 20
-50.2500015
 30
0.0
 11
-54.6249939
 21
-60.0500015
 31
0.0
  0
LINE
  5
59
330
1E
100
AcDbEntity
  8
0
 62
     7
100
AcDbLine
 10
-55.1249939
 20
-51.6500015
 30
0.0
 11
-55.7249939
 21
-51.6500015
 31
0.0
  0
LINE
  5
5A
330
1E
100
AcDbEntity
  8
0
 62
     7
100
AcDbLine
 10
-54.6249939
 20
-50.2500015
 30
0.0
 11
-55.1249939
 21
-51.11602689999999
 31
0.0
  0
LINE
  5
5B
330
1E
100
AcDbEntity
  8
0
 62
     7
100
AcDbLine
 10
-53.8249939
 20
-50.2500015
 30
0.0
 11
-54.6249939
 21
-50.2500015
 31
0.0
  0
LINE
  5
5C
330
1E
100
AcDbEntity
  8
0
 62
     7
100
AcDbLine
 10
-56.4178142
 20
-50.2000015
 30
0.0
 11
-63.0249939
 21
-50.2000015
 31
0.0
  0
LINE
  5
5D
330
1E
100
AcDbEntity
  8
0
 62
     7
100
AcDbLine
 10
-53.62499389999999
 20
-59.85000150000001
 30
0.0
 11
-53.62499389999999
 21
-50.45000149999999
 31
0.0
  0
LINE
  5
5E
330
1E
100
AcDbEntity
  8
0
 62
     7
100
AcDbLine
 10
-55.7249939
 20
-59.7000015
 30
0.0
 11
-56.4178142
 21
-60.1000015
 31
0.0
  0
LINE
  5
5F
330
1E
100
AcDbEntity
  8
0
 62
     7
100
AcDbLine
 10
-55.7249939
 20
-50.6000015
 30
0.0
 11
-56.4178142
 21
-50.2000015
 31
0.0
  0
LINE
  5
60
330
1E
100
AcDbEntity
  8
0
  6
DASHED
 62
     2
100
AcDbLine
 10
-53.62499389999999
 20
-58.1500015
 30
0.0
 11
-56.7249939
 21
-58.1500015
 31
0.0
  0
LINE
  5
61
330
1E
100
AcDbEntity
  8
0
  6
DASHED
 62
     2
100
AcDbLine
 10
-53.62499389999999
 20
-52.1500015
 30
0.0
 11
-56.7249939
 21
-52.1500015
 31
0.0
  0
ARC
  5
62
330
1E
100
AcDbEntity
  8
0
 62
     7
100
AcDbCircle
 10
-53.8249939
 20
-59.85000150000001
 30
0.0
 40
0.2
100
AcDbArc
 50
270.0
 51
0.0
  0
ARC
  5
63
330
1E
100
AcDbEntity
  8
0
 62
     7
100
AcDbCircle
 10
-53.8249939
 20
-50.45000149999999
 30
0.0
 40
0.2
100
AcDbArc
 50
0.0
 51
90.00000020000001
  0
LINE
  5
64
330
1E
100
AcDbEntity
  8
0
 62
     7
100
AcDbLine
 10
-86.0249939
 20
-30.1500015
 30
0.0
 11
-70.0249939
 21
-30.1500015
 31
0.0
  0
LINE
  5
65
330
1E
100
AcDbEntity
  8
0
 62
     7
100
AcDbLine
 10
-84.27499389999999
 20
-30.1500015
 30
0.0
 11
-84.27499389999999
 21
-27.4500015
 31
0.0
  0
LINE
  5
66
330
1E
100
AcDbEntity
  8
0
 62
     7
100
AcDbLine
 10
-71.7749939
 20
-30.1500015
 30
0.0
 11
-71.7749939
 21
-27.4500015
 31
0.0
  0
LINE
  5
67
330
1E
100
AcDbEntity
  8
0
 62
     7
100
AcDbLine
 10
-69.9749939
 20
-27.4500015
 30
0.0
 11
-86.07499389999999
 21
-27.4500015
 31
0.0
  0
LINE
  5
68
330
1E
100
AcDbEntity
  8
0
 62
     7
100
AcDbLine
 10
-69.7749939
 20
-27.2500015
 30
0.0
 11
-69.9749939
 21
-27.4500015
 31
0.0
  0
LINE
  5
69
330
1E
100
AcDbEntity
  8
0
 62
     7
100
AcDbLine
 10
-84.7581665
 20
-12.4500015
 30
0.0
 11
-71.3286372
 21
-12.4500015
 31
0.0
  0
LINE
  5
6A
330
1E
100
AcDbEntity
  8
0
 62
     7
100
AcDbLine
 10
-86.2749939
 20
-27.2500015
 30
0.0
 11
-86.07499389999999
 21
-27.4500015
 31
0.0
  0
LINE
  5
6B
330
1E
100
AcDbEntity
  8
0
 62
     7
100
AcDbLine
 10
-86.2749939
 20
-27.2500015
 30
0.0
 11
-85.79435090000002
 21
-13.4861859
 31
0.0
  0
LINE
  5
6C
330
1E
100
AcDbEntity
  8
0
 62
     7
100
AcDbLine
 10
-69.7749939
 20
-27.2500015
 30
0.0
 11
-70.2569218
 21
-13.4493924
 31
0.0
  0
LINE
  5
6D
330
1E
100
AcDbEntity
  8
0
 62
     7
100
AcDbLine
 10
-70.2569218
 20
-13.4493924
 30
0.0
 11
-71.3286372
 21
-12.4500015
 31
0.0
  0
LINE
  5
6E
330
1E
100
AcDbEntity
  8
0
 62
     7
100
AcDbLine
 10
-84.7581665
 20
-12.4500015
 30
0.0
 11
-85.79435090000002
 21
-13.4861859
 31
0.0
  0
ARC
  5
6F
330
1E
100
AcDbEntity
  8
0
 62
     7
100
AcDbCircle
 10
-66.0249939
 20
-43.1500015
 30
0.0
 40
0.5
100
AcDbArc
 50
180.0
 51
270.0
  0
ARC
  5
70
330
1E
100
AcDbEntity
  8
0
 62
     7
100
AcDbCircle
 10
-90.0249939
 20
-43.1500015
 30
0.0
 40
0.5
100
AcDbArc
 50
270.0
 51
0.0
  0
ARC
  5
71
330
1E
100
AcDbEntity
  8
0
 62
     7
100
AcDbCircle
 10
-64.0249939
 20
-44.6500015
 30
0.0
 40
1.0
100
AcDbArc
 50
0.0
 51
90.00000020000001
  0
ARC
  5
72
330
1E
100
AcDbEntity
  8
0
 62
     7
100
AcDbCircle
 10
-92.02499389999999
 20
-44.6500015
 30
0.0
 40
1.0
100
AcDbArc
 50
90.00000020000001
 51
180.0
  0
LINE
  5
73
330
1E
100
AcDbEntity
  8
0
 62
     7
100
AcDbLine
 10
-64.0249939
 20
-43.6500015
 30
0.0
 11
-66.0249939
 21
-43.6500015
 31
0.0
  0
LINE
  5
74
330
1E
100
AcDbEntity
  8
0
 62
     7
100
AcDbLine
 10
-92.02499389999999
 20
-43.6500015
 30
0.0
 11
-90.0249939
 21
-43.6500015
 31
0.0
  0
ARC
  5
75
330
1E
100
AcDbEntity
  8
0
 62
     7
100
AcDbCircle
 10
-92.02499389999999
 20
-65.6500015
 30
0.0
 40
1.0
100
AcDbArc
 50
180.0
 51
270.0
  0
ARC
  5
76
330
1E
100
AcDbEntity
  8
0
 62
     7
100
AcDbCircle
 10
-64.0249939
 20
-65.6500015
 30
0.0
 40
1.0
100
AcDbArc
 50
270.0
 51
0.0
  0
LINE
  5
77
330
1E
100
AcDbEntity
  8
0
 62
     7
100
AcDbLine
 10
-91.6249939
 20
-45.35000150000001
 30
0.0
 11
-88.4249939
 21
-45.35000150000001
 31
0.0
  0
LINE
  5
78
330
1E
100
AcDbEntity
  8
0
 62
     7
100
AcDbLine
 10
-64.4249939
 20
-45.35000150000001
 30
0.0
 11
-67.62499390000001
 21
-45.35000150000001
 31
0.0
  0
LINE
  5
79
330
1E
100
AcDbEntity
  8
0
 62
     7
100
AcDbLine
 10
-89.52499389999999
 20
-39.1500015
 30
0.0
 11
-66.5249939
 21
-39.1500015
 31
0.0
  0
LINE
  5
7A
330
1E
100
AcDbEntity
  8
0
 62
     7
100
AcDbLine
 10
-89.52499389999999
 20
-71.1500015
 30
0.0
 11
-89.52499389999999
 21
-67.1500015
 31
0.0
  0
ARC
  5
7B
330
1E
100
AcDbEntity
  8
0
 62
     7
100
AcDbCircle
 10
-88.5249939
 20
-38.6500015
 30
0.0
 40
1.0
100
AcDbArc
 50
90.00000020000001
 51
180.0
  0
LINE
  5
7C
330
1E
100
AcDbEntity
  8
0
 62
     7
100
AcDbLine
 10
-88.5249939
 20
-37.6500015
 30
0.0
 11
-67.5249939
 21
-37.6500015
 31
0.0
  0
LINE
  5
7D
330
1E
100
AcDbEntity
  8
0
 62
     7
100
AcDbLine
 10
-66.5249939
 20
-71.1500015
 30
0.0
 11
-66.5249939
 21
-67.1500015
 31
0.0
  0
ARC
  5
7E
330
1E
100
AcDbEntity
  8
0
 62
     7
100
AcDbCircle
 10
-67.5249939
 20
-38.6500015
 30
0.0
 40
1.0
100
AcDbArc
 50
0.0
 51
90.00000020000001
  0
LINE
  5
7F
330
1E
100
AcDbEntity
  8
0
  6
CENTER
 62
     2
100
AcDbLine
 10
-104.08063
 20
-55.1500015
 30
0.0
 11
-51.94174249999999
 21
-55.1500015
 31
0.0
  0
LINE
  5
80
330
1E
100
AcDbEntity
  8
0
 62
     7
100
AcDbLine
 10
-92.02499389999999
 20
-66.6500015
 30
0.0
 11
-90.0249939
 21
-66.6500015
 31
0.0
  0
LINE
  5
81
330
1E
100
AcDbEntity
  8
0
 62
     7
100
AcDbLine
 10
-89.52499389999999
 20
-43.1500015
 30
0.0
 11
-89.52499389999999
 21
-39.1500015
 31
0.0
  0
LINE
  5
82
330
1E
100
AcDbEntity
  8
0
  6
PHANTOM
 62
     6
100
AcDbLine
 10
-93.02499389999999
 20
-66.75000149999999
 30
0.0
 11
-93.02499389999999
 21
-65.6500015
 31
0.0
  0
LINE
  5
83
330
1E
100
AcDbEntity
  8
0
  6
PHANTOM
 62
     6
100
AcDbLine
 10
-63.0249939
 20
-66.75000149999999
 30
0.0
 11
-63.0249939
 21
-65.6500015
 31
0.0
  0
LINE
  5
84
330
1E
100
AcDbEntity
  8
0
 62
     7
100
AcDbLine
 10
-64.0249939
 20
-66.6500015
 30
0.0
 11
-66.0249939
 21
-66.6500015
 31
0.0
  0
LINE
  5
85
330
1E
100
AcDbEntity
  8
0
 62
     7
100
AcDbLine
 10
-66.5249939
 20
-43.1500015
 30
0.0
 11
-66.5249939
 21
-39.1500015
 31
0.0
  0
LINE
  5
86
330
1E
100
AcDbEntity
  8
0
 62
     7
100
AcDbLine
 10
-89.52499389999999
 20
-71.1500015
 30
0.0
 11
-66.5249939
 21
-71.1500015
 31
0.0
  0
LINE
  5
87
330
1E
100
AcDbEntity
  8
0
 62
     7
100
AcDbLine
 10
-89.52499389999999
 20
-71.1500015
 30
0.0
 11
-89.52499389999999
 21
-71.6500015
 31
0.0
  0
LINE
  5
88
330
1E
100
AcDbEntity
  8
0
 62
     7
100
AcDbLine
 10
-66.5249939
 20
-71.1500015
 30
0.0
 11
-66.5249939
 21
-71.6500015
 31
0.0
  0
ARC
  5
89
330
1E
100
AcDbEntity
  8
0
 62
     7
100
AcDbCircle
 10
-90.0249939
 20
-46.9500015
 30
0.0
 40
1.6
100
AcDbArc
 50
180.0
 51
0.0
  0
LINE
  5
8A
330
1E
100
AcDbEntity
  8
0
 62
     7
100
AcDbLine
 10
-91.6249939
 20
-46.9500015
 30
0.0
 11
-91.6249939
 21
-45.35000150000001
 31
0.0
  0
LINE
  5
8B
330
1E
100
AcDbEntity
  8
0
 62
     7
100
AcDbLine
 10
-88.4249939
 20
-46.9500015
 30
0.0
 11
-88.4249939
 21
-45.35000150000001
 31
0.0
  0
LINE
  5
8C
330
1E
100
AcDbEntity
  8
0
  6
CENTER
 62
     2
100
AcDbLine
 10
-92.5107902
 20
-46.9500015
 30
0.0
 11
-87.50742719999999
 21
-46.9500015
 31
0.0
  0
LINE
  5
8D
330
1E
100
AcDbEntity
  8
0
  6
CENTER
 62
     2
100
AcDbLine
 10
-90.0249939
 20
-49.4352594
 30
0.0
 11
-90.0249939
 21
-44.6382206
 31
0.0
  0
LINE
  5
8E
330
1E
100
AcDbEntity
  8
0
 62
     7
100
AcDbLine
 10
-64.4249939
 20
-46.9500015
 30
0.0
 11
-64.4249939
 21
-45.35000150000001
 31
0.0
  0
LINE
  5
8F
330
1E
100
AcDbEntity
  8
0
  6
CENTER
 62
     2
100
AcDbLine
 10
-63.6391976
 20
-46.9500015
 30
0.0
 11
-68.64256059999999
 21
-46.9500015
 31
0.0
  0
LINE
  5
90
330
1E
100
AcDbEntity
  8
0
  6
CENTER
 62
     2
100
AcDbLine
 10
-66.0249939
 20
-49.4352594
 30
0.0
 11
-66.0249939
 21
-44.6382206
 31
0.0
  0
LINE
  5
91
330
1E
100
AcDbEntity
  8
0
 62
     7
100
AcDbLine
 10
-67.62499390000001
 20
-46.9500015
 30
0.0
 11
-67.62499390000001
 21
-45.35000150000001
 31
0.0
  0
ARC
  5
92
330
1E
100
AcDbEntity
  8
0
 62
     7
100
AcDbCircle
 10
-66.0249939
 20
-46.9500015
 30
0.0
 40
1.6
100
AcDbArc
 50
180.0
 51
0.0
  0
LINE
  5
93
330
1E
100
AcDbEntity
  8
0
 62
     7
100
AcDbLine
 10
-86.0249939
 20
-30.6500015
 30
0.0
 11
-70.0249939
 21
-30.6500015
 31
0.0
  0
LINE
  5
94
330
1E
100
AcDbEntity
  8
0
 62
     7
100
AcDbLine
 10
-86.0249939
 20
-37.1500015
 30
0.0
 11
-70.0249939
 21
-37.1500015
 31
0.0
  0
LINE
  5
95
330
1E
100
AcDbEntity
  8
0
 62
     7
100
AcDbLine
 10
-66.5249939
 20
-39.1500015
 30
0.0
 11
-66.5249939
 21
-38.6500015
 31
0.0
  0
LINE
  5
96
330
1E
100
AcDbEntity
  8
0
 62
     7
100
AcDbLine
 10
-89.52499389999999
 20
-39.1500015
 30
0.0
 11
-89.52499389999999
 21
-38.6500015
 31
0.0
  0
LINE
  5
97
330
1E
100
AcDbEntity
  8
0
  6
PHANTOM
 62
     6
100
AcDbLine
 10
-90.0249939
 20
-34.9500015
 30
0.0
 11
-90.0249939
 21
-30.9500015
 31
0.0
  0
LINE
  5
98
330
1E
100
AcDbEntity
  8
0
  6
PHANTOM
 62
     6
100
AcDbLine
 10
-90.0249939
 20
-30.9500015
 30
0.0
 11
-66.0249939
 21
-30.9500015
 31
0.0
  0
ARC
  5
99
330
1E
100
AcDbEntity
  8
0
  6
PHANTOM
 62
     6
100
AcDbCircle
 10
-86.5102753
 20
-42.05584199999999
 30
0.0
 40
11.1058404
100
AcDbArc
 50
71.55013120000001
 51
108.4498689999999
  0
ARC
  5
9A
330
1E
100
AcDbEntity
  8
0
  6
PHANTOM
 62
     6
100
AcDbCircle
 10
-86.5102753
 20
-23.8441611
 30
0.0
 40
11.1058404
100
AcDbArc
 50
251.550131
 51
288.449869
  0
LINE
  5
9B
330
1E
100
AcDbEntity
  8
0
  6
PHANTOM
 62
     6
100
AcDbLine
 10
-90.0249939
 20
-34.9500015
 30
0.0
 11
-66.0249939
 21
-34.9500015
 31
0.0
  0
LINE
  5
9C
330
1E
100
AcDbEntity
  8
0
  6
PHANTOM
 62
     6
100
AcDbLine
 10
-82.99555670000001
 20
-34.3791715
 30
0.0
 11
-82.99555670000001
 21
-31.5208315
 31
0.0
  0
ARC
  5
9D
330
1E
100
AcDbEntity
  8
0
  6
PHANTOM
 62
     6
100
AcDbCircle
 10
-78.0249939
 20
-52.8762676
 30
0.0
 40
21.9262661
100
AcDbArc
 50
76.8974621
 51
103.1025379999999
  0
ARC
  5
9E
330
1E
100
AcDbEntity
  8
0
  6
PHANTOM
 62
     6
100
AcDbCircle
 10
-78.0249939
 20
-13.02373549999999
 30
0.0
 40
21.9262661
100
AcDbArc
 50
256.897462
 51
283.1025369999999
  0
LINE
  5
9F
330
1E
100
AcDbEntity
  8
0
  6
PHANTOM
 62
     6
100
AcDbLine
 10
-73.05443120000001
 20
-34.3791715
 30
0.0
 11
-73.05443120000001
 21
-31.5208315
 31
0.0
  0
ARC
  5
A0
330
1E
100
AcDbEntity
  8
0
  6
PHANTOM
 62
     6
100
AcDbCircle
 10
-69.53971249999999
 20
-42.0558422
 30
0.0
 40
11.1058406
100
AcDbArc
 50
71.55013120000001
 51
108.4498689999999
  0
ARC
  5
A1
330
1E
100
AcDbEntity
  8
0
  6
PHANTOM
 62
     6
100
AcDbCircle
 10
-69.53971249999999
 20
-23.84416089999999
 30
0.0
 40
11.1058406
100
AcDbArc
 50
251.550131
 51
288.449869
  0
LINE
  5
A2
330
1E
100
AcDbEntity
  8
0
  6
PHANTOM
 62
     6
100
AcDbLine
 10
-66.0249939
 20
-34.9500015
 30
0.0
 11
-66.0249939
 21
-30.9500015
 31
0.0
  0
LINE
  5
A3
330
1E
100
AcDbEntity
  8
0
 62
     7
100
AcDbLine
 10
-78.0249939
 20
-68.1500015
 30
0.0
 11
-74.52499389999999
 21
-67.8437912
 31
0.0
  0
LINE
  5
A4
330
1E
100
AcDbEntity
  8
0
 62
     7
100
AcDbLine
 10
-74.52499389999999
 20
-67.8437912
 30
0.0
 11
-74.52499389999999
 21
-65.1500015
 31
0.0
  0
LINE
  5
A5
330
1E
100
AcDbEntity
  8
0
 62
     7
100
AcDbLine
 10
-81.5249939
 20
-68.1500015
 30
0.0
 11
-81.5249939
 21
-65.1500015
 31
0.0
  0
LINE
  5
A6
330
1E
100
AcDbEntity
  8
0
 62
     7
100
AcDbLine
 10
-81.5249939
 20
-65.1500015
 30
0.0
 11
-74.52499389999999
 21
-65.1500015
 31
0.0
  0
LINE
  5
A7
330
1E
100
AcDbEntity
  8
0
 62
     7
100
AcDbLine
 10
-83.3249939
 20
-68.1500015
 30
0.0
 11
-83.3249939
 21
-64.75000149999999
 31
0.0
  0
LINE
  5
A8
330
1E
100
AcDbEntity
  8
0
 62
     7
100
AcDbLine
 10
-74.4249939
 20
-68.1500015
 30
0.0
 11
-74.4249939
 21
-64.75000149999999
 31
0.0
  0
LINE
  5
A9
330
1E
100
AcDbEntity
  8
0
 62
     7
100
AcDbLine
 10
-83.3249939
 20
-64.75000149999999
 30
0.0
 11
-74.4249939
 21
-64.75000149999999
 31
0.0
  0
LINE
  5
AA
330
1E
100
AcDbEntity
  8
0
 62
     7
100
AcDbLine
 10
-83.3249939
 20
-68.1500015
 30
0.0
 11
-74.4249939
 21
-68.1500015
 31
0.0
  0
LINE
  5
AB
330
1E
100
AcDbEntity
  8
0
 62
     7
100
AcDbLine
 10
-78.0249939
 20
-42.1500015
 30
0.0
 11
-81.5249939
 21
-42.45621179999999
 31
0.0
  0
LINE
  5
AC
330
1E
100
AcDbEntity
  8
0
 62
     7
100
AcDbLine
 10
-74.52499389999999
 20
-45.1500015
 30
0.0
 11
-74.52499389999999
 21
-42.1500015
 31
0.0
  0
LINE
  5
AD
330
1E
100
AcDbEntity
  8
0
 62
     7
100
AcDbLine
 10
-81.5249939
 20
-45.1500015
 30
0.0
 11
-81.5249939
 21
-42.45621179999999
 31
0.0
  0
LINE
  5
AE
330
1E
100
AcDbEntity
  8
0
 62
     7
100
AcDbLine
 10
-81.6249939
 20
-45.5500015
 30
0.0
 11
-81.6249939
 21
-42.1500015
 31
0.0
  0
LINE
  5
AF
330
1E
100
AcDbEntity
  8
0
 62
     7
100
AcDbLine
 10
-72.7249939
 20
-45.5500015
 30
0.0
 11
-72.7249939
 21
-42.1500015
 31
0.0
  0
LINE
  5
B0
330
1E
100
AcDbEntity
  8
0
 62
     7
100
AcDbLine
 10
-81.6249939
 20
-42.1500015
 30
0.0
 11
-72.7249939
 21
-42.1500015
 31
0.0
  0
LINE
  5
B1
330
1E
100
AcDbEntity
  8
0
 62
     7
100
AcDbLine
 10
-81.5249939
 20
-45.1500015
 30
0.0
 11
-74.52499389999999
 21
-45.1500015
 31
0.0
  0
LINE
  5
B2
330
1E
100
AcDbEntity
  8
0
 62
     7
100
AcDbLine
 10
-72.7249939
 20
-45.5500015
 30
0.0
 11
-81.6249939
 21
-45.5500015
 31
0.0
  0
CIRCLE
  5
B3
330
1E
100
AcDbEntity
  8
0
 62
     2
100
AcDbCircle
 10
-78.0249939
 20
-55.1500015
 30
0.0
 40
4.86399937
  0
CIRCLE
  5
B4
330
1E
100
AcDbEntity
  8
0
 62
     7
100
AcDbCircle
 10
-78.0249939
 20
-55.1500015
 30
0.0
 40
4.27799988
  0
CIRCLE
  5
B5
330
1E
100
AcDbEntity
  8
0
 62
     7
100
AcDbCircle
 10
-78.0249939
 20
-55.1500015
 30
0.0
 40
3.0
  0
LINE
  5
B6
330
1E
100
AcDbEntity
  8
0
 62
     7
100
AcDbLine
 10
-79.22499379999999
 20
-25.9500015
 30
0.0
 11
-79.22499379999999
 21
-12.6039583
 31
0.0
  0
LINE
  5
B7
330
1E
100
AcDbEntity
  8
0
 62
     7
100
AcDbLine
 10
-76.8249938
 20
-25.9500015
 30
0.0
 11
-76.8249938
 21
-12.6039583
 31
0.0
  0
LINE
  5
B8
330
1E
100
AcDbEntity
  8
0
 62
     7
100
AcDbLine
 10
-79.22499379999999
 20
-12.6039583
 30
0.0
 11
-76.8249938
 21
-12.6039583
 31
0.0
  0
LINE
  5
B9
330
1E
100
AcDbEntity
  8
0
 62
     7
100
AcDbLine
 10
-83.8228048
 20
-13.4861859
 30
0.0
 11
-79.650368
 21
-13.4861859
 31
0.0
  0
LINE
  5
BA
330
1E
100
AcDbEntity
  8
0
 62
     7
100
AcDbLine
 10
-79.22499379999999
 20
-12.6039583
 30
0.0
 11
-79.650368
 21
-13.4861859
 31
0.0
  0
LINE
  5
BB
330
1E
100
AcDbEntity
  8
0
 62
     7
100
AcDbLine
 10
-79.87082359999999
 20
-26.7542793
 30
0.0
 11
-76.17916409999999
 21
-26.7542793
 31
0.0
  0
LINE
  5
BC
330
1E
100
AcDbEntity
  8
0
 62
     7
100
AcDbLine
 10
-79.650368
 20
-13.4861859
 30
0.0
 11
-79.87082359999999
 21
-26.7542793
 31
0.0
  0
LINE
  5
BD
330
1E
100
AcDbEntity
  8
0
 62
     7
100
AcDbLine
 10
-76.8249938
 20
-12.6039583
 30
0.0
 11
-76.3996197
 21
-13.4861859
 31
0.0
  0
LINE
  5
BE
330
1E
100
AcDbEntity
  8
0
 62
     7
100
AcDbLine
 10
-76.3996197
 20
-13.4861859
 30
0.0
 11
-76.17916409999999
 21
-26.7542793
 31
0.0
  0
LINE
  5
BF
330
1E
100
AcDbEntity
  8
0
 62
     7
100
AcDbLine
 10
-79.22499379999999
 20
-25.9500015
 30
0.0
 11
-76.8249938
 21
-25.9500015
 31
0.0
  0
LINE
  5
C0
330
1E
100
AcDbEntity
  8
0
 62
     7
100
AcDbLine
 10
-84.59743059999999
 20
-12.6039583
 30
0.0
 11
-83.39743059999999
 21
-12.6039583
 31
0.0
  0
LINE
  5
C1
330
1E
100
AcDbEntity
  8
0
 62
     7
100
AcDbLine
 10
-84.59743059999999
 20
-12.6039583
 30
0.0
 11
-85.44817890000002
 21
-13.4861859
 31
0.0
  0
LINE
  5
C2
330
1E
100
AcDbEntity
  8
0
 62
     7
100
AcDbLine
 10
-83.39743059999999
 20
-12.6039583
 30
0.0
 11
-83.82280470000001
 21
-13.4861859
 31
0.0
  0
LINE
  5
C3
330
1E
100
AcDbEntity
  8
0
 62
     7
100
AcDbLine
 10
-85.8890901
 20
-26.7542793
 30
0.0
 11
-84.0432603
 21
-26.7542793
 31
0.0
  0
LINE
  5
C4
330
1E
100
AcDbEntity
  8
0
 62
     7
100
AcDbLine
 10
-84.9661339
 20
-25.9500015
 30
0.0
 11
-84.0298969
 21
-25.9500015
 31
0.0
  0
LINE
  5
C5
330
1E
100
AcDbEntity
  8
0
 62
     7
100
AcDbLine
 10
-83.82280470000001
 20
-13.4861859
 30
0.0
 11
-84.0432603
 21
-26.7542793
 31
0.0
  0
LINE
  5
C6
330
1E
100
AcDbEntity
  8
0
 62
     7
100
AcDbLine
 10
-85.44817890000002
 20
-13.4861859
 30
0.0
 11
-85.8890901
 21
-26.7542793
 31
0.0
  0
LINE
  5
C7
330
1E
100
AcDbEntity
  8
0
 62
     7
100
AcDbLine
 10
-84.59743059999999
 20
-12.6039583
 30
0.0
 11
-84.9661339
 21
-25.9500015
 31
0.0
  0
LINE
  5
C8
330
1E
100
AcDbEntity
  8
0
 62
     7
100
AcDbLine
 10
-85.79435090000002
 20
-13.4861859
 30
0.0
 11
-85.44817890000002
 21
-13.4861859
 31
0.0
  0
LINE
  5
C9
330
1E
100
AcDbEntity
  8
0
 62
     7
100
AcDbLine
 10
-72.227183
 20
-13.4861859
 30
0.0
 11
-76.39961979999999
 21
-13.4861859
 31
0.0
  0
LINE
  5
CA
330
1E
100
AcDbEntity
  8
0
 62
     7
100
AcDbLine
 10
-71.4525572
 20
-12.6039583
 30
0.0
 11
-70.60180890000001
 21
-13.4861859
 31
0.0
  0
LINE
  5
CB
330
1E
100
AcDbEntity
  8
0
 62
     7
100
AcDbLine
 10
-72.6525572
 20
-12.6039583
 30
0.0
 11
-72.22718309999999
 21
-13.4861859
 31
0.0
  0
LINE
  5
CC
330
1E
100
AcDbEntity
  8
0
 62
     7
100
AcDbLine
 10
-70.1608977
 20
-26.7542793
 30
0.0
 11
-72.00672749999999
 21
-26.7542793
 31
0.0
  0
LINE
  5
CD
330
1E
100
AcDbEntity
  8
0
 62
     7
100
AcDbLine
 10
-70.60180890000001
 20
-13.4861859
 30
0.0
 11
-70.1608977
 21
-26.7542793
 31
0.0
  0
LINE
  5
CE
330
1E
100
AcDbEntity
  8
0
 62
     7
100
AcDbLine
 10
-71.4525572
 20
-12.6039583
 30
0.0
 11
-71.08385390000001
 21
-25.9500015
 31
0.0
  0
LINE
  5
CF
330
1E
100
AcDbEntity
  8
0
 62
     7
100
AcDbLine
 10
-70.25563690000002
 20
-13.4861859
 30
0.0
 11
-70.60180890000001
 21
-13.4861859
 31
0.0
  0
LINE
  5
D0
330
1E
100
AcDbEntity
  8
0
 62
     7
100
AcDbLine
 10
-72.22718309999999
 20
-13.4861859
 30
0.0
 11
-72.00672749999999
 21
-26.7542793
 31
0.0
  0
LINE
  5
D1
330
1E
100
AcDbEntity
  8
0
 62
     7
100
AcDbLine
 10
-71.08385390000001
 20
-25.9500015
 30
0.0
 11
-72.02009090000001
 21
-25.9500015
 31
0.0
  0
LINE
  5
D2
330
1E
100
AcDbEntity
  8
0
 62
     7
100
AcDbLine
 10
-71.4525572
 20
-12.6039583
 30
0.0
 11
-72.6525572
 21
-12.6039583
 31
0.0
  0
LINE
  5
D3
330
1E
100
AcDbEntity
  8
0
 62
     7
100
AcDbLine
 10
-86.2749939
 20
-27.2500015
 30
0.0
 11
-69.7749939
 21
-27.2500015
 31
0.0
  0
LINE
  5
D4
330
1E
100
AcDbEntity
  8
0
 62
     7
100
AcDbLine
 10
-88.5249939
 20
-72.6500015
 30
0.0
 11
-67.5249939
 21
-72.6500015
 31
0.0
  0
ARC
  5
D5
330
1E
100
AcDbEntity
  8
0
 62
     7
100
AcDbCircle
 10
-88.5249939
 20
-71.6500015
 30
0.0
 40
1.0
100
AcDbArc
 50
180.0
 51
270.0
  0
ARC
  5
D6
330
1E
100
AcDbEntity
  8
0
 62
     7
100
AcDbCircle
 10
-67.5249939
 20
-71.6500015
 30
0.0
 40
1.0
100
AcDbArc
 50
270.0
 51
0.0
  0
LINE
  5
D7
330
1E
100
AcDbEntity
  8
0
  6
PHANTOM
 62
     6
100
AcDbLine
 10
-89.52499389999999
 20
-73.1500015
 30
0.0
 11
-66.5249939
 21
-73.1500015
 31
0.0
  0
LINE
  5
D8
330
1E
100
AcDbEntity
  8
0
  6
PHANTOM
 62
     6
100
AcDbLine
 10
-93.02499389999999
 20
-66.75000149999999
 30
0.0
 11
-90.0249939
 21
-66.75000149999999
 31
0.0
  0
LINE
  5
D9
330
1E
100
AcDbEntity
  8
0
  6
PHANTOM
 62
     6
100
AcDbLine
 10
-63.0249939
 20
-66.75000149999999
 30
0.0
 11
-66.0249939
 21
-66.75000149999999
 31
0.0
  0
LINE
  5
DA
330
1E
100
AcDbEntity
  8
0
  6
PHANTOM
 62
     6
100
AcDbLine
 10
-90.0249939
 20
-66.75000149999999
 30
0.0
 11
-89.52499389999999
 21
-67.25000149999999
 31
0.0
  0
LINE
  5
DB
330
1E
100
AcDbEntity
  8
0
  6
PHANTOM
 62
     6
100
AcDbLine
 10
-66.0249939
 20
-66.75000149999999
 30
0.0
 11
-66.5249939
 21
-67.25000149999999
 31
0.0
  0
LINE
  5
DC
330
1E
100
AcDbEntity
  8
0
 62
     7
100
AcDbLine
 10
-63.0249939
 20
-65.6500015
 30
0.0
 11
-63.0249939
 21
-44.6500015
 31
0.0
  0
LINE
  5
DD
330
1E
100
AcDbEntity
  8
0
 62
     7
100
AcDbLine
 10
-93.02499389999999
 20
-65.6500015
 30
0.0
 11
-93.02499389999999
 21
-44.6500015
 31
0.0
  0
LINE
  5
DE
330
1E
100
AcDbEntity
  8
0
 62
     7
100
AcDbLine
 10
-71.08385390000001
 20
-25.9500015
 30
0.0
 11
-70.1608977
 21
-26.7542793
 31
0.0
  0
LINE
  5
DF
330
1E
100
AcDbEntity
  8
0
 62
     7
100
AcDbLine
 10
-76.8249938
 20
-25.9500015
 30
0.0
 11
-76.17916409999999
 21
-26.7542793
 31
0.0
  0
LINE
  5
E0
330
1E
100
AcDbEntity
  8
0
 62
     7
100
AcDbLine
 10
-79.22499379999999
 20
-25.9500015
 30
0.0
 11
-79.87082359999999
 21
-26.7542793
 31
0.0
  0
LINE
  5
E1
330
1E
100
AcDbEntity
  8
0
 62
     7
100
AcDbLine
 10
-84.9661339
 20
-25.9500015
 30
0.0
 11
-85.8890901
 21
-26.7542793
 31
0.0
  0
ARC
  5
E2
330
1E
100
AcDbEntity
  8
0
 62
     7
100
AcDbCircle
 10
-90.0249939
 20
-67.1500015
 30
0.0
 40
0.5
100
AcDbArc
 50
0.0
 51
90.00000020000001
  0
ARC
  5
E3
330
1E
100
AcDbEntity
  8
0
 62
     7
100
AcDbCircle
 10
-66.0249939
 20
-67.1500015
 30
0.0
 40
0.5
100
AcDbArc
 50
90.00000020000001
 51
180.0
  0
LINE
  5
E4
330
1E
100
AcDbEntity
  8
0
 62
     7
100
AcDbLine
 10
-65.2249939
 20
-54.1500015
 30
0.0
 11
-65.2249939
 21
-52.1500015
 31
0.0
  0
LINE
  5
E5
330
1E
100
AcDbEntity
  8
0
 62
     7
100
AcDbLine
 10
-65.2249939
 20
-54.1500015
 30
0.0
 11
-63.0249939
 21
-54.1500015
 31
0.0
  0
LINE
  5
E6
330
1E
100
AcDbEntity
  8
0
 62
     7
100
AcDbLine
 10
-65.2249939
 20
-56.1500015
 30
0.0
 11
-63.0249939
 21
-56.1500015
 31
0.0
  0
LINE
  5
E7
330
1E
100
AcDbEntity
  8
0
 62
     7
100
AcDbLine
 10
-65.2249939
 20
-58.1500015
 30
0.0
 11
-65.2249939
 21
-56.1500015
 31
0.0
  0
LINE
  5
E8
330
1E
100
AcDbEntity
  8
0
 62
     7
100
AcDbLine
 10
-65.4249939
 20
-58.1500015
 30
0.0
 11
-65.2249939
 21
-58.1500015
 31
0.0
  0
LINE
  5
E9
330
1E
100
AcDbEntity
  8
0
 62
     7
100
AcDbLine
 10
-65.2249939
 20
-60.6500015
 30
0.0
 11
-65.2249939
 21
-59.1500015
 31
0.0
  0
LINE
  5
EA
330
1E
100
AcDbEntity
  8
0
 62
     7
100
AcDbLine
 10
-65.4249939
 20
-59.1500015
 30
0.0
 11
-65.2249939
 21
-59.1500015
 31
0.0
  0
LINE
  5
EB
330
1E
100
AcDbEntity
  8
0
 62
     7
100
AcDbLine
 10
-66.7249939
 20
-60.6500015
 30
0.0
 11
-65.2249939
 21
-60.6500015
 31
0.0
  0
LINE
  5
EC
330
1E
100
AcDbEntity
  8
0
 62
     7
100
AcDbLine
 10
-66.7249939
 20
-60.6500015
 30
0.0
 11
-66.7249939
 21
-49.6500015
 31
0.0
  0
LINE
  5
ED
330
1E
100
AcDbEntity
  8
0
 62
     7
100
AcDbLine
 10
-66.5249939
 20
-56.1500015
 30
0.0
 11
-66.5249939
 21
-54.1500015
 31
0.0
  0
LINE
  5
EE
330
1E
100
AcDbEntity
  8
0
 62
     7
100
AcDbLine
 10
-66.5249939
 20
-56.1500015
 30
0.0
 11
-66.7249939
 21
-56.1500015
 31
0.0
  0
LINE
  5
EF
330
1E
100
AcDbEntity
  8
0
 62
     7
100
AcDbLine
 10
-66.5249939
 20
-54.1500015
 30
0.0
 11
-66.7249939
 21
-54.1500015
 31
0.0
  0
LINE
  5
F0
330
1E
100
AcDbEntity
  8
0
 62
     7
100
AcDbLine
 10
-65.4249939
 20
-52.1500015
 30
0.0
 11
-65.2249939
 21
-52.1500015
 31
0.0
  0
LINE
  5
F1
330
1E
100
AcDbEntity
  8
0
 62
     7
100
AcDbLine
 10
-65.2249939
 20
-51.1500015
 30
0.0
 11
-65.2249939
 21
-49.6500015
 31
0.0
  0
LINE
  5
F2
330
1E
100
AcDbEntity
  8
0
 62
     7
100
AcDbLine
 10
-66.7249939
 20
-49.6500015
 30
0.0
 11
-65.2249939
 21
-49.6500015
 31
0.0
  0
LINE
  5
F3
330
1E
100
AcDbEntity
  8
0
 62
     7
100
AcDbLine
 10
-65.4249939
 20
-51.1500015
 30
0.0
 11
-65.2249939
 21
-51.1500015
 31
0.0
  0
LINE
  5
F4
330
1E
100
AcDbEntity
  8
0
 62
     7
100
AcDbLine
 10
-90.8249939
 20
-51.1500015
 30
0.0
 11
-90.8249939
 21
-49.6500015
 31
0.0
  0
LINE
  5
F5
330
1E
100
AcDbEntity
  8
0
 62
     7
100
AcDbLine
 10
-90.62499390000001
 20
-51.1500015
 30
0.0
 11
-90.8249939
 21
-51.1500015
 31
0.0
  0
LINE
  5
F6
330
1E
100
AcDbEntity
  8
0
 62
     7
100
AcDbLine
 10
-90.8249939
 20
-54.1500015
 30
0.0
 11
-90.8249939
 21
-52.1500015
 31
0.0
  0
LINE
  5
F7
330
1E
100
AcDbEntity
  8
0
 62
     7
100
AcDbLine
 10
-90.62499390000001
 20
-52.1500015
 30
0.0
 11
-90.8249939
 21
-52.1500015
 31
0.0
  0
LINE
  5
F8
330
1E
100
AcDbEntity
  8
0
 62
     7
100
AcDbLine
 10
-90.8249939
 20
-54.1500015
 30
0.0
 11
-93.02499389999999
 21
-54.1500015
 31
0.0
  0
LINE
  5
F9
330
1E
100
AcDbEntity
  8
0
 62
     7
100
AcDbLine
 10
-90.8249939
 20
-56.1500015
 30
0.0
 11
-93.02499389999999
 21
-56.1500015
 31
0.0
  0
LINE
  5
FA
330
1E
100
AcDbEntity
  8
0
 62
     7
100
AcDbLine
 10
-90.8249939
 20
-58.1500015
 30
0.0
 11
-90.8249939
 21
-56.1500015
 31
0.0
  0
LINE
  5
FB
330
1E
100
AcDbEntity
  8
0
 62
     7
100
AcDbLine
 10
-90.62499390000001
 20
-58.1500015
 30
0.0
 11
-90.8249939
 21
-58.1500015
 31
0.0
  0
LINE
  5
FC
330
1E
100
AcDbEntity
  8
0
 62
     7
100
AcDbLine
 10
-90.8249939
 20
-60.6500015
 30
0.0
 11
-90.8249939
 21
-59.1500015
 31
0.0
  0
LINE
  5
FD
330
1E
100
AcDbEntity
  8
0
 62
     7
100
AcDbLine
 10
-90.62499390000001
 20
-59.1500015
 30
0.0
 11
-90.8249939
 21
-59.1500015
 31
0.0
  0
LINE
  5
FE
330
1E
100
AcDbEntity
  8
0
 62
     7
100
AcDbLine
 10
-89.3249939
 20
-60.6500015
 30
0.0
 11
-90.8249939
 21
-60.6500015
 31
0.0
  0
LINE
  5
FF
330
1E
100
AcDbEntity
  8
0
 62
     7
100
AcDbLine
 10
-89.52499389999999
 20
-56.1500015
 30
0.0
 11
-89.3249939
 21
-56.1500015
 31
0.0
  0
LINE
  5
100
330
1E
100
AcDbEntity
  8
0
 62
     7
100
AcDbLine
 10
-89.3249939
 20
-49.6500015
 30
0.0
 11
-90.8249939
 21
-49.6500015
 31
0.0
  0
LINE
  5
101
330
1E
100
AcDbEntity
  8
0
 62
     7
100
AcDbLine
 10
-89.3249939
 20
-60.6500015
 30
0.0
 11
-89.3249939
 21
-49.6500015
 31
0.0
  0
LINE
  5
102
330
1E
100
AcDbEntity
  8
0
 62
     7
100
AcDbLine
 10
-89.52499389999999
 20
-56.1500015
 30
0.0
 11
-89.52499389999999
 21
-54.1500015
 31
0.0
  0
LINE
  5
103
330
1E
100
AcDbEntity
  8
0
 62
     7
100
AcDbLine
 10
-89.52499389999999
 20
-54.1500015
 30
0.0
 11
-89.3249939
 21
-54.1500015
 31
0.0
  0
LINE
  5
104
330
1E
100
AcDbEntity
  8
0
  6
CENTER
 62
     2
100
AcDbLine
 10
-66.0749939
 20
-48.79395099999999
 30
0.0
 11
-66.0749939
 21
-61.851672
 31
0.0
  0
LINE
  5
105
330
1E
100
AcDbEntity
  8
0
 62
     7
100
AcDbLine
 10
-65.4249939
 20
-50.8000015
 30
0.0
 11
-65.4249939
 21
-59.50000150000001
 31
0.0
  0
ARC
  5
106
330
1E
100
AcDbEntity
  8
0
 62
     7
100
AcDbCircle
 10
-66.0749939
 20
-50.8000015
 30
0.0
 40
0.65
100
AcDbArc
 50
0.0
 51
180.0
  0
ARC
  5
107
330
1E
100
AcDbEntity
  8
0
 62
     7
100
AcDbCircle
 10
-66.0749939
 20
-59.50000150000001
 30
0.0
 40
0.65
100
AcDbArc
 50
180.0
 51
0.0
  0
LINE
  5
108
330
1E
100
AcDbEntity
  8
0
 62
     7
100
AcDbLine
 10
-90.62499390000001
 20
-50.8000015
 30
0.0
 11
-90.62499390000001
 21
-59.50000150000001
 31
0.0
  0
ARC
  5
109
330
1E
100
AcDbEntity
  8
0
 62
     7
100
AcDbCircle
 10
-89.97499389999999
 20
-50.8000015
 30
0.0
 40
0.65
100
AcDbArc
 50
0.0
 51
180.0
  0
ARC
  5
10A
330
1E
100
AcDbEntity
  8
0
 62
     7
100
AcDbCircle
 10
-89.97499389999999
 20
-59.50000150000001
 30
0.0
 40
0.65
100
AcDbArc
 50
180.0
 51
0.0
  0
LINE
  5
10B
330
1E
100
AcDbEntity
  8
0
  6
CENTER
 62
     2
100
AcDbLine
 10
-89.97499389999999
 20
-48.79395099999999
 30
0.0
 11
-89.97499389999999
 21
-61.851672
 31
0.0
  0
LINE
  5
10C
330
1E
100
AcDbEntity
  8
0
 62
     7
100
AcDbLine
 10
-70.0249939
 20
-37.6500015
 30
0.0
 11
-70.0249939
 21
-30.1500015
 31
0.0
  0
LINE
  5
10D
330
1E
100
AcDbEntity
  8
0
 62
     7
100
AcDbLine
 10
-86.0249939
 20
-37.6500015
 30
0.0
 11
-86.0249939
 21
-30.1500015
 31
0.0
  0
CIRCLE
  5
10E
330
1E
100
AcDbEntity
  8
0
  6
PHANTOM
 62
     6
100
AcDbCircle
 10
-78.0249939
 20
-55.1500015
 30
0.0
 40
9.0
  0
LINE
  5
10F
330
1E
100
AcDbEntity
  8
0
 62
     7
100
AcDbLine
 10
-84.27499389999999
 20
-61.1500015
 30
0.0
 11
-86.14999389999999
 21
-62.2325333
 31
0.0
  0
LINE
  5
110
330
1E
100
AcDbEntity
  8
0
 62
     7
100
AcDbLine
 10
-86.14999389999999
 20
-62.2325333
 30
0.0
 11
-86.14999389999999
 21
-60.06746979999999
 31
0.0
  0
LINE
  5
111
330
1E
100
AcDbEntity
  8
0
 62
     7
100
AcDbLine
 10
-84.27499389999999
 20
-61.1500015
 30
0.0
 11
-86.14999389999999
 21
-60.06746979999999
 31
0.0
  0
CIRCLE
  5
112
330
1E
100
AcDbEntity
  8
0
 62
     7
100
AcDbCircle
 10
-85.52499389999999
 20
-61.1500015
 30
0.0
 40
1.5
  0
LINE
  5
113
330
1E
100
AcDbEntity
  8
0
  6
PHANTOM
 62
     6
100
AcDbLine
 10
-89.52499389999999
 20
-71.75000149999999
 30
0.0
 11
-89.52499389999999
 21
-76.1500015
 31
0.0
  0
LINE
  5
114
330
1E
100
AcDbEntity
  8
0
  6
PHANTOM
 62
     6
100
AcDbLine
 10
-66.5249939
 20
-71.75000149999999
 30
0.0
 11
-66.5249939
 21
-76.1500015
 31
0.0
  0
LINE
  5
115
330
1E
100
AcDbEntity
  8
0
  6
PHANTOM
 62
     6
100
AcDbLine
 10
-56.0249939
 20
-58.1500015
 30
0.0
 11
-56.0249939
 21
-76.1500015
 31
0.0
  0
LINE
  5
116
330
1E
100
AcDbEntity
  8
0
  6
PHANTOM
 62
     6
100
AcDbLine
 10
-100.024994
 20
-58.1500015
 30
0.0
 11
-100.024994
 21
-76.1500015
 31
0.0
  0
LINE
  5
117
330
1E
100
AcDbEntity
  8
0
  6
CENTER
 62
     2
100
AcDbLine
 10
11.9750061
 20
-78.42456379999998
 30
0.0
 11
11.9750061
 21
-9.28894685
 31
0.0
  0
LINE
  5
118
330
1E
100
AcDbEntity
  8
0
  6
PHANTOM
 62
     6
100
AcDbLine
 10
3.975006099999999
 20
-76.1500015
 30
0.0
 11
19.9750061
 21
-76.1500015
 31
0.0
  0
CIRCLE
  5
119
330
1E
100
AcDbEntity
  8
0
  6
PHANTOM
 62
     6
100
AcDbCircle
 10
11.9750061
 20
-55.1500015
 30
0.0
 40
5.0
  0
LINE
  5
11A
330
1E
100
AcDbEntity
  8
0
  6
PHANTOM
 62
     6
100
AcDbLine
 10
29.97500609999999
 20
-49.1500015
 30
0.0
 11
29.97500609999999
 21
-47.1500015
 31
0.0
  0
LINE
  5
11B
330
1E
100
AcDbEntity
  8
0
  6
PHANTOM
 62
     6
100
AcDbLine
 10
29.97500609999999
 20
-58.1500015
 30
0.0
 11
29.97500609999999
 21
-52.1500015
 31
0.0
  0
LINE
  5
11C
330
1E
100
AcDbEntity
  8
0
  6
PHANTOM
 62
     6
100
AcDbLine
 10
29.97500609999999
 20
-63.1500015
 30
0.0
 11
29.97500609999999
 21
-61.1500015
 31
0.0
  0
LINE
  5
11D
330
1E
100
AcDbEntity
  8
0
  6
PHANTOM
 62
     6
100
AcDbLine
 10
29.97500609999999
 20
-47.1500015
 30
0.0
 11
32.9750061
 21
-47.1500015
 31
0.0
  0
ARC
  5
11E
330
1E
100
AcDbEntity
  8
0
  6
PHANTOM
 62
     6
100
AcDbCircle
 10
31.9750061
 20
-50.1500015
 30
0.0
 40
1.0
100
AcDbArc
 50
0.0
 51
90.00000020000001
  0
LINE
  5
11F
330
1E
100
AcDbEntity
  8
0
  6
PHANTOM
 62
     6
100
AcDbLine
 10
17.2665087
 20
-49.1500015
 30
0.0
 11
31.9750061
 21
-49.1500015
 31
0.0
  0
LINE
  5
120
330
1E
100
AcDbEntity
  8
0
  6
PHANTOM
 62
     6
100
AcDbLine
 10
6.0750061
 20
-51.053036
 30
0.0
 11
6.0750061
 21
-49.7472245
 31
0.0
  0
LINE
  5
121
330
1E
100
AcDbEntity
  8
0
  6
PHANTOM
 62
     6
100
AcDbLine
 10
7.975006099999999
 20
-52.1500015
 30
0.0
 11
6.0750061
 21
-51.053036
 31
0.0
  0
LINE
  5
122
330
1E
100
AcDbEntity
  8
0
  6
PHANTOM
 62
     6
100
AcDbLine
 10
15.97500609999999
 20
-52.1500015
 30
0.0
 11
29.97500609999999
 21
-52.1500015
 31
0.0
  0
LINE
  5
123
330
1E
100
AcDbEntity
  8
0
  6
PHANTOM
 62
     6
100
AcDbLine
 10
15.97500609999999
 20
-58.1500015
 30
0.0
 11
29.97500609999999
 21
-58.1500015
 31
0.0
  0
LINE
  5
124
330
1E
100
AcDbEntity
  8
0
  6
PHANTOM
 62
     6
100
AcDbLine
 10
7.975006099999999
 20
-58.1500015
 30
0.0
 11
6.0750061
 21
-59.24696700000001
 31
0.0
  0
LINE
  5
125
330
1E
100
AcDbEntity
  8
0
  6
PHANTOM
 62
     6
100
AcDbLine
 10
6.0750061
 20
-60.5527786
 30
0.0
 11
6.0750061
 21
-59.24696700000001
 31
0.0
  0
LINE
  5
126
330
1E
100
AcDbEntity
  8
0
  6
PHANTOM
 62
     6
100
AcDbLine
 10
17.2665087
 20
-61.1500015
 30
0.0
 11
31.9750061
 21
-61.1500015
 31
0.0
  0
ARC
  5
127
330
1E
100
AcDbEntity
  8
0
  6
PHANTOM
 62
     6
100
AcDbCircle
 10
31.9750061
 20
-60.1500015
 30
0.0
 40
1.0
100
AcDbArc
 50
270.0
 51
0.0
  0
LINE
  5
128
330
1E
100
AcDbEntity
  8
0
  6
PHANTOM
 62
     6
100
AcDbLine
 10
32.9750061
 20
-63.1500015
 30
0.0
 11
32.9750061
 21
-47.1500015
 31
0.0
  0
LINE
  5
129
330
1E
100
AcDbEntity
  8
0
  6
PHANTOM
 62
     6
100
AcDbLine
 10
29.97500609999999
 20
-63.1500015
 30
0.0
 11
32.9750061
 21
-63.1500015
 31
0.0
  0
LINE
  5
12A
330
1E
100
AcDbEntity
  8
0
  6
PHANTOM
 62
     6
100
AcDbLine
 10
-0.0249938965
 20
-30.9500015
 30
0.0
 11
23.9750061
 21
-30.9500015
 31
0.0
  0
LINE
  5
12B
330
1E
100
AcDbEntity
  8
0
  6
PHANTOM
 62
     6
100
AcDbLine
 10
-0.0249938965
 20
-34.9500015
 30
0.0
 11
23.9750061
 21
-34.9500015
 31
0.0
  0
LINE
  5
12C
330
1E
100
AcDbEntity
  8
0
 62
     7
100
AcDbLine
 10
18.74309949999999
 20
-12.4500015
 30
0.0
 11
19.7430995
 21
-13.4500015
 31
0.0
  0
LINE
  5
12D
330
1E
100
AcDbEntity
  8
0
 62
     7
100
AcDbLine
 10
4.20810944
 20
-13.41573209999999
 30
0.0
 11
5.24372868
 21
-12.4500015
 31
0.0
  0
LINE
  5
12E
330
1E
100
AcDbEntity
  8
0
 62
     7
100
AcDbLine
 10
20.2250061
 20
-27.2500015
 30
0.0
 11
19.7430995
 21
-13.4500015
 31
0.0
  0
LINE
  5
12F
330
1E
100
AcDbEntity
  8
0
 62
     7
100
AcDbLine
 10
3.725006099999999
 20
-27.2500015
 30
0.0
 11
4.20810944
 21
-13.41573209999999
 31
0.0
  0
LINE
  5
130
330
1E
100
AcDbEntity
  8
0
 62
     7
100
AcDbLine
 10
3.725006099999999
 20
-27.2500015
 30
0.0
 11
3.9250061
 21
-27.4500015
 31
0.0
  0
LINE
  5
131
330
1E
100
AcDbEntity
  8
0
 62
     7
100
AcDbLine
 10
5.24372868
 20
-12.4500015
 30
0.0
 11
18.74309949999999
 21
-12.4500015
 31
0.0
  0
LINE
  5
132
330
1E
100
AcDbEntity
  8
0
 62
     7
100
AcDbLine
 10
20.2250061
 20
-27.2500015
 30
0.0
 11
20.0250061
 21
-27.4500015
 31
0.0
  0
LINE
  5
133
330
1E
100
AcDbEntity
  8
0
 62
     7
100
AcDbLine
 10
3.9250061
 20
-27.4500015
 30
0.0
 11
20.0250061
 21
-27.4500015
 31
0.0
  0
LINE
  5
134
330
1E
100
AcDbEntity
  8
0
 62
     7
100
AcDbLine
 10
18.2250061
 20
-30.1500015
 30
0.0
 11
18.2250061
 21
-27.4500015
 31
0.0
  0
LINE
  5
135
330
1E
100
AcDbEntity
  8
0
 62
     7
100
AcDbLine
 10
5.725006099999999
 20
-30.1500015
 30
0.0
 11
5.725006099999999
 21
-27.4500015
 31
0.0
  0
LINE
  5
136
330
1E
100
AcDbEntity
  8
0
 62
     7
100
AcDbLine
 10
20.4750061
 20
-30.1500015
 30
0.0
 11
20.9750061
 21
-30.6500015
 31
0.0
  0
LINE
  5
137
330
1E
100
AcDbEntity
  8
0
 62
     2
100
AcDbLine
 10
20.4750061
 20
-37.1500015
 30
0.0
 11
20.4750061
 21
-30.1500015
 31
0.0
  0
LINE
  5
138
330
1E
100
AcDbEntity
  8
0
 62
     7
100
AcDbLine
 10
20.9750061
 20
-37.6500015
 30
0.0
 11
20.9750061
 21
-30.6500015
 31
0.0
  0
LINE
  5
139
330
1E
100
AcDbEntity
  8
0
 62
     7
100
AcDbLine
 10
20.9750061
 20
-37.6500015
 30
0.0
 11
20.4750061
 21
-37.1500015
 31
0.0
  0
LINE
  5
13A
330
1E
100
AcDbEntity
  8
0
 62
     7
100
AcDbLine
 10
2.975006099999999
 20
-37.6500015
 30
0.0
 11
2.975006099999999
 21
-30.6500015
 31
0.0
  0
LINE
  5
13B
330
1E
100
AcDbEntity
  8
0
 62
     7
100
AcDbLine
 10
3.475006099999999
 20
-30.1500015
 30
0.0
 11
20.4750061
 21
-30.1500015
 31
0.0
  0
LINE
  5
13C
330
1E
100
AcDbEntity
  8
0
 62
     7
100
AcDbLine
 10
3.475006099999999
 20
-30.1500015
 30
0.0
 11
2.975006099999999
 21
-30.6500015
 31
0.0
  0
LINE
  5
13D
330
1E
100
AcDbEntity
  8
0
 62
     7
100
AcDbLine
 10
2.975006099999999
 20
-37.6500015
 30
0.0
 11
3.475006099999999
 21
-37.1500015
 31
0.0
  0
LINE
  5
13E
330
1E
100
AcDbEntity
  8
0
 62
     7
100
AcDbLine
 10
2.975006099999999
 20
-30.6500015
 30
0.0
 11
7.85190048
 21
-30.6500015
 31
0.0
  0
LINE
  5
13F
330
1E
100
AcDbEntity
  8
0
 62
     2
100
AcDbLine
 10
3.475006099999999
 20
-37.1500015
 30
0.0
 11
3.475006099999999
 21
-30.1500015
 31
0.0
  0
LINE
  5
140
330
1E
100
AcDbEntity
  8
0
 62
     7
100
AcDbLine
 10
3.475006099999999
 20
-37.1500015
 30
0.0
 11
7.85190048
 21
-37.1500015
 31
0.0
  0
LINE
  5
141
330
1E
100
AcDbEntity
  8
0
 62
     7
100
AcDbLine
 10
7.27066692
 20
-25.9500015
 30
0.0
 11
9.349127909999999
 21
-25.9500015
 31
0.0
  0
LINE
  5
142
330
1E
100
AcDbEntity
  8
0
 62
     7
100
AcDbLine
 10
7.50515779
 20
-12.6039583
 30
0.0
 11
7.27066692
 21
-25.9500015
 31
0.0
  0
LINE
  5
143
330
1E
100
AcDbEntity
  8
0
 62
     7
100
AcDbLine
 10
9.583618769999999
 20
-12.6039583
 30
0.0
 11
9.568117969999999
 21
-13.4861859
 31
0.0
  0
LINE
  5
144
330
1E
100
AcDbEntity
  8
0
 62
     7
100
AcDbLine
 10
7.50515779
 20
-12.6039583
 30
0.0
 11
9.583618769999999
 21
-12.6039583
 31
0.0
  0
LINE
  5
145
330
1E
100
AcDbEntity
  8
0
 62
     7
100
AcDbLine
 10
6.36161228
 20
-26.7542793
 30
0.0
 11
9.56604871
 21
-26.7542793
 31
0.0
  0
LINE
  5
146
330
1E
100
AcDbEntity
  8
0
 62
     7
100
AcDbLine
 10
9.56604871
 20
-26.7542793
 30
0.0
 11
9.56604871
 21
-13.4861859
 31
0.0
  0
LINE
  5
147
330
1E
100
AcDbEntity
  8
0
 62
     7
100
AcDbLine
 10
6.78254316
 20
-13.4861859
 30
0.0
 11
6.36161228
 21
-26.7542793
 31
0.0
  0
LINE
  5
148
330
1E
100
AcDbEntity
  8
0
 62
     7
100
AcDbLine
 10
17.167469
 20
-13.4861859
 30
0.0
 11
17.5883999
 21
-26.7542793
 31
0.0
  0
LINE
  5
149
330
1E
100
AcDbEntity
  8
0
 62
     7
100
AcDbLine
 10
14.3839635
 20
-26.7542793
 30
0.0
 11
14.3839635
 21
-13.4861859
 31
0.0
  0
LINE
  5
14A
330
1E
100
AcDbEntity
  8
0
 62
     7
100
AcDbLine
 10
17.5883999
 20
-26.7542793
 30
0.0
 11
14.3839635
 21
-26.7542793
 31
0.0
  0
LINE
  5
14B
330
1E
100
AcDbEntity
  8
0
 62
     7
100
AcDbLine
 10
16.4448544
 20
-12.6039583
 30
0.0
 11
14.3663934
 21
-12.6039583
 31
0.0
  0
LINE
  5
14C
330
1E
100
AcDbEntity
  8
0
 62
     7
100
AcDbLine
 10
14.3663934
 20
-12.6039583
 30
0.0
 11
14.38189419999999
 21
-13.4861859
 31
0.0
  0
LINE
  5
14D
330
1E
100
AcDbEntity
  8
0
 62
     7
100
AcDbLine
 10
16.4448544
 20
-12.6039583
 30
0.0
 11
16.6793453
 21
-25.9500015
 31
0.0
  0
LINE
  5
14E
330
1E
100
AcDbEntity
  8
0
 62
     7
100
AcDbLine
 10
16.6793453
 20
-25.9500015
 30
0.0
 11
14.60088429999999
 21
-25.9500015
 31
0.0
  0
LINE
  5
14F
330
1E
100
AcDbEntity
  8
0
 62
     7
100
AcDbLine
 10
9.566048699999999
 20
-13.4861859
 30
0.0
 11
14.3839635
 21
-13.4861859
 31
0.0
  0
LINE
  5
150
330
1E
100
AcDbEntity
  8
0
 62
     7
100
AcDbLine
 10
3.725006099999999
 20
-27.2500015
 30
0.0
 11
20.2250061
 21
-27.2500015
 31
0.0
  0
LINE
  5
151
330
1E
100
AcDbEntity
  8
0
 62
     7
100
AcDbLine
 10
3.9542085
 20
-26.7542793
 30
0.0
 11
4.3668934
 21
-13.4861859
 31
0.0
  0
LINE
  5
152
330
1E
100
AcDbEntity
  8
0
 62
     7
100
AcDbLine
 10
6.78254316
 20
-13.4861859
 30
0.0
 11
4.3668934
 21
-13.4861859
 31
0.0
  0
LINE
  5
153
330
1E
100
AcDbEntity
  8
0
 62
     7
100
AcDbLine
 10
4.99503928
 20
-12.6819081
 30
0.0
 11
5.07863021
 21
-12.6819081
 31
0.0
  0
LINE
  5
154
330
1E
100
AcDbEntity
  8
0
 62
     7
100
AcDbLine
 10
17.167469
 20
-13.4861859
 30
0.0
 11
19.5831188
 21
-13.4861859
 31
0.0
  0
LINE
  5
155
330
1E
100
AcDbEntity
  8
0
 62
     7
100
AcDbLine
 10
18.95497289999999
 20
-12.6819081
 30
0.0
 11
18.871382
 21
-12.6819081
 31
0.0
  0
LINE
  5
156
330
1E
100
AcDbEntity
  8
0
 62
     7
100
AcDbLine
 10
19.9958037
 20
-26.7542793
 30
0.0
 11
19.5831188
 21
-13.4861859
 31
0.0
  0
LINE
  5
157
330
1E
100
AcDbEntity
  8
0
  6
PHANTOM
 62
     6
100
AcDbLine
 10
-0.0249938965
 20
-34.9500015
 30
0.0
 11
-0.0249938965
 21
-30.9500015
 31
0.0
  0
LINE
  5
158
330
1E
100
AcDbEntity
  8
0
  6
PHANTOM
 62
     6
100
AcDbLine
 10
7.00444332
 20
-34.3791715
 30
0.0
 11
7.00444332
 21
-31.5208315
 31
0.0
  0
LINE
  5
159
330
1E
100
AcDbEntity
  8
0
  6
PHANTOM
 62
     6
100
AcDbLine
 10
16.9455688
 20
-34.3791715
 30
0.0
 11
16.9455688
 21
-31.5208315
 31
0.0
  0
LINE
  5
15A
330
1E
100
AcDbEntity
  8
0
  6
PHANTOM
 62
     6
100
AcDbLine
 10
23.9750061
 20
-34.9500015
 30
0.0
 11
23.9750061
 21
-30.9500015
 31
0.0
  0
ARC
  5
15B
330
1E
100
AcDbEntity
  8
0
  6
PHANTOM
 62
     6
100
AcDbCircle
 10
3.489724709999999
 20
-42.05584199999999
 30
0.0
 40
11.1058404
100
AcDbArc
 50
71.55013120000001
 51
108.4498689999999
  0
ARC
  5
15C
330
1E
100
AcDbEntity
  8
0
  6
PHANTOM
 62
     6
100
AcDbCircle
 10
11.9750061
 20
-52.8762676
 30
0.0
 40
21.9262661
100
AcDbArc
 50
76.8974621
 51
103.1025379999999
  0
ARC
  5
15D
330
1E
100
AcDbEntity
  8
0
  6
PHANTOM
 62
     6
100
AcDbCircle
 10
20.4602875
 20
-42.0558422
 30
0.0
 40
11.1058406
100
AcDbArc
 50
71.55013120000001
 51
108.4498689999999
  0
ARC
  5
15E
330
1E
100
AcDbEntity
  8
0
  6
PHANTOM
 62
     6
100
AcDbCircle
 10
20.4602875
 20
-23.84416089999999
 30
0.0
 40
11.1058406
100
AcDbArc
 50
251.550131
 51
288.449869
  0
ARC
  5
15F
330
1E
100
AcDbEntity
  8
0
  6
PHANTOM
 62
     6
100
AcDbCircle
 10
11.9750061
 20
-13.02373549999999
 30
0.0
 40
21.9262661
100
AcDbArc
 50
256.897462
 51
283.1025369999999
  0
ARC
  5
160
330
1E
100
AcDbEntity
  8
0
  6
PHANTOM
 62
     6
100
AcDbCircle
 10
3.489724709999999
 20
-23.8441611
 30
0.0
 40
11.1058404
100
AcDbArc
 50
251.550131
 51
288.449869
  0
LINE
  5
161
330
1E
100
AcDbEntity
  8
0
 62
     7
100
AcDbLine
 10
17.167469
 20
-13.4861859
 30
0.0
 11
16.4448544
 21
-12.6039583
 31
0.0
  0
LINE
  5
162
330
1E
100
AcDbEntity
  8
0
 62
     7
100
AcDbLine
 10
19.5831188
 20
-13.4861859
 30
0.0
 11
18.871382
 21
-12.6819081
 31
0.0
  0
LINE
  5
163
330
1E
100
AcDbEntity
  8
0
 62
     7
100
AcDbLine
 10
4.3668934
 20
-13.4861859
 30
0.0
 11
5.07863021
 21
-12.6819081
 31
0.0
  0
LINE
  5
164
330
1E
100
AcDbEntity
  8
0
 62
     7
100
AcDbLine
 10
6.78254316
 20
-13.4861859
 30
0.0
 11
7.50515779
 21
-12.6039583
 31
0.0
  0
LINE
  5
165
330
1E
100
AcDbEntity
  8
0
 62
     7
100
AcDbLine
 10
9.56604871
 20
-13.6039576
 30
0.0
 11
9.349127909999999
 21
-25.9500015
 31
0.0
  0
LINE
  5
166
330
1E
100
AcDbEntity
  8
0
 62
     7
100
AcDbLine
 10
14.3839635
 20
-13.6039576
 30
0.0
 11
14.60088429999999
 21
-25.9500015
 31
0.0
  0
LINE
  5
167
330
1E
100
AcDbEntity
  8
0
 62
     7
100
AcDbLine
 10
14.3839635
 20
-13.4861859
 30
0.0
 11
14.3663934
 21
-12.6039583
 31
0.0
  0
LINE
  5
168
330
1E
100
AcDbEntity
  8
0
 62
     7
100
AcDbLine
 10
9.566048699999999
 20
-13.4861859
 30
0.0
 11
9.583618769999999
 21
-12.6039583
 31
0.0
  0
ARC
  5
169
330
1E
100
AcDbEntity
  8
0
 62
     7
100
AcDbCircle
 10
22.4750061
 20
-44.6500015
 30
0.0
 40
1.0
100
AcDbArc
 50
0.0
 51
90.00000020000001
  0
ARC
  5
16A
330
1E
100
AcDbEntity
  8
0
 62
     7
100
AcDbCircle
 10
1.4750061
 20
-44.6500015
 30
0.0
 40
1.0
100
AcDbArc
 50
90.00000020000001
 51
180.0
  0
LINE
  5
16B
330
1E
100
AcDbEntity
  8
0
 62
     7
100
AcDbLine
 10
17.2750061
 20
-43.6500015
 30
0.0
 11
22.4750061
 21
-43.6500015
 31
0.0
  0
LINE
  5
16C
330
1E
100
AcDbEntity
  8
0
 62
     7
100
AcDbLine
 10
1.4750061
 20
-43.6500015
 30
0.0
 11
8.3750061
 21
-43.6500015
 31
0.0
  0
LINE
  5
16D
330
1E
100
AcDbEntity
  8
0
  6
DASHED
 62
     2
100
AcDbLine
 10
22.475494
 20
-50.31723729999999
 30
0.0
 11
23.4750061
 21
-51.2561729
 31
0.0
  0
LINE
  5
16E
330
1E
100
AcDbEntity
  8
0
  6
DASHED
 62
     2
100
AcDbLine
 10
22.475494
 20
-59.98253670000001
 30
0.0
 11
23.4750061
 21
-59.0436011
 31
0.0
  0
LINE
  5
16F
330
1E
100
AcDbEntity
  8
0
  6
DASHED
 62
     2
100
AcDbLine
 10
23.4750061
 20
-60.01377149999999
 30
0.0
 11
17.9750061
 21
-59.8418965
 31
0.0
  0
LINE
  5
170
330
1E
100
AcDbEntity
  8
0
  6
DASHED
 62
     2
100
AcDbLine
 10
23.4750061
 20
-59.4278332
 30
0.0
 11
17.9685694
 21
-59.2557571
 31
0.0
  0
LINE
  5
171
330
1E
100
AcDbEntity
  8
0
  6
DASHED
 62
     2
100
AcDbLine
 10
23.4750061
 20
-50.87200189999999
 30
0.0
 11
17.9750061
 21
-51.04387689999999
 31
0.0
  0
LINE
  5
172
330
1E
100
AcDbEntity
  8
0
  6
DASHED
 62
     2
100
AcDbLine
 10
23.4750061
 20
-50.28600260000001
 30
0.0
 11
17.9750061
 21
-50.4578776
 31
0.0
  0
LINE
  5
173
330
1E
100
AcDbEntity
  8
0
 62
     7
100
AcDbLine
 10
0.4750061040000001
 20
-71.1500015
 30
0.0
 11
23.4750061
 21
-71.1500015
 31
0.0
  0
LINE
  5
174
330
1E
100
AcDbEntity
  8
0
 62
     7
100
AcDbLine
 10
6.6750061
 20
-68.1500015
 30
0.0
 11
15.57500609999999
 21
-68.1500015
 31
0.0
  0
LINE
  5
175
330
1E
100
AcDbEntity
  8
0
 62
     7
100
AcDbLine
 10
6.6750061
 20
-64.75000149999999
 30
0.0
 11
15.57500609999999
 21
-64.75000149999999
 31
0.0
  0
LINE
  5
176
330
1E
100
AcDbEntity
  8
0
 62
     7
100
AcDbLine
 10
0.4750061040000001
 20
-71.1500015
 30
0.0
 11
0.4750061040000001
 21
-71.6500015
 31
0.0
  0
LINE
  5
177
330
1E
100
AcDbEntity
  8
0
 62
     7
100
AcDbLine
 10
23.4750061
 20
-71.1500015
 30
0.0
 11
23.4750061
 21
-71.6500015
 31
0.0
  0
LINE
  5
178
330
1E
100
AcDbEntity
  8
0
 62
     7
100
AcDbLine
 10
15.57500609999999
 20
-68.1500015
 30
0.0
 11
15.57500609999999
 21
-64.75000149999999
 31
0.0
  0
LINE
  5
179
330
1E
100
AcDbEntity
  8
0
 62
     7
100
AcDbLine
 10
6.6750061
 20
-68.1500015
 30
0.0
 11
6.6750061
 21
-64.75000149999999
 31
0.0
  0
LINE
  5
17A
330
1E
100
AcDbEntity
  8
0
 62
     7
100
AcDbLine
 10
8.475006099999999
 20
-65.1500015
 30
0.0
 11
15.47500609999999
 21
-65.1500015
 31
0.0
  0
LINE
  5
17B
330
1E
100
AcDbEntity
  8
0
 62
     7
100
AcDbLine
 10
8.475006099999999
 20
-68.1500015
 30
0.0
 11
8.475006099999999
 21
-65.1500015
 31
0.0
  0
LINE
  5
17C
330
1E
100
AcDbEntity
  8
0
 62
     7
100
AcDbLine
 10
15.47500609999999
 20
-67.8437912
 30
0.0
 11
15.47500609999999
 21
-65.1500015
 31
0.0
  0
LINE
  5
17D
330
1E
100
AcDbEntity
  8
0
 62
     7
100
AcDbLine
 10
11.9750061
 20
-68.1500015
 30
0.0
 11
15.47500609999999
 21
-67.8437912
 31
0.0
  0
CIRCLE
  5
17E
330
1E
100
AcDbEntity
  8
0
 62
     7
100
AcDbCircle
 10
11.9750061
 20
-55.1500015
 30
0.0
 40
5.0
  0
CIRCLE
  5
17F
330
1E
100
AcDbEntity
  8
0
 62
     7
100
AcDbCircle
 10
11.9750061
 20
-55.1500015
 30
0.0
 40
3.0
  0
LINE
  5
180
330
1E
100
AcDbEntity
  8
0
 62
     7
100
AcDbLine
 10
1.4750061
 20
-66.6500015
 30
0.0
 11
6.6750061
 21
-66.6500015
 31
0.0
  0
ARC
  5
181
330
1E
100
AcDbEntity
  8
0
 62
     7
100
AcDbCircle
 10
23.2750061
 20
-70.9500015
 30
0.0
 40
0.2
100
AcDbArc
 50
270.0
 51
0.0
  0
ARC
  5
182
330
1E
100
AcDbEntity
  8
0
 62
     7
100
AcDbCircle
 10
0.6750061040000001
 20
-70.9500015
 30
0.0
 40
0.2
100
AcDbArc
 50
180.0
 51
270.0
  0
LINE
  5
183
330
1E
100
AcDbEntity
  8
0
 62
     7
100
AcDbLine
 10
17.2750061
 20
-45.5500015
 30
0.0
 11
8.3750061
 21
-45.5500015
 31
0.0
  0
LINE
  5
184
330
1E
100
AcDbEntity
  8
0
 62
     7
100
AcDbLine
 10
8.475006099999999
 20
-45.1500015
 30
0.0
 11
15.47500609999999
 21
-45.1500015
 31
0.0
  0
LINE
  5
185
330
1E
100
AcDbEntity
  8
0
 62
     7
100
AcDbLine
 10
8.3750061
 20
-42.1500015
 30
0.0
 11
17.2750061
 21
-42.1500015
 31
0.0
  0
LINE
  5
186
330
1E
100
AcDbEntity
  8
0
 62
     7
100
AcDbLine
 10
0.4750061040000001
 20
-39.1500015
 30
0.0
 11
23.4750061
 21
-39.1500015
 31
0.0
  0
LINE
  5
187
330
1E
100
AcDbEntity
  8
0
 62
     7
100
AcDbLine
 10
0.4750061040000001
 20
-70.9500015
 30
0.0
 11
0.4750061040000001
 21
-39.1500015
 31
0.0
  0
ARC
  5
188
330
1E
100
AcDbEntity
  8
0
 62
     7
100
AcDbCircle
 10
1.4750061
 20
-38.6500015
 30
0.0
 40
1.0
100
AcDbArc
 50
90.00000020000001
 51
180.0
  0
LINE
  5
189
330
1E
100
AcDbEntity
  8
0
 62
     7
100
AcDbLine
 10
1.4750061
 20
-37.6500015
 30
0.0
 11
22.4750061
 21
-37.6500015
 31
0.0
  0
LINE
  5
18A
330
1E
100
AcDbEntity
  8
0
 62
     7
100
AcDbLine
 10
23.4750061
 20
-70.9500015
 30
0.0
 11
23.4750061
 21
-39.1500015
 31
0.0
  0
ARC
  5
18B
330
1E
100
AcDbEntity
  8
0
 62
     7
100
AcDbCircle
 10
22.4750061
 20
-38.6500015
 30
0.0
 40
1.0
100
AcDbArc
 50
0.0
 51
90.00000020000001
  0
LINE
  5
18C
330
1E
100
AcDbEntity
  8
0
 62
     7
100
AcDbLine
 10
0.4750061040000001
 20
-39.1500015
 30
0.0
 11
0.4750061040000001
 21
-38.6500015
 31
0.0
  0
LINE
  5
18D
330
1E
100
AcDbEntity
  8
0
 62
     7
100
AcDbLine
 10
23.4750061
 20
-39.1500015
 30
0.0
 11
23.4750061
 21
-38.6500015
 31
0.0
  0
LINE
  5
18E
330
1E
100
AcDbEntity
  8
0
 62
     7
100
AcDbLine
 10
17.2750061
 20
-45.5500015
 30
0.0
 11
17.2750061
 21
-42.1500015
 31
0.0
  0
LINE
  5
18F
330
1E
100
AcDbEntity
  8
0
 62
     7
100
AcDbLine
 10
8.3750061
 20
-45.5500015
 30
0.0
 11
8.3750061
 21
-42.1500015
 31
0.0
  0
LINE
  5
190
330
1E
100
AcDbEntity
  8
0
 62
     7
100
AcDbLine
 10
8.475006099999999
 20
-45.1500015
 30
0.0
 11
8.475006099999999
 21
-42.45621179999999
 31
0.0
  0
LINE
  5
191
330
1E
100
AcDbEntity
  8
0
 62
     7
100
AcDbLine
 10
15.47500609999999
 20
-45.1500015
 30
0.0
 11
15.47500609999999
 21
-42.1500015
 31
0.0
  0
LINE
  5
192
330
1E
100
AcDbEntity
  8
0
 62
     7
100
AcDbLine
 10
11.9750061
 20
-42.1500015
 30
0.0
 11
8.475006099999999
 21
-42.45621179999999
 31
0.0
  0
LINE
  5
193
330
1E
100
AcDbEntity
  8
0
 62
     7
100
AcDbLine
 10
1.4750061
 20
-72.6500015
 30
0.0
 11
22.4750061
 21
-72.6500015
 31
0.0
  0
ARC
  5
194
330
1E
100
AcDbEntity
  8
0
 62
     7
100
AcDbCircle
 10
1.4750061
 20
-71.6500015
 30
0.0
 40
1.0
100
AcDbArc
 50
180.0
 51
270.0
  0
ARC
  5
195
330
1E
100
AcDbEntity
  8
0
 62
     7
100
AcDbCircle
 10
22.4750061
 20
-71.6500015
 30
0.0
 40
1.0
100
AcDbArc
 50
270.0
 51
0.0
  0
ARC
  5
196
330
1E
100
AcDbEntity
  8
0
 62
     7
100
AcDbCircle
 10
1.4750061
 20
-65.6500015
 30
0.0
 40
1.0
100
AcDbArc
 50
180.0
 51
270.0
  0
ARC
  5
197
330
1E
100
AcDbEntity
  8
0
 62
     7
100
AcDbCircle
 10
22.4750061
 20
-65.6500015
 30
0.0
 40
1.0
100
AcDbArc
 50
270.0
 51
0.0
  0
LINE
  5
198
330
1E
100
AcDbEntity
  8
0
 62
     7
100
AcDbLine
 10
15.57500609999999
 20
-66.6500015
 30
0.0
 11
22.4750061
 21
-66.6500015
 31
0.0
  0
LINE
  5
199
330
1E
100
AcDbEntity
  8
0
  6
PHANTOM
 62
     6
100
AcDbLine
 10
17.9750061
 20
-60.4415041
 30
0.0
 11
17.9750061
 21
-75.1500015
 31
0.0
  0
LINE
  5
19A
330
1E
100
AcDbEntity
  8
0
  6
PHANTOM
 62
     6
100
AcDbLine
 10
14.97500609999999
 20
-59.1500015
 30
0.0
 11
14.97500609999999
 21
-73.1500015
 31
0.0
  0
LINE
  5
19B
330
1E
100
AcDbEntity
  8
0
  6
PHANTOM
 62
     6
100
AcDbLine
 10
8.975006099999999
 20
-59.1500015
 30
0.0
 11
8.975006099999999
 21
-73.1500015
 31
0.0
  0
LINE
  5
19C
330
1E
100
AcDbEntity
  8
0
  6
PHANTOM
 62
     6
100
AcDbLine
 10
5.975006099999999
 20
-60.4415041
 30
0.0
 11
5.975006099999999
 21
-75.1500015
 31
0.0
  0
LINE
  5
19D
330
1E
100
AcDbEntity
  8
0
  6
PHANTOM
 62
     6
100
AcDbLine
 10
3.975006099999999
 20
-73.1500015
 30
0.0
 11
5.975006099999999
 21
-73.1500015
 31
0.0
  0
LINE
  5
19E
330
1E
100
AcDbEntity
  8
0
  6
PHANTOM
 62
     6
100
AcDbLine
 10
8.975006099999999
 20
-73.1500015
 30
0.0
 11
14.97500609999999
 21
-73.1500015
 31
0.0
  0
LINE
  5
19F
330
1E
100
AcDbEntity
  8
0
  6
PHANTOM
 62
     6
100
AcDbLine
 10
17.9750061
 20
-73.1500015
 30
0.0
 11
19.9750061
 21
-73.1500015
 31
0.0
  0
LINE
  5
1A0
330
1E
100
AcDbEntity
  8
0
  6
PHANTOM
 62
     6
100
AcDbLine
 10
6.572229039999999
 20
-49.2500015
 30
0.0
 11
7.87804059
 21
-49.2500015
 31
0.0
  0
LINE
  5
1A1
330
1E
100
AcDbEntity
  8
0
  6
PHANTOM
 62
     6
100
AcDbLine
 10
8.975006099999999
 20
-51.1500015
 30
0.0
 11
7.87804059
 21
-49.2500015
 31
0.0
  0
LINE
  5
1A2
330
1E
100
AcDbEntity
  8
0
  6
PHANTOM
 62
     6
100
AcDbLine
 10
16.07197159999999
 20
-49.2500015
 30
0.0
 11
17.3777832
 21
-49.2500015
 31
0.0
  0
CIRCLE
  5
1A3
330
1E
100
AcDbEntity
  8
0
  6
PHANTOM
 62
     6
100
AcDbCircle
 10
11.9750061
 20
-55.1500015
 30
0.0
 40
8.0
  0
LINE
  5
1A4
330
1E
100
AcDbEntity
  8
0
 62
     7
100
AcDbLine
 10
19.9958037
 20
-26.7542793
 30
0.0
 11
20.2076951
 21
-26.7542793
 31
0.0
  0
LINE
  5
1A5
330
1E
100
AcDbEntity
  8
0
 62
     7
100
AcDbLine
 10
3.9542085
 20
-26.7542793
 30
0.0
 11
3.74231711
 21
-26.7542793
 31
0.0
  0
LINE
  5
1A6
330
1E
100
AcDbEntity
  8
0
 62
     7
100
AcDbLine
 10
14.60088429999999
 20
-25.9500015
 30
0.0
 11
14.3839635
 21
-26.7542793
 31
0.0
  0
LINE
  5
1A7
330
1E
100
AcDbEntity
  8
0
 62
     7
100
AcDbLine
 10
16.6793453
 20
-25.9500015
 30
0.0
 11
17.5883999
 21
-26.7542793
 31
0.0
  0
LINE
  5
1A8
330
1E
100
AcDbEntity
  8
0
 62
     7
100
AcDbLine
 10
9.349127909999999
 20
-25.9500015
 30
0.0
 11
9.56604871
 21
-26.7542793
 31
0.0
  0
LINE
  5
1A9
330
1E
100
AcDbEntity
  8
0
 62
     7
100
AcDbLine
 10
7.27066692
 20
-25.9500015
 30
0.0
 11
6.36161228
 21
-26.7542793
 31
0.0
  0
LINE
  5
1AA
330
1E
100
AcDbEntity
  8
0
 62
     7
100
AcDbLine
 10
0.4750061040000001
 20
-54.1500015
 30
0.0
 11
5.975006099999999
 21
-54.1500015
 31
0.0
  0
LINE
  5
1AB
330
1E
100
AcDbEntity
  8
0
 62
     7
100
AcDbLine
 10
1.4750061
 20
-56.1500015
 30
0.0
 11
1.4750061
 21
-54.1500015
 31
0.0
  0
LINE
  5
1AC
330
1E
100
AcDbEntity
  8
0
 62
     7
100
AcDbLine
 10
2.6090061
 20
-56.1500015
 30
0.0
 11
2.6090061
 21
-54.1500015
 31
0.0
  0
LINE
  5
1AD
330
1E
100
AcDbEntity
  8
0
 62
     7
100
AcDbLine
 10
5.975006099999999
 20
-56.1500015
 30
0.0
 11
5.975006099999999
 21
-54.1500015
 31
0.0
  0
LINE
  5
1AE
330
1E
100
AcDbEntity
  8
0
 62
     7
100
AcDbLine
 10
3.975006099999999
 20
-59.1500015
 30
0.0
 11
8.975006099999999
 21
-59.1500015
 31
0.0
  0
LINE
  5
1AF
330
1E
100
AcDbEntity
  8
0
 62
     7
100
AcDbLine
 10
3.975006099999999
 20
-59.1500015
 30
0.0
 11
3.975006099999999
 21
-58.1500015
 31
0.0
  0
LINE
  5
1B0
330
1E
100
AcDbEntity
  8
0
 62
     7
100
AcDbLine
 10
3.975006099999999
 20
-58.1500015
 30
0.0
 11
7.975006099999999
 21
-58.1500015
 31
0.0
  0
LINE
  5
1B1
330
1E
100
AcDbEntity
  8
0
 62
     7
100
AcDbLine
 10
3.975006099999999
 20
-52.1500015
 30
0.0
 11
7.975006099999999
 21
-52.1500015
 31
0.0
  0
LINE
  5
1B2
330
1E
100
AcDbEntity
  8
0
 62
     7
100
AcDbLine
 10
3.975006099999999
 20
-52.1500015
 30
0.0
 11
3.975006099999999
 21
-51.1500015
 31
0.0
  0
LINE
  5
1B3
330
1E
100
AcDbEntity
  8
0
 62
     7
100
AcDbLine
 10
3.975006099999999
 20
-51.1500015
 30
0.0
 11
8.975006099999999
 21
-51.1500015
 31
0.0
  0
LINE
  5
1B4
330
1E
100
AcDbEntity
  8
0
  6
PHANTOM
 62
     6
100
AcDbLine
 10
14.97500609999999
 20
-51.1500015
 30
0.0
 11
16.07197159999999
 21
-49.2500015
 31
0.0
  0
LINE
  5
1B5
330
1E
100
AcDbEntity
  8
0
 62
     7
100
AcDbLine
 10
12.4750061
 20
-50.1750643
 30
0.0
 11
12.4750061
 21
-49.6500015
 31
0.0
  0
LINE
  5
1B6
330
1E
100
AcDbEntity
  8
0
 62
     7
100
AcDbLine
 10
12.4750061
 20
-49.6500015
 30
0.0
 11
19.9750061
 21
-49.6500015
 31
0.0
  0
LINE
  5
1B7
330
1E
100
AcDbEntity
  8
0
 62
     7
100
AcDbLine
 10
15.5457203
 20
-51.6500015
 30
0.0
 11
19.9750061
 21
-51.6500015
 31
0.0
  0
LINE
  5
1B8
330
1E
100
AcDbEntity
  8
0
 62
     7
100
AcDbLine
 10
19.9750061
 20
-51.6500015
 30
0.0
 11
19.9750061
 21
-49.6500015
 31
0.0
  0
LINE
  5
1B9
330
1E
100
AcDbEntity
  8
0
 62
     7
100
AcDbLine
 10
15.5457203
 20
-58.6500015
 30
0.0
 11
19.9750061
 21
-58.6500015
 31
0.0
  0
LINE
  5
1BA
330
1E
100
AcDbEntity
  8
0
 62
     7
100
AcDbLine
 10
12.4750061
 20
-60.6500015
 30
0.0
 11
12.4750061
 21
-60.1249387
 31
0.0
  0
LINE
  5
1BB
330
1E
100
AcDbEntity
  8
0
 62
     7
100
AcDbLine
 10
12.4750061
 20
-60.6500015
 30
0.0
 11
19.9750061
 21
-60.6500015
 31
0.0
  0
LINE
  5
1BC
330
1E
100
AcDbEntity
  8
0
 62
     7
100
AcDbLine
 10
19.9750061
 20
-60.6500015
 30
0.0
 11
19.9750061
 21
-58.6500015
 31
0.0
  0
LINE
  5
1BD
330
1E
100
AcDbEntity
  8
0
 62
     7
100
AcDbLine
 10
15.2406469
 20
-51.36376460000001
 30
0.0
 11
15.2406469
 21
-50.2500015
 31
0.0
  0
LINE
  5
1BE
330
1E
100
AcDbEntity
  8
0
 62
     7
100
AcDbLine
 10
12.9699935
 20
-60.0500015
 30
0.0
 11
15.2406469
 21
-60.0500015
 31
0.0
  0
LINE
  5
1BF
330
1E
100
AcDbEntity
  8
0
 62
     7
100
AcDbLine
 10
8.140646889999999
 20
-58.8500015
 30
0.0
 11
8.611971759999999
 21
-58.8500015
 31
0.0
  0
LINE
  5
1C0
330
1E
100
AcDbEntity
  8
0
 62
     7
100
AcDbLine
 10
12.9699935
 20
-50.2500015
 30
0.0
 11
15.2406469
 21
-50.2500015
 31
0.0
  0
LINE
  5
1C1
330
1E
100
AcDbEntity
  8
0
 62
     7
100
AcDbLine
 10
8.140646889999999
 20
-51.4500015
 30
0.0
 11
8.611971759999999
 21
-51.4500015
 31
0.0
  0
LINE
  5
1C2
330
1E
100
AcDbEntity
  8
0
 62
     7
100
AcDbLine
 10
15.2406469
 20
-60.0500015
 30
0.0
 11
15.2406469
 21
-58.9362385
 31
0.0
  0
ARC
  5
1C3
330
1E
100
AcDbEntity
  8
0
 62
     7
100
AcDbCircle
 10
8.140646889999999
 20
-55.1500015
 30
0.0
 40
3.7
100
AcDbArc
 50
90.00000020000001
 51
125.824774
  0
ARC
  5
1C4
330
1E
100
AcDbEntity
  8
0
 62
     7
100
AcDbCircle
 10
8.140646889999999
 20
-55.1500015
 30
0.0
 40
4.9
100
AcDbArc
 50
125.281262
 51
142.247999
  0
ARC
  5
1C5
330
1E
100
AcDbEntity
  8
0
 62
     7
100
AcDbCircle
 10
8.140646889999999
 20
-55.1500015
 30
0.0
 40
4.9
100
AcDbArc
 50
168.2242559999999
 51
192.479285
  0
ARC
  5
1C6
330
1E
100
AcDbEntity
  8
0
 62
     7
100
AcDbCircle
 10
8.140646889999999
 20
-55.1500015
 30
0.0
 40
3.7
100
AcDbArc
 50
164.3196499999999
 51
195.6803499999999
  0
ARC
  5
1C7
330
1E
100
AcDbEntity
  8
0
 62
     7
100
AcDbCircle
 10
8.140646889999999
 20
-55.1500015
 30
0.0
 40
3.7
100
AcDbArc
 50
234.175225
 51
270.0
  0
LINE
  5
1C8
330
1E
100
AcDbEntity
  8
0
 62
     7
100
AcDbLine
 10
0.4750061040000001
 20
-56.1500015
 30
0.0
 11
3.62220806
 21
-56.1500015
 31
0.0
  0
ARC
  5
1C9
330
1E
100
AcDbEntity
  8
0
 62
     7
100
AcDbCircle
 10
8.140646889999999
 20
-55.1500015
 30
0.0
 40
4.9
100
AcDbArc
 50
217.752002
 51
234.718738
  0
LINE
  5
1CA
330
1E
100
AcDbEntity
  8
0
 62
     7
100
AcDbLine
 10
3.62220806
 20
-56.1500015
 30
0.0
 11
5.975006099999999
 21
-56.1500015
 31
0.0
  0
LINE
  5
1CB
330
1E
100
AcDbEntity
  8
0
 62
     7
100
AcDbLine
 10
16.0981117
 20
-37.6500015
 30
0.0
 11
16.0981117
 21
-30.6500015
 31
0.0
  0
LINE
  5
1CC
330
1E
100
AcDbEntity
  8
0
 62
     7
100
AcDbLine
 10
14.8472874
 20
-30.1500015
 30
0.0
 11
16.0981117
 21
-30.6500015
 31
0.0
  0
LINE
  5
1CD
330
1E
100
AcDbEntity
  8
0
 62
     7
100
AcDbLine
 10
9.10272478
 20
-30.1500015
 30
0.0
 11
7.85190048
 21
-30.6500015
 31
0.0
  0
LINE
  5
1CE
330
1E
100
AcDbEntity
  8
0
 62
     7
100
AcDbLine
 10
7.85190048
 20
-37.6500015
 30
0.0
 11
7.85190048
 21
-30.6500015
 31
0.0
  0
LINE
  5
1CF
330
1E
100
AcDbEntity
  8
0
 62
     7
100
AcDbLine
 10
16.0981117
 20
-37.1500015
 30
0.0
 11
20.4750061
 21
-37.1500015
 31
0.0
  0
LINE
  5
1D0
330
1E
100
AcDbEntity
  8
0
 62
     7
100
AcDbLine
 10
16.0981117
 20
-30.6500015
 30
0.0
 11
20.9750061
 21
-30.6500015
 31
0.0
  0
LINE
  5
1D1
330
1E
100
AcDbEntity
  8
0
 62
     2
100
AcDbLine
 10
7.85190048
 20
-37.6500015
 30
0.0
 11
16.0981117
 21
-30.6500015
 31
0.0
  0
LINE
  5
1D2
330
1E
100
AcDbEntity
  8
0
 62
     2
100
AcDbLine
 10
7.85190048
 20
-30.6500015
 30
0.0
 11
16.0981117
 21
-37.6500015
 31
0.0
  0
LINE
  5
1D3
330
1E
100
AcDbEntity
  8
0
  6
CENTER
 62
     2
100
AcDbLine
 10
-22.34443839999999
 20
-55.1500015
 30
0.0
 11
36.125014
 21
-55.1500015
 31
0.0
  0
LINE
  5
1D4
330
1E
100
AcDbEntity
  8
0
  6
PHANTOM
 62
     6
100
AcDbLine
 10
-4.04947181
 20
-50.1439002
 30
0.0
 11
0.4750061040000001
 21
-50.2852912
 31
0.0
  0
LINE
  5
1D5
330
1E
100
AcDbEntity
  8
0
  6
PHANTOM
 62
     6
100
AcDbLine
 10
-2.5249939
 20
-50.7774835
 30
0.0
 11
0.4750061040000001
 21
-50.87123420000001
 31
0.0
  0
LINE
  5
1D6
330
1E
100
AcDbEntity
  8
0
  6
PHANTOM
 62
     6
100
AcDbLine
 10
-2.5249939
 20
-59.5226869
 30
0.0
 11
0.4750061040000001
 21
-59.4289376
 31
0.0
  0
LINE
  5
1D7
330
1E
100
AcDbEntity
  8
0
  6
PHANTOM
 62
     6
100
AcDbLine
 10
-4.024995399999999
 20
-60.1555637
 30
0.0
 11
0.4750061040000001
 21
-60.01493979999999
 31
0.0
  0
LINE
  5
1D8
330
1E
100
AcDbEntity
  8
0
  6
PHANTOM
 62
     6
100
AcDbLine
 10
-5.0249939
 20
-46.1500015
 30
0.0
 11
-15.2382426
 21
-46.1500015
 31
0.0
  0
LINE
  5
1D9
330
1E
100
AcDbEntity
  8
0
  6
PHANTOM
 62
     6
100
AcDbLine
 10
-5.0249939
 20
-64.1500015
 30
0.0
 11
-15.2382426
 21
-64.1500015
 31
0.0
  0
LINE
  5
1DA
330
1E
100
AcDbEntity
  8
0
  6
PHANTOM
 62
     6
100
AcDbLine
 10
-5.0249939
 20
-64.1500015
 30
0.0
 11
-5.0249939
 21
-46.1500015
 31
0.0
  0
LINE
  5
1DB
330
1E
100
AcDbEntity
  8
0
  6
PHANTOM
 62
     6
100
AcDbLine
 10
-18.1249939
 20
-59.88205229999999
 30
0.0
 11
-18.1249939
 21
-50.4179507
 31
0.0
  0
LINE
  5
1DC
330
1E
100
AcDbEntity
  8
0
  6
PHANTOM
 62
     6
100
AcDbLine
 10
-17.9910193
 20
-49.91795070000001
 30
0.0
 11
-16.10426799999999
 21
-46.6500015
 31
0.0
  0
ARC
  5
1DD
330
1E
100
AcDbEntity
  8
0
  6
PHANTOM
 62
     6
100
AcDbCircle
 10
-15.2382426
 20
-47.1500015
 30
0.0
 40
1.0
100
AcDbArc
 50
90.00000020000001
 51
150.0
  0
ARC
  5
1DE
330
1E
100
AcDbEntity
  8
0
  6
PHANTOM
 62
     6
100
AcDbCircle
 10
-17.1249939
 20
-50.4179507
 30
0.0
 40
1.0
100
AcDbArc
 50
150.0
 51
180.0
  0
LINE
  5
1DF
330
1E
100
AcDbEntity
  8
0
  6
PHANTOM
 62
     6
100
AcDbLine
 10
-9.0249939
 20
-59.27310720000001
 30
0.0
 11
-9.0249939
 21
-51.0268959
 31
0.0
  0
LINE
  5
1E0
330
1E
100
AcDbEntity
  8
0
  6
PHANTOM
 62
     6
100
AcDbLine
 10
-9.5249939
 20
-64.1500015
 30
0.0
 11
-9.5249939
 21
-46.1500015
 31
0.0
  0
ARC
  5
1E1
330
1E
100
AcDbEntity
  8
0
  6
PHANTOM
 62
     6
100
AcDbCircle
 10
-15.2382426
 20
-63.1500015
 30
0.0
 40
1.0
100
AcDbArc
 50
210.0
 51
270.0
  0
LINE
  5
1E2
330
1E
100
AcDbEntity
  8
0
  6
PHANTOM
 62
     6
100
AcDbLine
 10
-17.9910193
 20
-60.38205229999999
 30
0.0
 11
-16.10426799999999
 21
-63.6500015
 31
0.0
  0
ARC
  5
1E3
330
1E
100
AcDbEntity
  8
0
  6
PHANTOM
 62
     6
100
AcDbCircle
 10
-17.1249939
 20
-59.88205229999999
 30
0.0
 40
1.0
100
AcDbArc
 50
180.0
 51
210.0
  0
LINE
  5
1E4
330
1E
100
AcDbEntity
  8
0
  6
PHANTOM
 62
     6
100
AcDbLine
 10
-18.0087493
 20
-50.1136338
 30
0.0
 11
-18.0087493
 21
-49.9747153
 31
0.0
  0
LINE
  5
1E5
330
1E
100
AcDbEntity
  8
0
  6
PHANTOM
 62
     6
100
AcDbLine
 10
-5.0249939
 20
-50.2833511
 30
0.0
 11
-9.0249939
 21
-50.2833511
 31
0.0
  0
LINE
  5
1E6
330
1E
100
AcDbEntity
  8
0
  6
PHANTOM
 62
     6
100
AcDbLine
 10
-5.0249939
 20
-51.0268959
 30
0.0
 11
-9.0249939
 21
-51.0268959
 31
0.0
  0
LINE
  5
1E7
330
1E
100
AcDbEntity
  8
0
  6
PHANTOM
 62
     6
100
AcDbLine
 10
-9.0249939
 20
-50.2833511
 30
0.0
 11
-9.0249939
 21
-46.1500015
 31
0.0
  0
LINE
  5
1E8
330
1E
100
AcDbEntity
  8
0
  6
PHANTOM
 62
     6
100
AcDbLine
 10
-5.0249939
 20
-60.0166519
 30
0.0
 11
-9.0249939
 21
-60.0166519
 31
0.0
  0
LINE
  5
1E9
330
1E
100
AcDbEntity
  8
0
  6
PHANTOM
 62
     6
100
AcDbLine
 10
-5.0249939
 20
-59.27310720000001
 30
0.0
 11
-9.0249939
 21
-59.27310720000001
 31
0.0
  0
LINE
  5
1EA
330
1E
100
AcDbEntity
  8
0
  6
PHANTOM
 62
     6
100
AcDbLine
 10
-9.0249939
 20
-60.0166519
 30
0.0
 11
-9.0249939
 21
-64.1500015
 31
0.0
  0
LINE
  5
1EB
330
1E
100
AcDbEntity
  8
0
  6
PHANTOM
 62
     6
100
AcDbLine
 10
-2.5249939
 20
-50.2071648
 30
0.0
 11
-2.5249939
 21
-60.0930634
 31
0.0
  0
LINE
  5
1EC
330
1E
100
AcDbEntity
  8
0
  6
PHANTOM
 62
     6
100
AcDbLine
 10
-2.5249939
 20
-59.5226869
 30
0.0
 11
-4.024995399999999
 21
-60.1555637
 31
0.0
  0
LINE
  5
1ED
330
1E
100
AcDbEntity
  8
0
  6
PHANTOM
 62
     6
100
AcDbLine
 10
-2.5249939
 20
-50.7774835
 30
0.0
 11
-4.04947181
 21
-50.1439002
 31
0.0
  0
LINE
  5
1EE
330
1E
100
AcDbEntity
  8
0
  6
PHANTOM
 62
     6
100
AcDbLine
 10
-4.04947181
 20
-50.1439002
 30
0.0
 11
-4.5249939
 21
-50.1439002
 31
0.0
  0
ARC
  5
1EF
330
1E
100
AcDbEntity
  8
0
  6
PHANTOM
 62
     6
100
AcDbCircle
 10
-4.5249939
 20
-49.6439002
 30
0.0
 40
0.5
100
AcDbArc
 50
180.0
 51
270.0
  0
ARC
  5
1F0
330
1E
100
AcDbEntity
  8
0
  6
PHANTOM
 62
     6
100
AcDbCircle
 10
-4.5249939
 20
-60.6561029
 30
0.0
 40
0.5
100
AcDbArc
 50
90.00000020000001
 51
180.0
  0
LINE
  5
1F1
330
1E
100
AcDbEntity
  8
0
  6
PHANTOM
 62
     6
100
AcDbLine
 10
-4.04947181
 20
-60.1561029
 30
0.0
 11
-4.5249939
 21
-60.1561029
 31
0.0
  0
LINE
  5
1F2
330
1E
100
AcDbEntity
  8
0
  6
PHANTOM
 62
     6
100
AcDbLine
 10
19.9750061
 20
-73.1500015
 30
0.0
 11
19.9750061
 21
-76.1500015
 31
0.0
  0
ARC
  5
1F3
330
1E
100
AcDbEntity
  8
0
  6
PHANTOM
 62
     6
100
AcDbCircle
 10
16.9750061
 20
-75.1500015
 30
0.0
 40
1.0
100
AcDbArc
 50
270.0
 51
0.0
  0
ARC
  5
1F4
330
1E
100
AcDbEntity
  8
0
  6
PHANTOM
 62
     6
100
AcDbCircle
 10
6.975006099999999
 20
-75.1500015
 30
0.0
 40
1.0
100
AcDbArc
 50
180.0
 51
270.0
  0
LINE
  5
1F5
330
1E
100
AcDbEntity
  8
0
  6
PHANTOM
 62
     6
100
AcDbLine
 10
3.975006099999999
 20
-73.1500015
 30
0.0
 11
3.975006099999999
 21
-76.1500015
 31
0.0
  0
LINE
  5
1F6
330
1E
100
AcDbEntity
  8
0
  6
PHANTOM
 62
     6
100
AcDbLine
 10
-100.024994
 20
40.84999849999999
 30
0.0
 11
-56.0249939
 21
40.84999849999999
 31
0.0
  0
LINE
  5
1F7
330
1E
100
AcDbEntity
  8
0
  6
CENTER
 62
     2
100
AcDbLine
 10
-104.08063
 20
19.84999849999999
 30
0.0
 11
-51.94174249999999
 21
19.84999849999999
 31
0.0
  0
ARC
  5
1F8
330
1E
100
AcDbEntity
  8
0
 62
     7
100
AcDbCircle
 10
-78.0249939
 20
19.8499984
 30
0.0
 40
8.145386999999999
100
AcDbArc
 50
317.202216
 51
342.797785
  0
LINE
  5
1F9
330
1E
100
AcDbEntity
  8
0
 62
     7
100
AcDbLine
 10
-72.3529199
 20
15.1895844
 30
0.0
 11
-72.04826609999999
 21
14.3159172
 31
0.0
  0
LINE
  5
1FA
330
1E
100
AcDbEntity
  8
0
 62
     7
100
AcDbLine
 10
-72.65255709999999
 20
15.3625801
 30
0.0
 11
-72.04826609999999
 21
14.3159172
 31
0.0
  0
LINE
  5
1FB
330
1E
100
AcDbEntity
  8
0
 62
     7
100
AcDbLine
 10
-72.65255709999999
 20
15.3625801
 30
0.0
 11
-72.3529199
 21
15.1895844
 31
0.0
  0
ARC
  5
1FC
330
1E
100
AcDbEntity
  8
0
 62
     7
100
AcDbCircle
 10
-78.0249939
 20
19.8499984
 30
0.0
 40
7.0
100
AcDbArc
 50
320.1291109999999
 51
339.8708899999999
  0
ARC
  5
1FD
330
1E
100
AcDbEntity
  8
0
 62
     7
100
AcDbCircle
 10
-78.0249939
 20
19.8499984
 30
0.0
 40
7.341109
100
AcDbArc
 50
320.59204
 51
339.4079619999999
  0
LINE
  5
1FE
330
1E
100
AcDbEntity
  8
0
 62
     7
100
AcDbLine
 10
-71.45255709999999
 20
17.4410411
 30
0.0
 11
-71.1529199
 21
17.26804539999999
 31
0.0
  0
LINE
  5
1FF
330
1E
100
AcDbEntity
  8
0
 62
     7
100
AcDbLine
 10
-71.45255709999999
 20
17.4410411
 30
0.0
 11
-70.243975
 21
17.441041
 31
0.0
  0
LINE
  5
200
330
1E
100
AcDbEntity
  8
0
 62
     7
100
AcDbLine
 10
-71.1529199
 20
17.26804539999999
 30
0.0
 11
-70.243975
 21
17.441041
 31
0.0
  0
ARC
  5
201
330
1E
100
AcDbEntity
  8
0
 62
     7
100
AcDbCircle
 10
-78.0249939
 20
19.8499984
 30
0.0
 40
8.145386999999999
100
AcDbArc
 50
257.202216
 51
282.797785
  0
LINE
  5
202
330
1E
100
AcDbEntity
  8
0
 62
     7
100
AcDbLine
 10
-79.22499379999999
 20
12.6076313
 30
0.0
 11
-79.8292849
 21
11.90695969999999
 31
0.0
  0
LINE
  5
203
330
1E
100
AcDbEntity
  8
0
 62
     7
100
AcDbLine
 10
-79.22499379999999
 20
12.9536225
 30
0.0
 11
-79.8292849
 21
11.90695969999999
 31
0.0
  0
LINE
  5
204
330
1E
100
AcDbEntity
  8
0
 62
     7
100
AcDbLine
 10
-79.22499379999999
 20
12.9536225
 30
0.0
 11
-79.22499379999999
 21
12.6076313
 31
0.0
  0
ARC
  5
205
330
1E
100
AcDbEntity
  8
0
 62
     7
100
AcDbCircle
 10
-78.0249939
 20
19.8499984
 30
0.0
 40
7.0
100
AcDbArc
 50
260.1291109999999
 51
279.870891
  0
ARC
  5
206
330
1E
100
AcDbEntity
  8
0
 62
     7
100
AcDbCircle
 10
-78.0249939
 20
19.8499984
 30
0.0
 40
7.341109
100
AcDbArc
 50
260.59204
 51
279.407962
  0
LINE
  5
207
330
1E
100
AcDbEntity
  8
0
 62
     7
100
AcDbLine
 10
-76.8249938
 20
12.9536226
 30
0.0
 11
-76.8249938
 21
12.6076313
 31
0.0
  0
LINE
  5
208
330
1E
100
AcDbEntity
  8
0
 62
     7
100
AcDbLine
 10
-76.8249938
 20
12.9536226
 30
0.0
 11
-76.22070279999999
 21
11.9069598
 31
0.0
  0
LINE
  5
209
330
1E
100
AcDbEntity
  8
0
 62
     7
100
AcDbLine
 10
-76.8249938
 20
12.6076313
 30
0.0
 11
-76.22070279999999
 21
11.9069598
 31
0.0
  0
ARC
  5
20A
330
1E
100
AcDbEntity
  8
0
 62
     7
100
AcDbCircle
 10
-78.02499399999999
 20
19.84999849999999
 30
0.0
 40
8.145386999999999
100
AcDbArc
 50
197.202216
 51
222.797785
  0
LINE
  5
20B
330
1E
100
AcDbEntity
  8
0
 62
     7
100
AcDbLine
 10
-84.89706789999999
 20
17.2680453
 30
0.0
 11
-85.80601280000001
 21
17.441041
 31
0.0
  0
LINE
  5
20C
330
1E
100
AcDbEntity
  8
0
 62
     7
100
AcDbLine
 10
-84.59743059999999
 20
17.441041
 30
0.0
 11
-85.80601280000001
 21
17.441041
 31
0.0
  0
LINE
  5
20D
330
1E
100
AcDbEntity
  8
0
 62
     7
100
AcDbLine
 10
-84.59743059999999
 20
17.441041
 30
0.0
 11
-84.89706789999999
 21
17.2680453
 31
0.0
  0
ARC
  5
20E
330
1E
100
AcDbEntity
  8
0
 62
     7
100
AcDbCircle
 10
-78.02499399999999
 20
19.84999849999999
 30
0.0
 40
7.0
100
AcDbArc
 50
200.129111
 51
219.8708899999999
  0
ARC
  5
20F
330
1E
100
AcDbEntity
  8
0
 62
     7
100
AcDbCircle
 10
-78.02499399999999
 20
19.84999849999999
 30
0.0
 40
7.341109
100
AcDbArc
 50
200.5920399999999
 51
219.407962
  0
LINE
  5
210
330
1E
100
AcDbEntity
  8
0
 62
     7
100
AcDbLine
 10
-83.39743059999999
 20
15.36258
 30
0.0
 11
-83.69706779999999
 21
15.1895844
 31
0.0
  0
LINE
  5
211
330
1E
100
AcDbEntity
  8
0
 62
     7
100
AcDbLine
 10
-83.39743059999999
 20
15.36258
 30
0.0
 11
-84.00172170000001
 21
14.3159172
 31
0.0
  0
LINE
  5
212
330
1E
100
AcDbEntity
  8
0
 62
     7
100
AcDbLine
 10
-83.69706779999999
 20
15.1895844
 30
0.0
 11
-84.00172170000001
 21
14.3159172
 31
0.0
  0
ARC
  5
213
330
1E
100
AcDbEntity
  8
0
 62
     7
100
AcDbCircle
 10
-78.0249939
 20
19.8499986
 30
0.0
 40
8.145386999999999
100
AcDbArc
 50
137.2022169999999
 51
162.797785
  0
LINE
  5
214
330
1E
100
AcDbEntity
  8
0
 62
     7
100
AcDbLine
 10
-83.6970679
 20
24.5104125
 30
0.0
 11
-84.00172170000001
 21
25.3840797
 31
0.0
  0
LINE
  5
215
330
1E
100
AcDbEntity
  8
0
 62
     7
100
AcDbLine
 10
-83.3974307
 20
24.3374169
 30
0.0
 11
-84.00172170000001
 21
25.3840797
 31
0.0
  0
LINE
  5
216
330
1E
100
AcDbEntity
  8
0
 62
     7
100
AcDbLine
 10
-83.3974307
 20
24.3374169
 30
0.0
 11
-83.6970679
 21
24.5104125
 31
0.0
  0
ARC
  5
217
330
1E
100
AcDbEntity
  8
0
 62
     7
100
AcDbCircle
 10
-78.0249939
 20
19.84999849999999
 30
0.0
 40
7.0
100
AcDbArc
 50
140.129111
 51
159.87089
  0
ARC
  5
218
330
1E
100
AcDbEntity
  8
0
 62
     7
100
AcDbCircle
 10
-78.0249939
 20
19.8499986
 30
0.0
 40
7.341109
100
AcDbArc
 50
140.592039
 51
159.407962
  0
LINE
  5
219
330
1E
100
AcDbEntity
  8
0
 62
     7
100
AcDbLine
 10
-84.59743059999999
 20
22.25895589999999
 30
0.0
 11
-84.89706789999999
 21
22.4319515
 31
0.0
  0
LINE
  5
21A
330
1E
100
AcDbEntity
  8
0
 62
     7
100
AcDbLine
 10
-84.59743059999999
 20
22.25895589999999
 30
0.0
 11
-85.80601280000001
 21
22.25895589999999
 31
0.0
  0
LINE
  5
21B
330
1E
100
AcDbEntity
  8
0
 62
     7
100
AcDbLine
 10
-84.89706789999999
 20
22.4319515
 30
0.0
 11
-85.80601280000001
 21
22.25895589999999
 31
0.0
  0
ARC
  5
21C
330
1E
100
AcDbEntity
  8
0
 62
     7
100
AcDbCircle
 10
-78.0249939
 20
19.8499986
 30
0.0
 40
8.145386999999999
100
AcDbArc
 50
77.20221659999999
 51
102.797785
  0
LINE
  5
21D
330
1E
100
AcDbEntity
  8
0
 62
     7
100
AcDbLine
 10
-76.8249939
 20
27.0923657
 30
0.0
 11
-76.2207029
 21
27.79303719999999
 31
0.0
  0
LINE
  5
21E
330
1E
100
AcDbEntity
  8
0
 62
     7
100
AcDbLine
 10
-76.8249939
 20
26.7463744
 30
0.0
 11
-76.2207029
 21
27.79303719999999
 31
0.0
  0
LINE
  5
21F
330
1E
100
AcDbEntity
  8
0
 62
     7
100
AcDbLine
 10
-76.8249939
 20
26.7463744
 30
0.0
 11
-76.8249939
 21
27.0923657
 31
0.0
  0
ARC
  5
220
330
1E
100
AcDbEntity
  8
0
 62
     7
100
AcDbCircle
 10
-78.0249939
 20
19.84999849999999
 30
0.0
 40
7.0
100
AcDbArc
 50
80.1291108
 51
99.8708901
  0
ARC
  5
221
330
1E
100
AcDbEntity
  8
0
 62
     7
100
AcDbCircle
 10
-78.0249939
 20
19.8499986
 30
0.0
 40
7.341109
100
AcDbArc
 50
80.5920395
 51
99.40796150000002
  0
LINE
  5
222
330
1E
100
AcDbEntity
  8
0
 62
     7
100
AcDbLine
 10
-79.2249939
 20
26.7463744
 30
0.0
 11
-79.2249939
 21
27.0923656
 31
0.0
  0
LINE
  5
223
330
1E
100
AcDbEntity
  8
0
 62
     7
100
AcDbLine
 10
-79.2249939
 20
26.7463744
 30
0.0
 11
-79.82928499999999
 21
27.79303719999999
 31
0.0
  0
LINE
  5
224
330
1E
100
AcDbEntity
  8
0
 62
     7
100
AcDbLine
 10
-79.2249939
 20
27.0923656
 30
0.0
 11
-79.82928499999999
 21
27.79303719999999
 31
0.0
  0
LINE
  5
225
330
1E
100
AcDbEntity
  8
0
 62
     7
100
AcDbLine
 10
-71.1529199
 20
22.4319516
 30
0.0
 11
-70.243975
 21
22.258956
 31
0.0
  0
LINE
  5
226
330
1E
100
AcDbEntity
  8
0
 62
     7
100
AcDbLine
 10
-72.35292
 20
24.5104126
 30
0.0
 11
-72.04826609999999
 21
25.3840798
 31
0.0
  0
ARC
  5
227
330
1E
100
AcDbEntity
  8
0
 62
     7
100
AcDbCircle
 10
-78.02499379999999
 20
19.84999849999999
 30
0.0
 40
8.145386999999999
100
AcDbArc
 50
17.2022165
 51
42.7977847
  0
ARC
  5
228
330
1E
100
AcDbEntity
  8
0
 62
     7
100
AcDbCircle
 10
-78.02499379999999
 20
19.84999849999999
 30
0.0
 40
7.341109
100
AcDbArc
 50
20.59203969999999
 51
39.4079617
  0
LINE
  5
229
330
1E
100
AcDbEntity
  8
0
 62
     7
100
AcDbLine
 10
-81.48909549999999
 20
21.8499985
 30
0.0
 11
-81.2725891
 21
21.72499849999999
 31
0.0
  0
LINE
  5
22A
330
1E
100
AcDbEntity
  8
0
 62
     7
100
AcDbLine
 10
-81.48909549999999
 20
17.84999849999999
 30
0.0
 11
-81.2725891
 21
17.97499849999999
 31
0.0
  0
LINE
  5
22B
330
1E
100
AcDbEntity
  8
0
 62
     7
100
AcDbLine
 10
-82.13861450000001
 20
17.47499849999999
 30
0.0
 11
-81.92210820000001
 21
17.59999849999999
 31
0.0
  0
LINE
  5
22C
330
1E
100
AcDbEntity
  8
0
 62
     7
100
AcDbLine
 10
-82.13861450000001
 20
22.22499849999999
 30
0.0
 11
-81.92210809999998
 21
22.09999849999999
 31
0.0
  0
LINE
  5
22D
330
1E
100
AcDbEntity
  8
0
 62
     7
100
AcDbLine
 10
-81.03019770000001
 20
16.84479469999999
 30
0.0
 11
-82.13861450000001
 21
17.47499849999999
 31
0.0
  0
LINE
  5
22E
330
1E
100
AcDbEntity
  8
0
 62
     7
100
AcDbLine
 10
-81.03019770000001
 20
16.84479469999999
 30
0.0
 11
-81.2725891
 21
17.97499849999999
 31
0.0
  0
LINE
  5
22F
330
1E
100
AcDbEntity
  8
0
 62
     7
100
AcDbLine
 10
-81.0301976
 20
22.8552023
 30
0.0
 11
-81.2725891
 21
21.72499849999999
 31
0.0
  0
LINE
  5
230
330
1E
100
AcDbEntity
  8
0
 62
     7
100
AcDbLine
 10
-81.0301976
 20
22.8552023
 30
0.0
 11
-82.13861450000001
 21
22.22499849999999
 31
0.0
  0
ARC
  5
231
330
1E
100
AcDbEntity
  8
0
 62
     7
100
AcDbCircle
 10
-78.02499379999999
 20
19.84999849999999
 30
0.0
 40
4.5
100
AcDbArc
 50
150.0
 51
209.999999
  0
ARC
  5
232
330
1E
100
AcDbEntity
  8
0
 62
     7
100
AcDbCircle
 10
-78.0249939
 20
19.84999849999999
 30
0.0
 40
4.0
100
AcDbArc
 50
150.0
 51
209.999999
  0
ARC
  5
233
330
1E
100
AcDbEntity
  8
0
 62
     7
100
AcDbCircle
 10
-78.0249939
 20
19.84999849999999
 30
0.0
 40
7.804277779999999
100
AcDbArc
 50
342.020818
 51
17.9791824
  0
ARC
  5
234
330
1E
100
AcDbEntity
  8
0
 62
     7
100
AcDbCircle
 10
-78.0249939
 20
19.84999849999999
 30
0.0
 40
7.804277779999999
100
AcDbArc
 50
282.020818
 51
317.979183
  0
ARC
  5
235
330
1E
100
AcDbEntity
  8
0
 62
     7
100
AcDbCircle
 10
-78.0249939
 20
19.84999849999999
 30
0.0
 40
7.804277779999999
100
AcDbArc
 50
222.020818
 51
257.979182
  0
ARC
  5
236
330
1E
100
AcDbEntity
  8
0
 62
     7
100
AcDbCircle
 10
-78.0249939
 20
19.84999849999999
 30
0.0
 40
7.804277779999999
100
AcDbArc
 50
162.0208189999999
 51
197.979182
  0
ARC
  5
237
330
1E
100
AcDbEntity
  8
0
 62
     7
100
AcDbCircle
 10
-78.0249939
 20
19.84999849999999
 30
0.0
 40
7.804277779999999
100
AcDbArc
 50
102.020818
 51
137.979182
  0
ARC
  5
238
330
1E
100
AcDbEntity
  8
0
 62
     7
100
AcDbCircle
 10
-78.0249939
 20
19.84999849999999
 30
0.0
 40
7.804277779999999
100
AcDbArc
 50
42.0208183
 51
77.97918229999999
  0
LINE
  5
239
330
1E
100
AcDbEntity
  8
0
 62
     7
100
AcDbLine
 10
-71.4525572
 20
22.258956
 30
0.0
 11
-70.243975
 21
22.258956
 31
0.0
  0
LINE
  5
23A
330
1E
100
AcDbEntity
  8
0
 62
     7
100
AcDbLine
 10
-72.6525572
 20
24.337417
 30
0.0
 11
-72.04826609999999
 21
25.3840798
 31
0.0
  0
LINE
  5
23B
330
1E
100
AcDbEntity
  8
0
 62
     7
100
AcDbLine
 10
-71.4525572
 20
22.258956
 30
0.0
 11
-71.1529199
 21
22.4319516
 31
0.0
  0
LINE
  5
23C
330
1E
100
AcDbEntity
  8
0
 62
     7
100
AcDbLine
 10
-72.6525572
 20
24.337417
 30
0.0
 11
-72.35292
 21
24.5104126
 31
0.0
  0
ARC
  5
23D
330
1E
100
AcDbEntity
  8
0
 62
     7
100
AcDbCircle
 10
-78.02499379999999
 20
19.84999849999999
 30
0.0
 40
7.0
100
AcDbArc
 50
20.12911099999999
 51
39.87089029999999
  0
CIRCLE
  5
23E
330
1E
100
AcDbEntity
  8
0
 62
     7
100
AcDbCircle
 10
-78.0249939
 20
19.84999849999999
 30
0.0
 40
6.768093379999999
  0
CIRCLE
  5
23F
330
1E
100
AcDbEntity
  8
0
 62
     7
100
AcDbCircle
 10
-78.0249939
 20
19.84999849999999
 30
0.0
 40
6.0
  0
CIRCLE
  5
240
330
1E
100
AcDbEntity
  8
0
 62
     7
100
AcDbCircle
 10
-78.0249939
 20
19.84999849999999
 30
0.0
 40
8.25
  0
ARC
  5
241
330
1E
100
AcDbEntity
  8
0
 62
     7
100
AcDbCircle
 10
-78.0249939
 20
19.84999849999999
 30
0.0
 40
9.0
100
AcDbArc
 50
27.2660445
 51
152.733955
  0
ARC
  5
242
330
1E
100
AcDbEntity
  8
0
 62
     2
100
AcDbCircle
 10
-78.0249939
 20
19.84999849999999
 30
0.0
 40
8.5
100
AcDbArc
 50
19.7499228
 51
160.2500769999999
  0
LINE
  5
243
330
1E
100
AcDbEntity
  8
0
 62
     7
100
AcDbLine
 10
-92.02499389999999
 20
8.349998469999999
 30
0.0
 11
-64.0249939
 21
8.349998469999999
 31
0.0
  0
LINE
  5
244
330
1E
100
AcDbEntity
  8
0
 62
     7
100
AcDbLine
 10
-66.5249939
 20
11.3499985
 30
0.0
 11
-66.5249939
 21
28.34999849999999
 31
0.0
  0
LINE
  5
245
330
1E
100
AcDbEntity
  8
0
 62
     7
100
AcDbLine
 10
-93.02499389999999
 20
9.349998469999999
 30
0.0
 11
-93.02499389999999
 21
30.3499985
 31
0.0
  0
LINE
  5
246
330
1E
100
AcDbEntity
  8
0
 62
     7
100
AcDbLine
 10
-63.0249939
 20
9.349998469999999
 30
0.0
 11
-63.0249939
 21
30.3499985
 31
0.0
  0
ARC
  5
247
330
1E
100
AcDbEntity
  8
0
 62
     7
100
AcDbCircle
 10
-86.5249939
 20
11.3499985
 30
0.0
 40
3.0
100
AcDbArc
 50
180.0
 51
270.0
  0
ARC
  5
248
330
1E
100
AcDbEntity
  8
0
 62
     7
100
AcDbCircle
 10
-69.52499389999999
 20
11.3499985
 30
0.0
 40
3.0
100
AcDbArc
 50
270.0
 51
0.0
  0
ARC
  5
249
330
1E
100
AcDbEntity
  8
0
 62
     7
100
AcDbCircle
 10
-69.52499389999999
 20
28.34999849999999
 30
0.0
 40
3.0
100
AcDbArc
 50
0.0
 51
90.00000020000001
  0
ARC
  5
24A
330
1E
100
AcDbEntity
  8
0
 62
     7
100
AcDbCircle
 10
-86.5249939
 20
28.34999849999999
 30
0.0
 40
3.0
100
AcDbArc
 50
90.00000020000001
 51
180.0
  0
ARC
  5
24B
330
1E
100
AcDbEntity
  8
0
 62
     7
100
AcDbCircle
 10
-92.02499389999999
 20
9.349998469999999
 30
0.0
 40
1.0
100
AcDbArc
 50
180.0
 51
270.0
  0
ARC
  5
24C
330
1E
100
AcDbEntity
  8
0
 62
     7
100
AcDbCircle
 10
-64.0249939
 20
30.3499985
 30
0.0
 40
1.0
100
AcDbArc
 50
0.0
 51
90.00000020000001
  0
ARC
  5
24D
330
1E
100
AcDbEntity
  8
0
 62
     7
100
AcDbCircle
 10
-64.0249939
 20
9.349998469999999
 30
0.0
 40
1.0
100
AcDbArc
 50
270.0
 51
0.0
  0
ARC
  5
24E
330
1E
100
AcDbEntity
  8
0
 62
     7
100
AcDbCircle
 10
-92.02499389999999
 20
30.3499985
 30
0.0
 40
1.0
100
AcDbArc
 50
90.00000020000001
 51
180.0
  0
LINE
  5
24F
330
1E
100
AcDbEntity
  8
0
  6
CENTER
 62
     2
100
AcDbLine
 10
-78.0249939
 20
6.882821179999999
 30
0.0
 11
-78.0249939
 21
32.4860666
 31
0.0
  0
LINE
  5
250
330
1E
100
AcDbEntity
  8
0
 62
     7
100
AcDbLine
 10
-56.4178142
 20
24.7999985
 30
0.0
 11
-63.0249939
 21
24.7999985
 31
0.0
  0
LINE
  5
251
330
1E
100
AcDbEntity
  8
0
 62
     7
100
AcDbLine
 10
-55.7249939
 20
24.39999849999999
 30
0.0
 11
-56.4178142
 21
24.7999985
 31
0.0
  0
LINE
  5
252
330
1E
100
AcDbEntity
  8
0
 62
     7
100
AcDbLine
 10
-56.4178142
 20
14.8999985
 30
0.0
 11
-63.0249939
 21
14.8999985
 31
0.0
  0
LINE
  5
253
330
1E
100
AcDbEntity
  8
0
 62
     7
100
AcDbLine
 10
-55.7249939
 20
15.2999985
 30
0.0
 11
-56.4178142
 21
14.8999985
 31
0.0
  0
LINE
  5
254
330
1E
100
AcDbEntity
  8
0
 62
     7
100
AcDbLine
 10
-55.7249939
 20
24.39999849999999
 30
0.0
 11
-55.7249939
 21
15.2999985
 31
0.0
  0
LINE
  5
255
330
1E
100
AcDbEntity
  8
0
 62
     7
100
AcDbLine
 10
-55.1249939
 20
23.8839731
 30
0.0
 11
-55.1249939
 21
15.8160239
 31
0.0
  0
LINE
  5
256
330
1E
100
AcDbEntity
  8
0
 62
     7
100
AcDbLine
 10
-54.6249939
 20
24.7499985
 30
0.0
 11
-54.6249939
 21
14.94999849999999
 31
0.0
  0
LINE
  5
257
330
1E
100
AcDbEntity
  8
0
 62
     7
100
AcDbLine
 10
-53.62499389999999
 20
15.14999849999999
 30
0.0
 11
-53.62499389999999
 21
24.5499985
 31
0.0
  0
LINE
  5
258
330
1E
100
AcDbEntity
  8
0
  6
DASHED
 62
     2
100
AcDbLine
 10
-53.62499389999999
 20
22.84999849999999
 30
0.0
 11
-56.7249939
 21
22.84999849999999
 31
0.0
  0
ARC
  5
259
330
1E
100
AcDbEntity
  8
0
 62
     7
100
AcDbCircle
 10
-53.8249939
 20
24.5499985
 30
0.0
 40
0.2
100
AcDbArc
 50
0.0
 51
90.00000020000001
  0
LINE
  5
25A
330
1E
100
AcDbEntity
  8
0
 62
     7
100
AcDbLine
 10
-53.8249939
 20
24.7499985
 30
0.0
 11
-54.6249939
 21
24.7499985
 31
0.0
  0
LINE
  5
25B
330
1E
100
AcDbEntity
  8
0
 62
     7
100
AcDbLine
 10
-54.6249939
 20
24.7499985
 30
0.0
 11
-55.1249939
 21
23.8839731
 31
0.0
  0
LINE
  5
25C
330
1E
100
AcDbEntity
  8
0
 62
     7
100
AcDbLine
 10
-55.1249939
 20
23.34999849999999
 30
0.0
 11
-55.7249939
 21
23.34999849999999
 31
0.0
  0
LINE
  5
25D
330
1E
100
AcDbEntity
  8
0
  6
DASHED
 62
     2
100
AcDbLine
 10
-53.62499389999999
 20
16.84999849999999
 30
0.0
 11
-56.7249939
 21
16.84999849999999
 31
0.0
  0
ARC
  5
25E
330
1E
100
AcDbEntity
  8
0
 62
     7
100
AcDbCircle
 10
-53.8249939
 20
15.14999849999999
 30
0.0
 40
0.2
100
AcDbArc
 50
270.0
 51
0.0
  0
LINE
  5
25F
330
1E
100
AcDbEntity
  8
0
 62
     7
100
AcDbLine
 10
-55.1249939
 20
16.34999849999999
 30
0.0
 11
-55.7249939
 21
16.34999849999999
 31
0.0
  0
LINE
  5
260
330
1E
100
AcDbEntity
  8
0
 62
     7
100
AcDbLine
 10
-54.6249939
 20
14.94999849999999
 30
0.0
 11
-55.1249939
 21
15.8160239
 31
0.0
  0
LINE
  5
261
330
1E
100
AcDbEntity
  8
0
 62
     7
100
AcDbLine
 10
-53.8249939
 20
14.94999849999999
 30
0.0
 11
-54.6249939
 21
14.94999849999999
 31
0.0
  0
LINE
  5
262
330
1E
100
AcDbEntity
  8
0
  6
DASHED
 62
     2
100
AcDbLine
 10
-102.424994
 20
22.84999849999999
 30
0.0
 11
-99.3249939
 21
22.84999849999999
 31
0.0
  0
LINE
  5
263
330
1E
100
AcDbEntity
  8
0
 62
     7
100
AcDbLine
 10
-100.3249939999999
 20
24.39999849999999
 30
0.0
 11
-99.63217359999999
 21
24.7999985
 31
0.0
  0
LINE
  5
264
330
1E
100
AcDbEntity
  8
0
 62
     7
100
AcDbLine
 10
-102.424994
 20
15.14999849999999
 30
0.0
 11
-102.424994
 21
24.5499985
 31
0.0
  0
LINE
  5
265
330
1E
100
AcDbEntity
  8
0
 62
     7
100
AcDbLine
 10
-101.424994
 20
24.7499985
 30
0.0
 11
-101.424994
 21
14.94999849999999
 31
0.0
  0
LINE
  5
266
330
1E
100
AcDbEntity
  8
0
 62
     7
100
AcDbLine
 10
-100.9249939999999
 20
23.8839731
 30
0.0
 11
-100.9249939999999
 21
15.8160239
 31
0.0
  0
LINE
  5
267
330
1E
100
AcDbEntity
  8
0
 62
     7
100
AcDbLine
 10
-100.3249939999999
 20
24.39999849999999
 30
0.0
 11
-100.3249939999999
 21
15.2999985
 31
0.0
  0
LINE
  5
268
330
1E
100
AcDbEntity
  8
0
 62
     7
100
AcDbLine
 10
-100.9249939999999
 20
23.34999849999999
 30
0.0
 11
-100.3249939999999
 21
23.34999849999999
 31
0.0
  0
LINE
  5
269
330
1E
100
AcDbEntity
  8
0
 62
     7
100
AcDbLine
 10
-101.424994
 20
24.7499985
 30
0.0
 11
-100.9249939999999
 21
23.8839731
 31
0.0
  0
LINE
  5
26A
330
1E
100
AcDbEntity
  8
0
 62
     7
100
AcDbLine
 10
-102.224994
 20
24.7499985
 30
0.0
 11
-101.424994
 21
24.7499985
 31
0.0
  0
ARC
  5
26B
330
1E
100
AcDbEntity
  8
0
 62
     7
100
AcDbCircle
 10
-102.224994
 20
24.5499985
 30
0.0
 40
0.2
100
AcDbArc
 50
90.00000020000001
 51
180.0
  0
LINE
  5
26C
330
1E
100
AcDbEntity
  8
0
  6
DASHED
 62
     2
100
AcDbLine
 10
-102.424994
 20
16.84999849999999
 30
0.0
 11
-99.3249939
 21
16.84999849999999
 31
0.0
  0
LINE
  5
26D
330
1E
100
AcDbEntity
  8
0
 62
     7
100
AcDbLine
 10
-100.3249939999999
 20
15.2999985
 30
0.0
 11
-99.63217359999999
 21
14.8999985
 31
0.0
  0
LINE
  5
26E
330
1E
100
AcDbEntity
  8
0
 62
     7
100
AcDbLine
 10
-102.224994
 20
14.94999849999999
 30
0.0
 11
-101.424994
 21
14.94999849999999
 31
0.0
  0
LINE
  5
26F
330
1E
100
AcDbEntity
  8
0
 62
     7
100
AcDbLine
 10
-101.424994
 20
14.94999849999999
 30
0.0
 11
-100.9249939999999
 21
15.8160239
 31
0.0
  0
LINE
  5
270
330
1E
100
AcDbEntity
  8
0
 62
     7
100
AcDbLine
 10
-100.9249939999999
 20
16.34999849999999
 30
0.0
 11
-100.3249939999999
 21
16.34999849999999
 31
0.0
  0
ARC
  5
271
330
1E
100
AcDbEntity
  8
0
 62
     7
100
AcDbCircle
 10
-102.224994
 20
15.14999849999999
 30
0.0
 40
0.2
100
AcDbArc
 50
180.0
 51
270.0
  0
LINE
  5
272
330
1E
100
AcDbEntity
  8
0
 62
     7
100
AcDbLine
 10
-99.63217359999999
 20
14.8999985
 30
0.0
 11
-93.02499389999999
 21
14.8999985
 31
0.0
  0
LINE
  5
273
330
1E
100
AcDbEntity
  8
0
 62
     7
100
AcDbLine
 10
-99.63217359999999
 20
24.7999985
 30
0.0
 11
-93.02499389999999
 21
24.7999985
 31
0.0
  0
CIRCLE
  5
274
330
1E
100
AcDbEntity
  8
0
  6
PHANTOM
 62
     6
100
AcDbCircle
 10
-78.0249939
 20
19.84999849999999
 30
0.0
 40
12.0
  0
LINE
  5
275
330
1E
100
AcDbEntity
  8
0
  6
PHANTOM
 62
     6
100
AcDbLine
 10
-82.99555670000001
 20
31.8499985
 30
0.0
 11
-73.0544311
 21
31.8499985
 31
0.0
  0
LINE
  5
276
330
1E
100
AcDbEntity
  8
0
  6
PHANTOM
 62
     6
100
AcDbLine
 10
-82.99555670000001
 20
7.84999847
 30
0.0
 11
-73.0544311
 21
7.84999847
 31
0.0
  0
LINE
  5
277
330
1E
100
AcDbEntity
  8
0
  6
PHANTOM
 62
     6
100
AcDbLine
 10
-90.0249939
 20
14.87943569999999
 30
0.0
 11
-90.0249939
 21
24.8205612
 31
0.0
  0
LINE
  5
278
330
1E
100
AcDbEntity
  8
0
  6
PHANTOM
 62
     6
100
AcDbLine
 10
-66.0249939
 20
14.87943569999999
 30
0.0
 11
-66.0249939
 21
24.8205612
 31
0.0
  0
LINE
  5
279
330
1E
100
AcDbEntity
  8
0
  6
PHANTOM
 62
     6
100
AcDbLine
 10
-90.02499399999999
 20
24.8205612
 30
0.0
 11
-82.99555670000001
 21
31.8499985
 31
0.0
  0
LINE
  5
27A
330
1E
100
AcDbEntity
  8
0
  6
PHANTOM
 62
     6
100
AcDbLine
 10
-73.0544311
 20
7.849998499999999
 30
0.0
 11
-66.0249939
 21
14.87943569999999
 31
0.0
  0
LINE
  5
27B
330
1E
100
AcDbEntity
  8
0
  6
PHANTOM
 62
     6
100
AcDbLine
 10
-73.05443120000001
 20
31.8499986
 30
0.0
 11
-66.0249939
 21
24.8205613
 31
0.0
  0
LINE
  5
27C
330
1E
100
AcDbEntity
  8
0
  6
PHANTOM
 62
     6
100
AcDbLine
 10
-90.02499399999999
 20
14.87943569999999
 30
0.0
 11
-82.99555670000001
 21
7.84999847
 31
0.0
  0
LINE
  5
27D
330
1E
100
AcDbEntity
  8
0
 62
     7
100
AcDbLine
 10
-92.02499389999999
 20
31.34999849999999
 30
0.0
 11
-64.0249939
 21
31.34999849999999
 31
0.0
  0
LINE
  5
27E
330
1E
100
AcDbEntity
  8
0
 62
     7
100
AcDbLine
 10
-89.52499389999999
 20
11.3499985
 30
0.0
 11
-89.52499389999999
 21
28.34999849999999
 31
0.0
  0
LINE
  5
27F
330
1E
100
AcDbEntity
  8
0
  6
PHANTOM
 62
     6
100
AcDbLine
 10
-100.024994
 20
13.94999849999999
 30
0.0
 11
-93.02499389999999
 21
13.94999849999999
 31
0.0
  0
LINE
  5
280
330
1E
100
AcDbEntity
  8
0
  6
PHANTOM
 62
     6
100
AcDbLine
 10
-63.0249939
 20
13.94999849999999
 30
0.0
 11
-56.0249939
 21
13.94999849999999
 31
0.0
  0
LINE
  5
281
330
1E
100
AcDbEntity
  8
0
  6
PHANTOM
 62
     6
100
AcDbLine
 10
-89.52499389999999
 20
37.8499985
 30
0.0
 11
-66.5249939
 21
37.8499985
 31
0.0
  0
LINE
  5
282
330
1E
100
AcDbEntity
  8
0
  6
PHANTOM
 62
     6
100
AcDbLine
 10
-93.02499389999999
 20
31.4499985
 30
0.0
 11
-89.52499389999999
 21
31.4499985
 31
0.0
  0
LINE
  5
283
330
1E
100
AcDbEntity
  8
0
  6
PHANTOM
 62
     6
100
AcDbLine
 10
-66.5249939
 20
31.4499985
 30
0.0
 11
-63.0249939
 21
31.4499985
 31
0.0
  0
LINE
  5
284
330
1E
100
AcDbEntity
  8
0
  6
PHANTOM
 62
     6
100
AcDbLine
 10
-63.0249939
 20
30.3499985
 30
0.0
 11
-63.0249939
 21
31.4499985
 31
0.0
  0
LINE
  5
285
330
1E
100
AcDbEntity
  8
0
  6
PHANTOM
 62
     6
100
AcDbLine
 10
-93.02499389999999
 20
30.3499985
 30
0.0
 11
-93.02499389999999
 21
31.4499985
 31
0.0
  0
LINE
  5
286
330
1E
100
AcDbEntity
  8
0
 62
     7
100
AcDbLine
 10
-66.5249939
 20
25.1499985
 30
0.0
 11
-63.0249939
 21
25.1499985
 31
0.0
  0
LINE
  5
287
330
1E
100
AcDbEntity
  8
0
 62
     7
100
AcDbLine
 10
-66.5467536
 20
16.34999849999999
 30
0.0
 11
-63.0249939
 21
16.34999849999999
 31
0.0
  0
LINE
  5
288
330
1E
100
AcDbEntity
  8
0
 62
     7
100
AcDbLine
 10
-89.52499389999999
 20
14.5499985
 30
0.0
 11
-93.02499389999999
 21
14.5499985
 31
0.0
  0
LINE
  5
289
330
1E
100
AcDbEntity
  8
0
 62
     7
100
AcDbLine
 10
-89.52499389999999
 20
23.34999849999999
 30
0.0
 11
-93.02499389999999
 21
23.34999849999999
 31
0.0
  0
LINE
  5
28A
330
1E
100
AcDbEntity
  8
0
  6
DASHED
 62
     2
100
AcDbLine
 10
-93.02499389999999
 20
20.84999849999999
 30
0.0
 11
-90.0249939
 21
19.84999849999999
 31
0.0
  0
LINE
  5
28B
330
1E
100
AcDbEntity
  8
0
  6
DASHED
 62
     2
100
AcDbLine
 10
-93.02499389999999
 20
18.84999849999999
 30
0.0
 11
-90.0249939
 21
19.84999849999999
 31
0.0
  0
LINE
  5
28C
330
1E
100
AcDbEntity
  8
0
 62
     7
100
AcDbLine
 10
-70.0249939
 20
21.8655631
 30
0.0
 11
-70.0249939
 21
23.9731041
 31
0.0
  0
LINE
  5
28D
330
1E
100
AcDbEntity
  8
0
 62
     7
100
AcDbLine
 10
-70.0249939
 20
17.83443389999999
 30
0.0
 11
-70.0249939
 21
15.7268928
 31
0.0
  0
ARC
  5
28E
330
1E
100
AcDbEntity
  8
0
  6
DASHED
 62
     2
100
AcDbCircle
 10
-78.0249939
 20
19.84999849999999
 30
0.0
 40
8.5
100
AcDbArc
 50
340.2500769999999
 51
19.7499228
  0
ARC
  5
28F
330
1E
100
AcDbEntity
  8
0
  6
DASHED
 62
     2
100
AcDbCircle
 10
-78.0249939
 20
19.84999849999999
 30
0.0
 40
9.0
100
AcDbArc
 50
332.7339559999999
 51
27.2660445
  0
LINE
  5
290
330
1E
100
AcDbEntity
  8
0
 62
     7
100
AcDbLine
 10
-86.0249939
 20
21.8655631
 30
0.0
 11
-86.0249939
 21
23.9731041
 31
0.0
  0
LINE
  5
291
330
1E
100
AcDbEntity
  8
0
 62
     7
100
AcDbLine
 10
-86.0249939
 20
17.83443389999999
 30
0.0
 11
-86.0249939
 21
15.7268928
 31
0.0
  0
ARC
  5
292
330
1E
100
AcDbEntity
  8
0
  6
DASHED
 62
     2
100
AcDbCircle
 10
-78.0249939
 20
19.84999849999999
 30
0.0
 40
8.5
100
AcDbArc
 50
160.2500769999999
 51
199.749923
  0
ARC
  5
293
330
1E
100
AcDbEntity
  8
0
  6
DASHED
 62
     2
100
AcDbCircle
 10
-78.0249939
 20
19.84999849999999
 30
0.0
 40
9.0
100
AcDbArc
 50
152.733955
 51
207.2660439999999
  0
ARC
  5
294
330
1E
100
AcDbEntity
  8
0
 62
     2
100
AcDbCircle
 10
-78.0249939
 20
19.84999849999999
 30
0.0
 40
8.5
100
AcDbArc
 50
199.749923
 51
340.2500769999999
  0
ARC
  5
295
330
1E
100
AcDbEntity
  8
0
 62
     7
100
AcDbCircle
 10
-78.0249939
 20
19.84999849999999
 30
0.0
 40
9.0
100
AcDbArc
 50
207.2660439999999
 51
332.7339559999999
  0
LINE
  5
296
330
1E
100
AcDbEntity
  8
0
  6
PHANTOM
 62
     6
100
AcDbLine
 10
-89.52499389999999
 20
31.4499985
 30
0.0
 11
-89.52499389999999
 21
40.84999849999999
 31
0.0
  0
LINE
  5
297
330
1E
100
AcDbEntity
  8
0
  6
PHANTOM
 62
     6
100
AcDbLine
 10
-66.5249939
 20
31.4499985
 30
0.0
 11
-66.5249939
 21
40.84999849999999
 31
0.0
  0
LINE
  5
298
330
1E
100
AcDbEntity
  8
0
  6
PHANTOM
 62
     6
100
AcDbLine
 10
-56.0249939
 20
13.94999849999999
 30
0.0
 11
-56.0249939
 21
40.84999849999999
 31
0.0
  0
LINE
  5
299
330
1E
100
AcDbEntity
  8
0
  6
PHANTOM
 62
     6
100
AcDbLine
 10
-100.024994
 20
13.94999849999999
 30
0.0
 11
-100.024994
 21
40.84999849999999
 31
0.0
  0
LINE
  5
29A
330
1E
100
AcDbEntity
  8
0
 62
     7
100
AcDbLine
 10
-67.9999939
 20
94.50000000000001
 30
0.0
 11
-67.9999939
 21
84.50000000000001
 31
0.0
  0
LINE
  5
29B
330
1E
100
AcDbEntity
  8
0
 62
     7
100
AcDbLine
 10
-138.399994
 20
84.50000000000001
 30
0.0
 11
-67.9999939
 21
84.50000000000001
 31
0.0
  0
TEXT
  5
29C
330
1E
100
AcDbEntity
  8
0
 62
     7
100
AcDbText
 10
-136.3428499999999
 20
87.90000009999999
 30
0.0
 40
3.19999981
  1
SMALL-SIZED FR SERIES
 41
1.06060606
  7
MONOTXT
100
AcDbText
  0
TEXT
  5
29D
330
1E
100
AcDbEntity
  8
0
 62
     7
100
AcDbText
 10
-109.885995
 20
57.9000001
 30
0.0
 40
3.19999981
  1
RN111-J6(J4)
  7
MONOTXT
100
AcDbText
  0
TEXT
  5
29E
330
1E
100
AcDbEntity
  8
0
 62
     7
100
AcDbText
 10
-109.885995
 20
62.9000001
 30
0.0
 40
3.19999981
  1
RN110-J6(J4)
  7
MONOTXT
100
AcDbText
  0
TEXT
  5
29F
330
1E
100
AcDbEntity
  8
0
 62
     7
100
AcDbText
 10
-109.885995
 20
67.90000009999999
 30
0.0
 40
3.19999981
  1
RN101-J6(J4)
  7
MONOTXT
100
AcDbText
  0
LINE
  5
2A0
330
1E
100
AcDbEntity
  8
0
 62
     4
100
AcDbLine
 10
109.975006
 20
-47.1500015
 30
0.0
 11
116.975006
 21
-47.1500015
 31
0.0
  0
LINE
  5
2A1
330
1E
100
AcDbEntity
  8
0
 62
     4
100
AcDbLine
 10
109.975006
 20
-63.1500015
 30
0.0
 11
116.975006
 21
-63.1500015
 31
0.0
  0
LINE
  5
2A2
330
1E
100
AcDbEntity
  8
0
 62
     4
100
AcDbLine
 10
83.4750061
 20
-63.1500015
 30
0.0
 11
106.475006
 21
-63.1500015
 31
0.0
  0
LINE
  5
2A3
330
1E
100
AcDbEntity
  8
0
 62
     4
100
AcDbLine
 10
83.4750061
 20
-47.1500015
 30
0.0
 11
106.475006
 21
-47.1500015
 31
0.0
  0
LINE
  5
2A4
330
1E
100
AcDbEntity
  8
0
  6
DASHED
 62
     6
100
AcDbLine
 10
109.975006
 20
-51.0530355
 30
0.0
 11
116.975006
 21
-51.0530355
 31
0.0
  0
LINE
  5
2A5
330
1E
100
AcDbEntity
  8
0
  6
DASHED
 62
     6
100
AcDbLine
 10
109.975006
 20
-59.2469675
 30
0.0
 11
116.975006
 21
-59.2469675
 31
0.0
  0
LINE
  5
2A6
330
1E
100
AcDbEntity
  8
0
  6
DASHED
 62
     6
100
AcDbLine
 10
72.9750061
 20
-59.2469675
 30
0.0
 11
79.9750061
 21
-59.2469675
 31
0.0
  0
LINE
  5
2A7
330
1E
100
AcDbEntity
  8
0
  6
DASHED
 62
     6
100
AcDbLine
 10
72.9750061
 20
-51.0530355
 30
0.0
 11
79.9750061
 21
-51.0530355
 31
0.0
  0
LINE
  5
2A8
330
1E
100
AcDbEntity
  8
0
  6
DASHED
 62
     6
100
AcDbLine
 10
109.975006
 20
-58.1500015
 30
0.0
 11
109.975006
 21
-61.1500015
 31
0.0
  0
LINE
  5
2A9
330
1E
100
AcDbEntity
  8
0
  6
DASHED
 62
     6
100
AcDbLine
 10
79.9750061
 20
-58.1500015
 30
0.0
 11
79.9750061
 21
-61.1500015
 31
0.0
  0
CIRCLE
  5
2AA
330
1E
100
AcDbEntity
  8
0
 62
     4
100
AcDbCircle
 10
109.975006
 20
-55.1500015
 30
0.0
 40
1.75
  0
CIRCLE
  5
2AB
330
1E
100
AcDbEntity
  8
0
 62
     4
100
AcDbCircle
 10
79.9750061
 20
-55.1500015
 30
0.0
 40
1.75
  0
LINE
  5
2AC
330
1E
100
AcDbEntity
  8
0
  6
DASHED
 62
     6
100
AcDbLine
 10
106.475006
 20
-58.1500015
 30
0.0
 11
106.475006
 21
-61.1500015
 31
0.0
  0
LINE
  5
2AD
330
1E
100
AcDbEntity
  8
0
  6
DASHED
 62
     6
100
AcDbLine
 10
83.4750061
 20
-58.1500015
 30
0.0
 11
83.4750061
 21
-61.1500015
 31
0.0
  0
LINE
  5
2AE
330
1E
100
AcDbEntity
  8
0
  6
CENTER
 62
     6
100
AcDbLine
 10
109.975006
 20
-58.8613822
 30
0.0
 11
109.975006
 21
-51.50962299999999
 31
0.0
  0
LINE
  5
2AF
330
1E
100
AcDbEntity
  8
0
  6
CENTER
 62
     6
100
AcDbLine
 10
79.9750061
 20
-58.7082205
 30
0.0
 11
79.9750061
 21
-51.050138
 31
0.0
  0
LINE
  5
2B0
330
1E
100
AcDbEntity
  8
0
 62
     4
100
AcDbLine
 10
106.475006
 20
-61.1500015
 30
0.0
 11
109.975006
 21
-61.1500015
 31
0.0
  0
LINE
  5
2B1
330
1E
100
AcDbEntity
  8
0
  6
DASHED
 62
     6
100
AcDbLine
 10
106.475006
 20
-58.1500015
 30
0.0
 11
116.975006
 21
-58.1500015
 31
0.0
  0
LINE
  5
2B2
330
1E
100
AcDbEntity
  8
0
  6
DASHED
 62
     6
100
AcDbLine
 10
106.475006
 20
-52.1500015
 30
0.0
 11
116.975006
 21
-52.1500015
 31
0.0
  0
LINE
  5
2B3
330
1E
100
AcDbEntity
  8
0
 62
     4
100
AcDbLine
 10
106.475006
 20
-49.1500015
 30
0.0
 11
109.975006
 21
-49.1500015
 31
0.0
  0
LINE
  5
2B4
330
1E
100
AcDbEntity
  8
0
  6
DASHED
 62
     6
100
AcDbLine
 10
72.9750061
 20
-58.1500015
 30
0.0
 11
83.4750061
 21
-58.1500015
 31
0.0
  0
LINE
  5
2B5
330
1E
100
AcDbEntity
  8
0
  6
DASHED
 62
     6
100
AcDbLine
 10
72.9750061
 20
-52.1500015
 30
0.0
 11
83.4750061
 21
-52.1500015
 31
0.0
  0
LINE
  5
2B6
330
1E
100
AcDbEntity
  8
0
 62
     4
100
AcDbLine
 10
79.9750061
 20
-61.1500015
 30
0.0
 11
83.4750061
 21
-61.1500015
 31
0.0
  0
LINE
  5
2B7
330
1E
100
AcDbEntity
  8
0
 62
     4
100
AcDbLine
 10
79.9750061
 20
-49.1500015
 30
0.0
 11
83.4750061
 21
-49.1500015
 31
0.0
  0
LINE
  5
2B8
330
1E
100
AcDbEntity
  8
0
 62
     4
100
AcDbLine
 10
106.475006
 20
-47.1500015
 30
0.0
 11
106.475006
 21
-49.1500015
 31
0.0
  0
LINE
  5
2B9
330
1E
100
AcDbEntity
  8
0
 62
     4
100
AcDbLine
 10
83.4750061
 20
-47.1500015
 30
0.0
 11
83.4750061
 21
-49.1500015
 31
0.0
  0
LINE
  5
2BA
330
1E
100
AcDbEntity
  8
0
 62
     4
100
AcDbLine
 10
79.9750061
 20
-47.1500015
 30
0.0
 11
79.9750061
 21
-49.1500015
 31
0.0
  0
LINE
  5
2BB
330
1E
100
AcDbEntity
  8
0
 62
     4
100
AcDbLine
 10
109.975006
 20
-47.1500015
 30
0.0
 11
109.975006
 21
-49.1500015
 31
0.0
  0
LINE
  5
2BC
330
1E
100
AcDbEntity
  8
0
 62
     4
100
AcDbLine
 10
116.975006
 20
-47.1500015
 30
0.0
 11
116.975006
 21
-63.1500015
 31
0.0
  0
LINE
  5
2BD
330
1E
100
AcDbEntity
  8
0
 62
     4
100
AcDbLine
 10
72.9750061
 20
-47.1500015
 30
0.0
 11
72.9750061
 21
-63.1500015
 31
0.0
  0
LINE
  5
2BE
330
1E
100
AcDbEntity
  8
0
 62
     4
100
AcDbLine
 10
72.9750061
 20
-63.1500015
 30
0.0
 11
79.9750061
 21
-63.1500015
 31
0.0
  0
LINE
  5
2BF
330
1E
100
AcDbEntity
  8
0
 62
     4
100
AcDbLine
 10
72.9750061
 20
-47.1500015
 30
0.0
 11
79.9750061
 21
-47.1500015
 31
0.0
  0
LINE
  5
2C0
330
1E
100
AcDbEntity
  8
0
  6
CENTER
 62
     6
100
AcDbLine
 10
69.90026109999999
 20
-55.1500015
 30
0.0
 11
120.443606
 21
-55.1500015
 31
0.0
  0
LINE
  5
2C1
330
1E
100
AcDbEntity
  8
0
  6
DASHED
 62
     6
100
AcDbLine
 10
79.9750061
 20
-49.1500015
 30
0.0
 11
79.9750061
 21
-52.1500015
 31
0.0
  0
LINE
  5
2C2
330
1E
100
AcDbEntity
  8
0
  6
DASHED
 62
     6
100
AcDbLine
 10
83.4750061
 20
-49.1500015
 30
0.0
 11
83.4750061
 21
-52.1500015
 31
0.0
  0
LINE
  5
2C3
330
1E
100
AcDbEntity
  8
0
  6
DASHED
 62
     6
100
AcDbLine
 10
106.475006
 20
-49.1500015
 30
0.0
 11
106.475006
 21
-52.1500015
 31
0.0
  0
LINE
  5
2C4
330
1E
100
AcDbEntity
  8
0
  6
DASHED
 62
     6
100
AcDbLine
 10
109.975006
 20
-49.1500015
 30
0.0
 11
109.975006
 21
-52.1500015
 31
0.0
  0
LINE
  5
2C5
330
1E
100
AcDbEntity
  8
0
 62
     4
100
AcDbLine
 10
106.475006
 20
-61.1500015
 30
0.0
 11
106.475006
 21
-63.1500015
 31
0.0
  0
LINE
  5
2C6
330
1E
100
AcDbEntity
  8
0
 62
     4
100
AcDbLine
 10
109.975006
 20
-61.1500015
 30
0.0
 11
109.975006
 21
-63.1500015
 31
0.0
  0
LINE
  5
2C7
330
1E
100
AcDbEntity
  8
0
 62
     4
100
AcDbLine
 10
83.4750061
 20
-61.1500015
 30
0.0
 11
83.4750061
 21
-63.1500015
 31
0.0
  0
LINE
  5
2C8
330
1E
100
AcDbEntity
  8
0
 62
     4
100
AcDbLine
 10
79.9750061
 20
-61.1500015
 30
0.0
 11
79.9750061
 21
-63.1500015
 31
0.0
  0
LINE
  5
2C9
330
1E
100
AcDbEntity
  8
0
 62
     7
100
AcDbLine
 10
-138.399994
 20
94.50000000000001
 30
0.0
 11
138.350006
 21
94.50000000000001
 31
0.0
  0
LINE
  5
2CA
330
1E
100
AcDbEntity
  8
0
 62
     7
100
AcDbLine
 10
138.350006
 20
94.50000000000001
 30
0.0
 11
138.350006
 21
-94.80000309999999
 31
0.0
  0
LINE
  5
2CB
330
1E
100
AcDbEntity
  8
0
 62
     7
100
AcDbLine
 10
-138.399994
 20
-94.80000309999999
 30
0.0
 11
138.350006
 21
-94.80000309999999
 31
0.0
  0
LINE
  5
2CC
330
1E
100
AcDbEntity
  8
0
 62
     7
100
AcDbLine
 10
-138.399994
 20
94.50000000000001
 30
0.0
 11
-138.399994
 21
-94.80000309999999
 31
0.0
  0
LINE
  5
2CD
330
1E
100
AcDbEntity
  8
0
 62
     7
100
AcDbLine
 10
73.3500061
 20
-84.80000309999999
 30
0.0
 11
138.350006
 21
-84.80000309999999
 31
0.0
  0
LINE
  5
2CE
330
1E
100
AcDbEntity
  8
0
 62
     7
100
AcDbLine
 10
73.3500061
 20
84.50000000000001
 30
0.0
 11
138.350006
 21
84.50000000000001
 31
0.0
  0
LINE
  5
2CF
330
1E
100
AcDbEntity
  8
0
 62
     7
100
AcDbLine
 10
73.3500061
 20
-84.80000309999999
 30
0.0
 11
73.3500061
 21
-94.80000309999999
 31
0.0
  0
LINE
  5
2D0
330
1E
100
AcDbEntity
  8
0
 62
     7
100
AcDbLine
 10
73.3500061
 20
94.50000000000001
 30
0.0
 11
73.3500061
 21
84.50000000000001
 31
0.0
  0
TEXT
  5
2D1
330
1E
100
AcDbEntity
  8
0
 62
     7
100
AcDbText
 10
77.2426624
 20
-92.0500031
 30
0.0
 40
4.5
  1
KOGANEI CORP.
 41
1.0483871
  7
MONOTXT
100
AcDbText
  0
TEXT
  5
2D2
330
1E
100
AcDbEntity
  8
0
 62
     7
100
AcDbText
 10
93.5071493
 20
87.90000009999999
 30
0.0
 40
3.19999981
  1
Ver. 1.0
 41
1.081081079999999
  7
MONOTXT
100
AcDbText
  0
TEXT
  5
2D3
330
1E
100
AcDbEntity
  8
0
 62
     7
100
AcDbText
 10
-129.085994
 20
72.90000009999999
 30
0.0
 40
3.19999981
  1
MODEL:RN100-J6(J4)
  7
MONOTXT
100
AcDbText
  0
ENDSEC
  0
SECTION
  2
OBJECTS
  0
DICTIONARY
  5
C
330
0
100
AcDbDictionary
  3
ACAD_GROUP
350
D
  3
ACAD_MLINESTYLE
350
16
  3
ACAD_PLOTSETTINGS
350
18
  3
ACAD_LAYOUT
350
19
1001
ACAD
1000
TREAT_AS_HARD
1070
     0
  0
DICTIONARY
  5
30E
330
1E
100
AcDbDictionary
  3
ACAD_LAYOUTSELFREF
350
30F
  0
DICTIONARY
  5
30C
330
1A
100
AcDbDictionary
  3
ACAD_LAYOUTSELFREF
350
30D
  0
DICTIONARY
  5
D
102
{ACAD_REACTORS
330
C
102
}
330
C
100
AcDbDictionary
1001
ACAD
1000
TREAT_AS_HARD
1070
     0
  0
DICTIONARY
  5
16
102
{ACAD_REACTORS
330
C
102
}
330
C
100
AcDbDictionary
  3
STANDARD
350
17
1001
ACAD
1000
TREAT_AS_HARD
1070
     0
  0
DICTIONARY
  5
18
102
{ACAD_REACTORS
330
C
102
}
330
C
100
AcDbDictionary
1001
ACAD
1000
TREAT_AS_HARD
1070
     0
  0
DICTIONARY
  5
19
102
{ACAD_REACTORS
330
C
102
}
330
C
100
AcDbDictionary
1001
ACAD
1000
TREAT_AS_HARD
1070
     0
  0
XRECORD
  5
30F
102
{ACAD_REACTORS
330
30E
102
}
330
30E
100
AcDbXrecord
340
1E
  0
XRECORD
  5
30D
102
{ACAD_REACTORS
330
30C
102
}
330
30C
100
AcDbXrecord
340
1A
  0
MLINESTYLE
  5
17
102
{ACAD_REACTORS
330
16
102
}
330
16
100
AcDbMlineStyle
  2
STANDARD
 70
     0
  3

 62
   256
 51
90.0
 52
90.0
 71
     2
 49
0.5
 62
   256
  6
BYLAYER
 49
-0.5
 62
   256
  6
BYLAYER
  0
ENDSEC
  0
EOF
