  0
SECTION
  2
HEADER
  0
ENDSEC
  0
SECTION
  2
TABLES
  0
TABLE
  2
LTYPE
 70
     4
  0
LTYPE
  2
CONTINUOUS
 70
    64
  3
Solid line
 72
    65
 73
     0
 40
0.000000
  0
LTYPE
  2
DASHED
 70
    64
  3
__ __ __ __ __ __ __ __ __ __ __ __ __ __ __
 72
    65
 73
     2
 40
3.500000
 49
2.000000
 49
-1.500000
  0
LTYPE
  2
CENTER
 70
    64
  3
____ _ ____ _ ____ _ ____ _ ____ _ ____ _ ____
 72
    65
 73
     4
 40
17.500000
 49
13.000000
 49
-1.500000
 49
1.500000
 49
-1.500000
  0
LTYPE
  2
PHANTOM
 70
    64
  3
_____ _ _ _____ _ _ _____ _ _ _____ _ _ ____  
 72
    65
 73
     6
 40
15.500000
 49
8.000000
 49
-1.500000
 49
1.500000
 49
-1.500000
 49
1.500000
 49
-1.500000
  0
LTYPE
  2
DASHED1
 70
    64
  3
__ __ __ __ __ __ __ __ __ __ __ __ __ __ __
 72
    65
 73
     2
 40
1.500000
 49
1.000000
 49
-0.500000
  0
LTYPE
  2
DASHED2
 70
    64
  3
__ __ __ __ __ __ __ __ __ __ __ __ __ __ __
 72
    65
 73
     2
 40
3.500000
 49
2.500000
 49
-1.000000
  0
LTYPE
  2
DASHED3
 70
    64
  3
__ __ __ __ __ __ __ __ __ __ __ __ __ __ __
 72
    65
 73
     2
 40
6.000000
 49
4.000000
 49
-2.000000
  0
LTYPE
  2
DASHED4
 70
    64
  3
__ __ __ __ __ __ __ __ __ __ __ __ __ __ __
 72
    65
 73
     2
 40
12.000000
 49
10.000000
 49
-2.000000
  0
LTYPE
  2
DASHED5
 70
    64
  3
__ __ __ __ __ __ __ __ __ __ __ __ __ __ __
 72
    65
 73
     2
 40
17.000000
 49
15.000000
 49
-2.000000
  0
LTYPE
  2
DASHED6
 70
    64
  3
__ __ __ __ __ __ __ __ __ __ __ __ __ __ __
 72
    65
 73
     2
 40
29.000000
 49
27.000000
 49
-2.000000
  0
LTYPE
  2
PHANTOM1
 70
    64
  3
_____ _ _ _____ _ _ _____ _ _ _____ _ _ ____  
 72
    65
 73
     6
 40
31.000000
 49
25.000000
 49
-1.500000
 49
1.000000
 49
-1.000000
 49
1.000000
 49
-1.500000
  0
LTYPE
  2
PHANTOM2
 70
    64
  3
_____ _ _ _____ _ _ _____ _ _ _____ _ _ ____  
 72
    65
 73
     6
 40
36.000000
 49
27.000000
 49
-1.500000
 49
2.500000
 49
-1.000000
 49
2.500000
 49
-1.500000
  0
LTYPE
  2
PHANTOM3
 70
    64
  3
_____ _ _ _____ _ _ _____ _ _ _____ _ _ ____  
 72
    65
 73
     6
 40
78.000000
 49
64.000000
 49
-2.000000
 49
4.000000
 49
-2.000000
 49
4.000000
 49
-2.000000
  0
LTYPE
  2
CENTER1
 70
    64
  3
____ _ ____ _ ____ _ ____ _ ____ _ ____ _ ____
 72
    65
 73
     4
 40
19.000000
 49
14.000000
 49
-1.000000
 49
3.000000
 49
-1.000000
  0
LTYPE
  2
CENTER2
 70
    64
  3
____ _ ____ _ ____ _ ____ _ ____ _ ____ _ ____
 72
    65
 73
     4
 40
28.500000
 49
25.000000
 49
-1.000000
 49
1.500000
 49
-1.000000
  0
LTYPE
  2
CENTER3
 70
    64
  3
____ _ ____ _ ____ _ ____ _ ____ _ ____ _ ____
 72
    65
 73
     4
 40
31.500000
 49
27.000000
 49
-1.000000
 49
2.500000
 49
-1.000000
  0
LTYPE
  2
CENTER4
 70
    64
  3
____ _ ____ _ ____ _ ____ _ ____ _ ____ _ ____
 72
    65
 73
     4
 40
50.000000
 49
45.000000
 49
-1.000000
 49
3.000000
 49
-1.000000
  0
LTYPE
  2
CENTER5
 70
    64
  3
____ _ ____ _ ____ _ ____ _ ____ _ ____ _ ____
 72
    65
 73
     4
 40
100.000000
 49
92.000000
 49
-2.000000
 49
4.000000
 49
-2.000000
  0
LTYPE
  2
SBK1
 70
    64
  3
______ _ _ _ ______ _ _ _ ______ _ _ _ _____  
 72
    65
 73
     8
 40
60.500000
 49
45.000000
 49
-2.000000
 49
2.500000
 49
-2.000000
 49
2.500000
 49
-2.000000
 49
2.500000
 49
-2.000000
  0
LTYPE
  2
SBK2
 70
    64
  3
______ _ _ _ ______ _ _ _ ______ _ _ _ _____  
 72
    65
 73
     8
 40
84.000000
 49
64.000000
 49
-2.000000
 49
4.000000
 49
-2.000000
 49
4.000000
 49
-2.000000
 49
4.000000
 49
-2.000000
  0
LTYPE
  2
STCH
 70
    64
  3
__ __ __ __ __ __ __ __ __ __ __ __ __ __ __
 72
    65
 73
     2
 40
3.000000
 49
1.000000
 49
-2.000000
  0
LTYPE
  2
MTCH
 70
    64
  3
_____ _ _ _____ _ _ _____ _ _ _____ _ _ ____  
 72
    65
 73
     6
 40
80.000000
 49
66.000000
 49
-2.000000
 49
4.000000
 49
-2.000000
 49
4.000000
 49
-2.000000
  0
ENDTAB
  0
TABLE
  2
LAYER
 70
     1
  0
LAYER
  2
0
 70
     0
 62
     7
  6
CONTINUOUS
  0
ENDTAB
  0
TABLE
  2
STYLE
 70
     1
  0
STYLE
  2
STANDARD
 70
     0
 40
0.000000
 41
1.000000
 50
0.000000
 71
     0
 42
0.200000
  3
txt
  4
BIGFONT
  0
ENDTAB
  0
TABLE
  2
VIEW
 70
     0
  0
ENDTAB
  0
ENDSEC
  0
SECTION
  2
BLOCKS
  0
ENDSEC
  0
SECTION
  2
ENTITIES
  0
LINE
  8
0
  6
CENTER
 62
     2
 10
-4.160000
 20
-16.139999
 11
-4.160000
 21
-21.200001
  0
LINE
  8
0
  6
CENTER
 62
     2
 10
79.830002
 20
-16.139999
 11
79.830002
 21
-21.200001
  0
LINE
  8
0
  6
CENTER
 62
     2
 10
-15.160000
 20
69.889999
 11
-15.160000
 21
30.230000
  0
LINE
  8
0
  6
CENTER
 62
     2
 10
59.080002
 20
-38.500000
 11
78.419998
 21
-38.500000
  0
LINE
  8
0
 10
54.830002
 20
-17.700001
 11
54.830002
 21
-23.000000
  0
LINE
  8
0
 10
82.830002
 20
-17.700001
 11
82.830002
 21
-23.000000
  0
LINE
  8
0
 10
80.830002
 20
-9.700000
 11
80.830002
 21
-10.700000
  0
LINE
  8
0
 10
56.830002
 20
-9.700000
 11
56.830002
 21
-10.700000
  0
LINE
  8
0
 10
58.830002
 20
-6.700000
 11
78.830002
 21
-6.700000
  0
LINE
  8
0
 10
79.830002
 20
-7.700000
 11
79.830002
 21
-10.700000
  0
LINE
  8
0
 10
57.830002
 20
-7.700000
 11
57.830002
 21
-10.700000
  0
LINE
  8
0
 10
57.829998
 20
-7.700001
 11
58.829998
 21
-6.700000
  0
LINE
  8
0
 10
78.830002
 20
-6.700000
 11
79.829994
 21
-7.699998
  0
LINE
  8
0
 10
79.829994
 20
-8.700000
 11
80.829994
 21
-9.699998
  0
LINE
  8
0
 10
57.829998
 20
-8.700003
 11
56.830002
 21
-9.700001
  0
LINE
  8
0
 10
55.330002
 20
-15.700000
 11
82.330002
 21
-15.700000
  0
LINE
  8
0
 10
60.150002
 20
16.600000
 11
77.510002
 21
16.600000
  0
LINE
  8
0
 10
58.330002
 20
-3.400000
 11
79.330002
 21
-3.400000
  0
LINE
  8
0
 10
79.330002
 20
-3.399999
 11
79.800003
 21
-2.939997
  0
LINE
  8
0
 10
58.329998
 20
-3.400003
 11
57.860001
 21
-2.940004
  0
LINE
  8
0
 10
58.130001
 20
14.020000
 11
59.129997
 21
14.599999
  0
LINE
  8
0
 10
78.529999
 20
14.599998
 11
79.529999
 21
14.019998
  0
LINE
  8
0
 10
58.129997
 20
14.020000
 11
57.859997
 21
-2.940000
  0
LINE
  8
0
 10
79.529991
 20
14.020000
 11
79.799995
 21
-2.940000
  0
LINE
  8
0
 10
57.889999
 20
-0.900000
 11
58.829998
 21
-0.360001
  0
LINE
  8
0
 10
78.830002
 20
-0.359999
 11
79.770004
 21
-0.900000
  0
LINE
  8
0
 10
58.830002
 20
-0.360000
 11
59.150002
 21
15.620001
  0
LINE
  8
0
 10
78.830002
 20
-0.360000
 11
78.510002
 21
15.620000
  0
LINE
  8
0
 10
50.330002
 20
-53.000000
 11
51.830002
 21
-53.000000
  0
LINE
  8
0
 10
51.830002
 20
-23.500000
 11
51.830002
 21
-53.000000
  0
LINE
  8
0
 10
85.830002
 20
-23.500000
 11
85.830002
 21
-53.000000
  0
LINE
  8
0
 10
51.829998
 20
-23.500000
 11
52.329998
 21
-22.999998
  0
LINE
  8
0
 10
85.330002
 20
-22.999998
 11
85.830002
 21
-23.499998
  0
LINE
  8
0
 10
53.240002
 20
-15.200000
 11
84.419998
 21
-15.200000
  0
LINE
  8
0
 10
55.330002
 20
-15.200000
 11
55.330002
 21
-15.700000
  0
LINE
  8
0
 10
82.330002
 20
-15.200000
 11
82.330002
 21
-15.700000
  0
LINE
  8
0
 10
55.330002
 20
-10.700000
 11
82.330002
 21
-10.700000
  0
LINE
  8
0
  6
CENTER
 62
     2
 10
57.830002
 20
-16.139999
 11
57.830002
 21
-21.200001
  0
LINE
  8
0
 10
55.029999
 20
-18.030001
 11
55.029999
 21
-20.000000
  0
LINE
  8
0
 10
52.330002
 20
-23.000000
 11
85.330002
 21
-23.000000
  0
LINE
  8
0
 10
65.830002
 20
14.020000
 11
65.830002
 21
-0.900000
  0
LINE
  8
0
 10
65.519997
 20
14.600000
 11
65.519997
 21
-0.360000
  0
LINE
  8
0
 10
64.720001
 20
14.600000
 11
64.720001
 21
-0.360000
  0
LINE
  8
0
 10
63.689999
 20
14.020000
 11
63.689999
 21
-0.900000
  0
LINE
  8
0
 10
65.519997
 20
14.600000
 11
72.139999
 21
14.600000
  0
LINE
  8
0
 10
65.830002
 20
14.020000
 11
71.830002
 21
14.020000
  0
LINE
  8
0
 10
59.439999
 20
14.020000
 11
59.439999
 21
-0.900000
  0
LINE
  8
0
 10
59.439999
 20
14.020000
 11
63.689999
 21
14.020000
  0
LINE
  8
0
 10
60.040001
 20
14.600000
 11
64.720001
 21
14.600000
  0
LINE
  8
0
 10
64.720001
 20
-0.360000
 11
65.519997
 21
-0.360000
  0
LINE
  8
0
 10
63.689999
 20
-0.900000
 11
65.830002
 21
-0.900000
  0
LINE
  8
0
 10
57.889999
 20
-0.900000
 11
59.439999
 21
-0.900000
  0
LINE
  8
0
 10
64.720001
 20
14.600000
 11
63.689999
 21
14.020000
  0
LINE
  8
0
 10
65.519997
 20
14.599999
 11
65.829994
 21
14.019999
  0
LINE
  8
0
 10
60.040001
 20
14.599999
 11
59.440002
 21
14.020001
  0
LINE
  8
0
 10
64.720001
 20
-0.360001
 11
63.689999
 21
-0.899999
  0
LINE
  8
0
 10
65.520004
 20
-0.360000
 11
65.830002
 21
-0.899999
  0
LINE
  8
0
 10
58.830002
 20
-0.360000
 11
59.439999
 21
-0.360000
  0
LINE
  8
0
 10
78.830002
 20
-0.360000
 11
78.209999
 21
-0.360000
  0
LINE
  8
0
 10
79.769997
 20
-0.900000
 11
78.209999
 21
-0.900000
  0
LINE
  8
0
 10
78.209999
 20
14.020000
 11
78.209999
 21
-0.900000
  0
LINE
  8
0
 10
78.209999
 20
14.020000
 11
73.970001
 21
14.020000
  0
LINE
  8
0
 10
77.620003
 20
14.600002
 11
78.209999
 21
14.020000
  0
LINE
  8
0
 10
77.620003
 20
14.600000
 11
72.940002
 21
14.600000
  0
LINE
  8
0
 10
72.940002
 20
14.600000
 11
73.970001
 21
14.020000
  0
LINE
  8
0
 10
73.970001
 20
14.020000
 11
73.970001
 21
-0.900000
  0
LINE
  8
0
 10
72.940002
 20
14.600000
 11
72.940002
 21
-0.360000
  0
LINE
  8
0
 10
72.139999
 20
14.600000
 11
72.139999
 21
-0.360000
  0
LINE
  8
0
 10
71.830002
 20
14.020000
 11
71.830002
 21
-0.900000
  0
LINE
  8
0
 10
72.940002
 20
-0.360000
 11
72.139999
 21
-0.360000
  0
LINE
  8
0
 10
72.139999
 20
-0.360000
 11
71.830002
 21
-0.899999
  0
LINE
  8
0
 10
73.970001
 20
-0.900000
 11
71.830002
 21
-0.900000
  0
LINE
  8
0
 10
72.940002
 20
-0.360000
 11
73.969994
 21
-0.899997
  0
LINE
  8
0
 10
72.139999
 20
14.599998
 11
71.830002
 21
14.020000
  0
LINE
  8
0
 10
55.029999
 20
-20.000000
 11
60.830002
 21
-20.000000
  0
LINE
  8
0
 10
76.830002
 20
-17.700001
 11
76.830002
 21
-20.000000
  0
LINE
  8
0
 10
60.830002
 20
-17.700001
 11
60.830002
 21
-20.000000
  0
LINE
  8
0
 10
76.830002
 20
-20.000000
 11
82.629997
 21
-20.000000
  0
LINE
  8
0
 10
55.830002
 20
-16.700001
 11
56.830002
 21
-16.700001
  0
LINE
  8
0
 10
60.630001
 20
-18.030001
 11
60.630001
 21
-20.000000
  0
LINE
  8
0
 10
58.820000
 20
-16.700001
 11
78.830002
 21
-16.700001
  0
LINE
  8
0
 10
55.029999
 20
-19.299999
 11
60.630001
 21
-19.299999
  0
LINE
  8
0
 10
82.629997
 20
-18.030001
 11
82.629997
 21
-20.000000
  0
LINE
  8
0
 10
82.629997
 20
-19.299999
 11
77.029999
 21
-19.299999
  0
LINE
  8
0
 10
77.029999
 20
-18.030001
 11
77.029999
 21
-20.000000
  0
LINE
  8
0
 10
80.820000
 20
-16.700001
 11
81.830002
 21
-16.700001
  0
LINE
  8
0
 10
53.240002
 20
-11.910000
 11
53.240002
 21
-15.200000
  0
LINE
  8
0
 10
84.419998
 20
-11.910000
 11
84.419998
 21
-15.200000
  0
LINE
  8
0
 10
53.240002
 20
-11.910002
 11
55.330002
 21
-10.700000
  0
LINE
  8
0
 10
82.330002
 20
-10.700000
 11
84.419998
 21
-11.909999
  0
LINE
  8
0
 10
61.029999
 20
-11.910000
 11
61.029999
 21
-15.200000
  0
LINE
  8
0
 10
76.620003
 20
-11.910000
 11
76.620003
 21
-15.200000
  0
LINE
  8
0
 10
57.830002
 20
-7.700000
 11
79.830002
 21
-7.700000
  0
LINE
  8
0
 10
60.150002
 20
-3.400000
 11
60.150002
 21
-6.700000
  0
LINE
  8
0
 10
62.790001
 20
-3.400000
 11
62.790001
 21
-6.700000
  0
LINE
  8
0
 10
66.190002
 20
-3.400000
 11
66.190002
 21
-6.700000
  0
LINE
  8
0
 10
71.470001
 20
-3.400000
 11
71.470001
 21
-6.700000
  0
LINE
  8
0
 10
74.870003
 20
-3.400000
 11
74.870003
 21
-6.700000
  0
LINE
  8
0
 10
77.510002
 20
-3.400000
 11
77.510002
 21
-6.700000
  0
LINE
  8
0
 10
77.730003
 20
-3.400000
 11
77.730003
 21
-6.700000
  0
LINE
  8
0
 10
59.930000
 20
-3.400000
 11
59.930000
 21
-6.700000
  0
LINE
  8
0
 10
60.340000
 20
-23.500000
 11
60.340000
 21
-53.000000
  0
LINE
  8
0
 10
77.309998
 20
-23.500000
 11
77.309998
 21
-53.000000
  0
LINE
  8
0
 10
51.830002
 20
-23.500000
 11
85.830002
 21
-23.500000
  0
LINE
  8
0
 10
60.340000
 20
-23.500000
 11
60.430000
 21
-23.000000
  0
LINE
  8
0
 10
77.230003
 20
-23.000002
 11
77.310005
 21
-23.500002
  0
LINE
  8
0
  6
CENTER
 62
     2
 10
50.080002
 20
-39.000000
 11
62.529999
 21
-39.000000
  0
LINE
  8
0
  6
CENTER
 62
     2
 10
75.120003
 20
-32.000000
 11
87.639999
 21
-32.000000
  0
LINE
  8
0
  6
CENTER
 62
     2
 10
-44.660000
 20
49.919998
 11
15.190000
 21
49.919998
  0
LINE
  8
0
  6
CENTER
 62
     2
 10
68.830002
 20
20.559999
 11
68.830002
 21
-66.330002
  0
LINE
  8
0
 10
-32.160000
 20
68.419998
 11
-32.160000
 21
58.410000
  0
LINE
  8
0
 10
1.830000
 20
68.419998
 11
1.830000
 21
58.410000
  0
LINE
  8
0
 10
-23.650000
 20
32.919998
 11
-6.690000
 21
32.919998
  0
LINE
  8
0
 10
-23.650000
 20
66.919998
 11
-6.690000
 21
66.919998
  0
LINE
  8
0
 10
-26.160000
 20
63.919998
 11
-4.170000
 21
63.919998
  0
LINE
  8
0
 10
-26.160000
 20
35.919998
 11
-4.170000
 21
35.919998
  0
LINE
  8
0
 10
-1.170000
 20
60.919998
 11
-1.170000
 21
52.680000
  0
LINE
  8
0
 10
-29.160000
 20
60.919998
 11
-29.160000
 21
52.680000
  0
LINE
  8
0
 10
-23.530001
 20
33.419998
 11
-6.800000
 21
33.419998
  0
LINE
  8
0
 10
-23.530001
 20
66.419998
 11
-6.800000
 21
66.419998
  0
LINE
  8
0
 10
1.330000
 20
58.410000
 11
1.330000
 21
41.439999
  0
LINE
  8
0
 10
-31.660000
 20
58.290001
 11
-31.660000
 21
41.560001
  0
LINE
  8
0
  6
CENTER
 62
     2
 10
-26.160000
 20
64.620003
 11
-26.160000
 21
57.680000
  0
LINE
  8
0
  6
CENTER
 62
     2
 10
-4.170000
 20
64.849998
 11
-4.170000
 21
57.599998
  0
LINE
  8
0
  6
CENTER
 62
     2
 10
-30.840000
 20
60.919998
 11
-22.280001
 21
60.919998
  0
LINE
  8
0
  6
CENTER
 62
     2
 10
-31.299999
 20
38.919998
 11
-22.510000
 21
38.919998
  0
LINE
  8
0
  6
CENTER
 62
     2
 10
-26.160000
 20
42.259998
 11
-26.160000
 21
35.320000
  0
LINE
  8
0
  6
CENTER
 62
     2
 10
-4.170000
 20
42.869999
 11
-4.170000
 21
34.930000
  0
LINE
  8
0
  6
CENTER
 62
     2
 10
-7.870000
 20
38.919998
 11
-0.080000
 21
38.919998
  0
LINE
  8
0
  6
CENTER
 62
     2
 10
-7.640000
 20
60.919998
 11
-0.080000
 21
60.919998
  0
LINE
  8
0
 10
-28.160000
 20
41.919998
 11
-26.129999
 21
41.919998
  0
LINE
  8
0
 10
-28.160000
 20
57.919998
 11
-26.160000
 21
57.919998
  0
LINE
  8
0
 10
-4.200000
 20
57.919998
 11
-2.170000
 21
57.919998
  0
LINE
  8
0
 10
-4.170000
 20
41.919998
 11
-2.170000
 21
41.919998
  0
LINE
  8
0
 10
-27.660000
 20
37.419998
 11
-25.039999
 21
40.040001
  0
LINE
  8
0
 10
-27.660002
 20
40.420002
 11
-24.660000
 21
37.419998
  0
LINE
  8
0
 10
-27.660000
 20
59.420002
 11
-24.660000
 21
62.419998
  0
LINE
  8
0
 10
-27.660002
 20
62.419998
 11
-25.040001
 21
59.809998
  0
LINE
  8
0
 10
-5.289997
 20
59.809998
 11
-2.669998
 21
62.419998
  0
LINE
  8
0
 10
-5.669999
 20
62.419998
 11
-2.669998
 21
59.419998
  0
LINE
  8
0
 10
-5.670000
 20
37.419998
 11
-2.669999
 21
40.419998
  0
LINE
  8
0
 10
-5.290000
 20
40.040001
 11
-2.669999
 21
37.419998
  0
LINE
  8
0
 10
-10.020001
 20
40.539997
 11
-11.050001
 21
41.139999
  0
LINE
  8
0
 10
-5.790000
 20
44.779999
 11
-6.380001
 21
45.820000
  0
LINE
  8
0
 10
-18.160000
 20
39.650002
 11
-18.469999
 21
40.810001
  0
LINE
  8
0
 10
-12.160000
 20
39.650002
 11
-11.850000
 21
40.809998
  0
LINE
  8
0
 10
-24.550003
 20
44.780003
 11
-23.950003
 21
45.820000
  0
LINE
  8
0
 10
-20.299999
 20
40.540001
 11
-19.269999
 21
41.139999
  0
LINE
  8
0
 10
-25.430000
 20
52.919998
 11
-24.279999
 21
53.230000
  0
LINE
  8
0
 10
-25.430000
 20
46.919998
 11
-24.280003
 21
46.619999
  0
LINE
  8
0
 10
-20.300001
 20
59.310001
 11
-19.269999
 21
58.709999
  0
LINE
  8
0
 10
-24.549999
 20
55.070000
 11
-23.949999
 21
54.030003
  0
LINE
  8
0
 10
-12.159999
 20
60.200001
 11
-11.849999
 21
59.040001
  0
LINE
  8
0
 10
-18.160000
 20
60.200001
 11
-18.469999
 21
59.039997
  0
LINE
  8
0
 10
-5.789999
 20
55.070000
 11
-6.380000
 21
54.029999
  0
LINE
  8
0
 10
-10.019999
 20
59.309998
 11
-11.050000
 21
58.709999
  0
LINE
  8
0
 10
-4.900000
 20
46.920002
 11
-6.049999
 21
46.619999
  0
LINE
  8
0
 10
-4.899999
 20
52.919998
 11
-6.050000
 21
53.230000
  0
LINE
  8
0
 10
-20.059999
 20
54.919998
 11
-10.260000
 21
54.919998
  0
LINE
  8
0
 10
-20.059999
 20
44.919998
 11
-10.260000
 21
44.919998
  0
LINE
  8
0
 10
-30.750002
 20
49.920002
 11
-22.960003
 21
63.420002
  0
LINE
  8
0
 10
-7.380000
 20
36.420002
 11
0.419999
 21
49.919998
  0
LINE
  8
0
 10
-7.380001
 20
63.419998
 11
0.420001
 21
49.919998
  0
LINE
  8
0
 10
-30.750000
 20
49.920002
 11
-22.960001
 21
36.420002
  0
LINE
  8
0
 10
-22.959999
 20
36.419998
 11
-7.380000
 21
36.419998
  0
LINE
  8
0
 10
-22.959999
 20
63.419998
 11
-7.380000
 21
63.419998
  0
LINE
  8
0
 10
-29.160000
 20
47.169998
 11
-29.160000
 21
38.919998
  0
LINE
  8
0
 10
-1.170000
 20
47.169998
 11
-1.170000
 21
38.919998
  0
LINE
  8
0
 10
50.330002
 20
-62.000000
 11
87.330002
 21
-62.000000
  0
LINE
  8
0
 10
87.330002
 20
-53.000000
 11
87.330002
 21
-62.000000
  0
LINE
  8
0
 10
50.330002
 20
-53.000000
 11
50.330002
 21
-62.000000
  0
LINE
  8
0
 10
50.330002
 20
-60.000000
 11
87.330002
 21
-60.000000
  0
LINE
  8
0
 10
56.330002
 20
-60.000000
 11
56.330002
 21
-62.000000
  0
LINE
  8
0
 10
81.330002
 20
-60.000000
 11
81.330002
 21
-62.000000
  0
LINE
  8
0
 10
51.830002
 20
-53.000000
 11
85.830002
 21
-53.000000
  0
LINE
  8
0
 10
85.830002
 20
-53.000000
 11
87.330002
 21
-53.000000
  0
LINE
  8
0
  6
CENTER
 62
     2
 10
-15.160000
 20
18.860001
 11
-15.160000
 21
-11.910000
  0
LINE
  8
0
  6
CENTER
 62
     2
 10
-24.910000
 20
-39.000000
 11
-5.580000
 21
-39.000000
  0
LINE
  8
0
 10
-29.160000
 20
-17.700001
 11
-29.160000
 21
-23.000000
  0
LINE
  8
0
 10
-1.170000
 20
-17.700001
 11
-1.170000
 21
-23.000000
  0
LINE
  8
0
 10
-3.170000
 20
-9.700000
 11
-3.170000
 21
-10.700000
  0
LINE
  8
0
 10
-27.160000
 20
-9.700000
 11
-27.160000
 21
-10.700000
  0
LINE
  8
0
 10
-25.160000
 20
-6.700000
 11
-5.170000
 21
-6.700000
  0
LINE
  8
0
 10
-4.170000
 20
-7.700000
 11
-4.170000
 21
-10.700000
  0
LINE
  8
0
 10
-26.160000
 20
-7.700000
 11
-26.160000
 21
-10.700000
  0
LINE
  8
0
 10
-26.160000
 20
-7.700000
 11
-25.160000
 21
-6.699999
  0
LINE
  8
0
 10
-5.170000
 20
-6.700000
 11
-4.170000
 21
-7.700000
  0
LINE
  8
0
 10
-4.170000
 20
-8.700000
 11
-3.170000
 21
-9.700000
  0
LINE
  8
0
 10
-26.160000
 20
-8.700000
 11
-27.160000
 21
-9.699999
  0
LINE
  8
0
 10
-28.660000
 20
-15.700000
 11
-1.670000
 21
-15.700000
  0
LINE
  8
0
 10
-23.840000
 20
16.600000
 11
-6.490000
 21
16.600000
  0
LINE
  8
0
 10
-25.660000
 20
-3.400000
 11
-4.670000
 21
-3.400000
  0
LINE
  8
0
 10
-4.670000
 20
-3.400000
 11
-4.200000
 21
-2.940000
  0
LINE
  8
0
 10
-25.660000
 20
-3.399999
 11
-26.130001
 21
-2.939999
  0
LINE
  8
0
 10
-25.860001
 20
14.020000
 11
-24.860001
 21
14.599999
  0
LINE
  8
0
 10
-5.470000
 20
14.600000
 11
-4.470000
 21
14.020000
  0
LINE
  8
0
 10
-25.859999
 20
14.020000
 11
-26.129999
 21
-2.940000
  0
LINE
  8
0
 10
-4.470000
 20
14.020000
 11
-4.200000
 21
-2.940000
  0
LINE
  8
0
 10
-26.100000
 20
-0.900000
 11
-25.160000
 21
-0.360000
  0
LINE
  8
0
 10
-5.170000
 20
-0.360000
 11
-4.230000
 21
-0.900000
  0
LINE
  8
0
 10
-25.160000
 20
-0.360000
 11
-24.840000
 21
15.620000
  0
LINE
  8
0
 10
-5.170000
 20
-0.360000
 11
-5.490000
 21
15.620000
  0
LINE
  8
0
 10
-32.160000
 20
-53.000000
 11
1.830000
 21
-53.000000
  0
LINE
  8
0
 10
-32.160000
 20
-23.500000
 11
-32.160000
 21
-53.000000
  0
LINE
  8
0
 10
1.830000
 20
-23.500000
 11
1.830000
 21
-53.000000
  0
LINE
  8
0
 10
-32.160000
 20
-23.500000
 11
-31.659998
 21
-22.999998
  0
LINE
  8
0
 10
1.330001
 20
-23.000000
 11
1.830000
 21
-23.500000
  0
LINE
  8
0
 10
-28.660000
 20
-15.200000
 11
-1.670000
 21
-15.200000
  0
LINE
  8
0
 10
-28.660000
 20
-10.700000
 11
-28.660000
 21
-15.700000
  0
LINE
  8
0
 10
-1.670000
 20
-10.700000
 11
-1.670000
 21
-15.700000
  0
LINE
  8
0
 10
-28.660000
 20
-10.700000
 11
-1.670000
 21
-10.700000
  0
LINE
  8
0
  6
CENTER
 62
     2
 10
-26.160000
 20
-16.139999
 11
-26.160000
 21
-21.200001
  0
LINE
  8
0
 10
-28.959999
 20
-18.030001
 11
-28.959999
 21
-20.000000
  0
LINE
  8
0
 10
-31.660000
 20
-23.000000
 11
1.330000
 21
-23.000000
  0
LINE
  8
0
 10
-18.160000
 20
14.020000
 11
-18.160000
 21
-0.900000
  0
LINE
  8
0
 10
-18.469999
 20
14.600000
 11
-18.469999
 21
-0.360000
  0
LINE
  8
0
 10
-19.270000
 20
14.600000
 11
-19.270000
 21
-0.360000
  0
LINE
  8
0
 10
-20.299999
 20
14.020000
 11
-20.299999
 21
-0.900000
  0
LINE
  8
0
 10
-18.469999
 20
14.600000
 11
-11.850000
 21
14.600000
  0
LINE
  8
0
 10
-18.160000
 20
14.020000
 11
-12.160000
 21
14.020000
  0
LINE
  8
0
 10
-24.549999
 20
14.020000
 11
-24.549999
 21
-0.900000
  0
LINE
  8
0
 10
-24.549999
 20
14.020000
 11
-20.299999
 21
14.020000
  0
LINE
  8
0
 10
-23.950001
 20
14.600000
 11
-19.270000
 21
14.600000
  0
LINE
  8
0
 10
-19.270000
 20
-0.360000
 11
-18.469999
 21
-0.360000
  0
LINE
  8
0
 10
-20.299999
 20
-0.900000
 11
-18.160000
 21
-0.900000
  0
LINE
  8
0
 10
-26.100000
 20
-0.900000
 11
-24.549999
 21
-0.900000
  0
LINE
  8
0
 10
-19.270000
 20
14.599999
 11
-20.299999
 21
14.020000
  0
LINE
  8
0
 10
-18.469999
 20
14.600000
 11
-18.160000
 21
14.020000
  0
LINE
  8
0
 10
-23.950001
 20
14.599999
 11
-24.549999
 21
14.020000
  0
LINE
  8
0
 10
-19.269999
 20
-0.360000
 11
-20.299999
 21
-0.900000
  0
LINE
  8
0
 10
-18.470001
 20
-0.360000
 11
-18.160000
 21
-0.900000
  0
LINE
  8
0
 10
-25.160000
 20
-0.360000
 11
-24.549999
 21
-0.360000
  0
LINE
  8
0
 10
-5.170000
 20
-0.360000
 11
-5.790000
 21
-0.360000
  0
LINE
  8
0
 10
-4.230000
 20
-0.900000
 11
-5.790000
 21
-0.900000
  0
LINE
  8
0
 10
-5.790000
 20
14.020000
 11
-5.790000
 21
-0.900000
  0
LINE
  8
0
 10
-5.790000
 20
14.020000
 11
-10.020000
 21
14.020000
  0
LINE
  8
0
 10
-6.380001
 20
14.600000
 11
-5.790000
 21
14.020000
  0
LINE
  8
0
 10
-6.380000
 20
14.600000
 11
-11.050000
 21
14.600000
  0
LINE
  8
0
 10
-11.050000
 20
14.600000
 11
-10.020000
 21
14.020000
  0
LINE
  8
0
 10
-10.020000
 20
14.020000
 11
-10.020000
 21
-0.900000
  0
LINE
  8
0
 10
-11.050000
 20
14.600000
 11
-11.050000
 21
-0.360000
  0
LINE
  8
0
 10
-11.850000
 20
14.600000
 11
-11.850000
 21
-0.360000
  0
LINE
  8
0
 10
-12.160000
 20
14.020000
 11
-12.160000
 21
-0.900000
  0
LINE
  8
0
 10
-11.050000
 20
-0.360000
 11
-11.850000
 21
-0.360000
  0
LINE
  8
0
 10
-11.850000
 20
-0.360000
 11
-12.160001
 21
-0.900000
  0
LINE
  8
0
 10
-10.020000
 20
-0.900000
 11
-12.160000
 21
-0.900000
  0
LINE
  8
0
 10
-11.050000
 20
-0.360000
 11
-10.020000
 21
-0.900000
  0
LINE
  8
0
 10
-11.849999
 20
14.600000
 11
-12.160000
 21
14.020000
  0
LINE
  8
0
 10
-28.959999
 20
-20.000000
 11
-23.160000
 21
-20.000000
  0
LINE
  8
0
 10
-7.170000
 20
-17.700001
 11
-7.170000
 21
-20.000000
  0
LINE
  8
0
 10
-23.160000
 20
-17.700001
 11
-23.160000
 21
-20.000000
  0
LINE
  8
0
 10
-7.170000
 20
-20.000000
 11
-1.370000
 21
-20.000000
  0
LINE
  8
0
 10
-28.160000
 20
-16.700001
 11
-27.160000
 21
-16.700001
  0
LINE
  8
0
 10
-23.360001
 20
-18.030001
 11
-23.360001
 21
-20.000000
  0
LINE
  8
0
 10
-25.170000
 20
-16.700001
 11
-5.170000
 21
-16.700001
  0
LINE
  8
0
 10
-28.959999
 20
-19.299999
 11
-23.360001
 21
-19.299999
  0
LINE
  8
0
 10
-1.370000
 20
-18.030001
 11
-1.370000
 21
-20.000000
  0
LINE
  8
0
 10
-1.370000
 20
-19.299999
 11
-6.970000
 21
-19.299999
  0
LINE
  8
0
 10
-6.970000
 20
-18.030001
 11
-6.970000
 21
-20.000000
  0
LINE
  8
0
 10
-3.180000
 20
-16.700001
 11
-2.170000
 21
-16.700001
  0
LINE
  8
0
 10
-26.160000
 20
-7.700000
 11
-4.170000
 21
-7.700000
  0
LINE
  8
0
 10
-23.840000
 20
-3.400000
 11
-23.840000
 21
-6.700000
  0
LINE
  8
0
 10
-21.200001
 20
-3.400000
 11
-21.200001
 21
-6.700000
  0
LINE
  8
0
 10
-17.799999
 20
-3.400000
 11
-17.799999
 21
-6.700000
  0
LINE
  8
0
 10
-12.520000
 20
-3.400000
 11
-12.520000
 21
-6.700000
  0
LINE
  8
0
 10
-9.130000
 20
-3.400000
 11
-9.130000
 21
-6.700000
  0
LINE
  8
0
 10
-6.490000
 20
-3.400000
 11
-6.490000
 21
-6.700000
  0
LINE
  8
0
 10
-6.270000
 20
-3.400000
 11
-6.270000
 21
-6.700000
  0
LINE
  8
0
 10
-24.059999
 20
-3.400000
 11
-24.059999
 21
-6.700000
  0
LINE
  8
0
 10
-23.650000
 20
-23.500000
 11
-23.650000
 21
-53.000000
  0
LINE
  8
0
 10
-6.690000
 20
-23.500000
 11
-6.690000
 21
-53.000000
  0
LINE
  8
0
 10
-32.160000
 20
-23.500000
 11
1.830000
 21
-23.500000
  0
LINE
  8
0
 10
-23.650000
 20
-23.500000
 11
-23.559999
 21
-22.999998
  0
LINE
  8
0
 10
-6.770000
 20
-23.000000
 11
-6.690000
 21
-23.500000
  0
LINE
  8
0
  6
DASHED
 62
     2
 10
-32.160000
 20
-31.920000
 11
-22.760000
 21
-32.210003
  0
LINE
  8
0
  6
DASHED
 62
     2
 10
-32.160000
 20
-32.769997
 11
-22.760000
 21
-33.069996
  0
LINE
  8
0
  6
DASHED
 62
     2
 10
-32.160000
 20
-44.219997
 11
-22.760000
 21
-43.919998
  0
LINE
  8
0
  6
DASHED
 62
     2
 10
-32.160004
 20
-45.070004
 11
-22.760000
 21
-44.780003
  0
LINE
  8
0
  6
DASHED
 62
     2
 10
1.830000
 20
-45.070004
 11
-7.570000
 21
-44.780003
  0
LINE
  8
0
  6
DASHED
 62
     2
 10
1.830000
 20
-44.219997
 11
-7.570000
 21
-43.919998
  0
LINE
  8
0
  6
DASHED
 62
     2
 10
1.830000
 20
-32.770000
 11
-7.570000
 21
-33.070000
  0
LINE
  8
0
  6
DASHED
 62
     2
 10
1.830000
 20
-31.920000
 11
-7.570000
 21
-32.209999
  0
LINE
  8
0
  6
CENTER
 62
     2
 10
-76.500000
 20
-38.500000
 11
-21.459999
 21
-38.500000
  0
LINE
  8
0
  6
CENTER
 62
     2
 10
-8.880000
 20
-38.500000
 11
3.640000
 21
-38.500000
  0
LINE
  8
0
  6
CENTER
 62
     2
 10
-15.160000
 20
-15.200000
 11
-15.160000
 21
-60.160000
  0
LINE
  8
0
 10
-15.160000
 20
-11.910000
 11
-15.160000
 21
-15.200000
  0
LINE
  8
0
 10
-43.160000
 20
-62.000000
 11
-33.160000
 21
-62.000000
  0
LINE
  8
0
 10
12.830000
 20
-60.000000
 11
12.830000
 21
-62.000000
  0
LINE
  8
0
 10
-43.160000
 20
-60.000000
 11
-43.160000
 21
-62.000000
  0
LINE
  8
0
 10
-0.170000
 20
-56.000000
 11
-0.170000
 21
-59.000000
  0
LINE
  8
0
 10
-30.160000
 20
-56.000000
 11
-30.160000
 21
-59.000000
  0
LINE
  8
0
 10
-32.160000
 20
-56.000000
 11
-32.160000
 21
-59.000000
  0
LINE
  8
0
 10
-43.160000
 20
-60.000000
 11
-33.160000
 21
-60.000000
  0
LINE
  8
0
 10
1.830000
 20
-56.000000
 11
1.830000
 21
-59.000000
  0
LINE
  8
0
 10
2.830000
 20
-62.000000
 11
12.830000
 21
-62.000000
  0
LINE
  8
0
 10
2.830000
 20
-60.000000
 11
12.830000
 21
-60.000000
  0
LINE
  8
0
 10
-29.160000
 20
-55.000000
 11
-1.170000
 21
-55.000000
  0
LINE
  8
0
  6
CENTER
 62
     2
 10
7.330000
 20
-58.240002
 11
7.330000
 21
-63.470001
  0
LINE
  8
0
  6
CENTER
 62
     2
 10
-37.660000
 20
-58.240002
 11
-37.660000
 21
-63.549999
  0
LINE
  8
0
 10
-37.160000
 20
-60.000000
 11
-37.160000
 21
-62.000000
  0
LINE
  8
0
 10
6.830000
 20
-60.000000
 11
6.830000
 21
-62.000000
  0
LINE
  8
0
 10
-43.160000
 20
62.419998
 11
-43.160000
 21
37.419998
  0
LINE
  8
0
 10
12.830000
 20
62.419998
 11
12.830000
 21
37.419998
  0
LINE
  8
0
 10
-37.160000
 20
31.420000
 11
6.830000
 21
31.420000
  0
LINE
  8
0
 10
-37.160000
 20
68.419998
 11
6.830000
 21
68.419998
  0
LINE
  8
0
 10
-37.160000
 20
31.419998
 11
-43.160000
 21
37.419998
  0
LINE
  8
0
 10
-43.160000
 20
62.419998
 11
-37.160000
 21
68.419998
  0
LINE
  8
0
 10
6.830001
 20
68.419998
 11
12.830000
 21
62.419998
  0
LINE
  8
0
 10
12.830000
 20
37.419998
 11
6.830000
 21
31.420000
  0
LINE
  8
0
 10
-32.160000
 20
41.439999
 11
-32.160000
 21
31.420000
  0
LINE
  8
0
 10
1.830000
 20
41.439999
 11
1.830000
 21
31.420000
  0
LINE
  8
0
 10
1.830000
 20
58.410000
 11
1.830000
 21
41.439999
  0
LINE
  8
0
 10
-32.160000
 20
58.410000
 11
-32.160000
 21
41.439999
  0
LINE
  8
0
 10
1.330000
 20
41.559998
 11
1.830000
 21
41.439999
  0
LINE
  8
0
 10
1.330000
 20
58.290001
 11
1.829999
 21
58.410004
  0
LINE
  8
0
 10
-31.660002
 20
58.289997
 11
-32.160000
 21
58.410000
  0
LINE
  8
0
 10
-31.660000
 20
41.559998
 11
-32.160000
 21
41.439999
  0
LINE
  8
0
 10
-23.650002
 20
66.920006
 11
-23.530001
 21
66.420006
  0
LINE
  8
0
 10
-6.690001
 20
66.919998
 11
-6.800000
 21
66.419998
  0
LINE
  8
0
 10
-6.800000
 20
33.419998
 11
-6.690000
 21
32.920002
  0
LINE
  8
0
 10
-23.530001
 20
33.420002
 11
-23.650002
 21
32.920002
  0
LINE
  8
0
  6
CENTER
 62
     2
 10
-37.660000
 20
54.520000
 11
-37.660000
 21
45.599998
  0
LINE
  8
0
  6
CENTER
 62
     2
 10
7.330000
 20
54.430000
 11
7.330000
 21
45.330002
  0
LINE
  8
0
  6
PHANTOM
 62
     2
 10
-73.650002
 20
-18.250000
 11
-73.650002
 21
-58.750000
  0
LINE
  8
0
  6
PHANTOM
 62
     2
 10
-72.650002
 20
-17.250000
 11
-70.650002
 21
-17.250000
  0
LINE
  8
0
  6
PHANTOM
 62
     2
 10
-72.650002
 20
-59.750000
 11
-70.650002
 21
-59.750000
  0
LINE
  8
0
  6
PHANTOM
 62
     2
 10
-70.650002
 20
-17.250000
 11
-70.650002
 21
-59.750000
  0
LINE
  8
0
  6
PHANTOM
 62
     2
 10
-46.849998
 20
-19.500000
 11
-46.849998
 21
-57.500000
  0
LINE
  8
0
  6
PHANTOM
 62
     2
 10
-70.650002
 20
-17.500000
 11
-48.849998
 21
-17.500000
  0
LINE
  8
0
  6
PHANTOM
 62
     2
 10
-70.650002
 20
-59.500000
 11
-48.849998
 21
-59.500000
  0
LINE
  8
0
  6
PHANTOM
 62
     2
 10
-46.849998
 20
-45.500000
 11
-38.150002
 21
-45.500000
  0
LINE
  8
0
  6
PHANTOM
 62
     2
 10
-46.849998
 20
-31.500000
 11
-38.150002
 21
-31.500000
  0
LINE
  8
0
  6
PHANTOM
 62
     2
 10
-38.150002
 20
-31.500000
 11
-38.150002
 21
-45.500000
  0
LINE
  8
0
  6
PHANTOM
 62
     2
 10
-38.149998
 20
-31.730000
 11
-32.160000
 21
-31.920000
  0
LINE
  8
0
  6
PHANTOM
 62
     2
 10
-36.149998
 20
-32.650002
 11
-32.160000
 21
-32.770000
  0
LINE
  8
0
  6
PHANTOM
 62
     2
 10
-36.150002
 20
-44.340000
 11
-32.160000
 21
-44.220001
  0
LINE
  8
0
  6
PHANTOM
 62
     2
 10
-38.149998
 20
-45.259998
 11
-32.160000
 21
-45.070000
  0
LINE
  8
0
  6
PHANTOM
 62
     2
 10
-36.150002
 20
-31.790001
 11
-36.150002
 21
-45.200001
  0
LINE
  8
0
  6
PHANTOM
 62
     2
 10
-46.849998
 20
-45.500004
 11
-38.150002
 21
-31.500004
  0
LINE
  8
0
  6
PHANTOM
 62
     2
 10
-46.849998
 20
-31.499998
 11
-38.150002
 21
-45.500000
  0
LINE
  8
0
  6
PHANTOM
 62
     2
 10
-53.849998
 20
-55.570000
 11
-53.849998
 21
-62.080002
  0
LINE
  8
0
  6
PHANTOM
 62
     2
 10
-73.650002
 20
-18.250000
 11
-72.650002
 21
-17.250000
  0
LINE
  8
0
  6
PHANTOM
 62
     2
 10
-73.650002
 20
-58.750000
 11
-72.650002
 21
-59.750000
  0
LINE
  8
0
  6
PHANTOM
 62
     2
 10
-72.650002
 20
-17.250000
 11
-72.650002
 21
-59.750000
  0
LINE
  8
0
  6
PHANTOM
 62
     2
 10
-48.029999
 20
-50.500000
 11
-43.430000
 21
-50.500000
  0
LINE
  8
0
  6
PHANTOM
 62
     2
 10
-46.849998
 20
-53.250000
 11
-46.259998
 21
-53.250000
  0
LINE
  8
0
  6
PHANTOM
 62
     2
 10
-46.849998
 20
-47.750000
 11
-46.259998
 21
-47.750000
  0
LINE
  8
0
 10
-138.399994
 20
94.500000
 11
138.350006
 21
94.500000
  0
LINE
  8
0
 10
138.350006
 20
94.500000
 11
138.350006
 21
-94.800003
  0
LINE
  8
0
 10
-138.399994
 20
-94.800003
 11
138.350006
 21
-94.800003
  0
LINE
  8
0
 10
-138.399994
 20
94.500000
 11
-138.399994
 21
-94.800003
  0
CIRCLE
  8
0
 62
     2
 10
-15.160000
 20
-39.000000
 40
2.500000
  0
CIRCLE
  8
0
 10
-15.160000
 20
-39.000000
 40
2.066999
  0
ARC
  8
0
 10
55.831661
 20
-15.701663
 40
0.998339
 50
269.904541
 51
0.095453
  0
ARC
  8
0
 10
81.831665
 20
-15.698335
 40
1.001665
 50
180.095245
 51
269.904877
  0
ARC
  8
0
 10
81.831665
 20
-17.698338
 40
0.998338
 50
359.904541
 51
90.095451
  0
ARC
  8
0
 10
55.831665
 20
-17.701666
 40
1.001667
 50
90.095352
 51
179.904755
  0
ARC
  8
0
 10
60.151665
 20
15.598096
 40
1.001906
 50
90.095329
 51
178.747284
  0
ARC
  8
0
 10
77.511604
 20
15.601433
 40
0.998571
 50
1.065455
 51
90.091927
  0
ARC
  8
0
 10
57.830002
 20
-21.600004
 40
4.995410
 50
63.229786
 51
116.770210
  0
ARC
  8
0
 10
56.030121
 20
-18.033108
 40
1.000125
 50
116.747719
 51
179.822006
  0
ARC
  8
0
 10
59.634708
 20
-18.030125
 40
0.995293
 50
0.007137
 51
63.423214
  0
ARC
  8
0
 10
61.831665
 20
-17.701666
 40
1.001667
 50
90.095352
 51
179.904755
  0
ARC
  8
0
 10
75.831665
 20
-17.698338
 40
0.998338
 50
359.904541
 51
90.095451
  0
ARC
  8
0
 10
81.831665
 20
-20.998337
 40
0.998338
 50
359.904541
 51
90.095451
  0
ARC
  8
0
 10
55.831665
 20
-21.001665
 40
1.001667
 50
90.095352
 51
179.904755
  0
ARC
  8
0
 10
81.634712
 20
-18.030125
 40
0.995293
 50
0.007137
 51
63.423214
  0
ARC
  8
0
 10
79.830002
 20
-21.600004
 40
4.995410
 50
63.229786
 51
116.770210
  0
ARC
  8
0
 10
78.030121
 20
-18.033108
 40
1.000125
 50
116.747719
 51
179.822006
  0
ARC
  8
0
 10
57.131264
 20
-17.599909
 40
6.897479
 50
55.580997
 51
115.608871
  0
ARC
  8
0
 10
68.824997
 20
-36.494247
 40
25.790449
 50
72.407593
 51
107.592407
  0
ARC
  8
0
 10
80.518837
 20
-17.601175
 40
6.898580
 50
64.396385
 51
124.413742
  0
CIRCLE
  8
0
 62
     2
 10
68.833328
 20
-38.500000
 40
6.578500
  0
CIRCLE
  8
0
 10
68.833328
 20
-38.500000
 40
5.722500
  0
ARC
  8
0
 10
-15.163665
 20
49.924477
 40
18.493862
 50
26.893940
 51
43.053986
  0
CIRCLE
  8
0
 10
-15.166668
 20
49.928772
 40
9.700000
  0
CIRCLE
  8
0
 10
-15.166668
 20
49.928772
 40
10.700000
  0
CIRCLE
  8
0
 10
-15.166668
 20
49.928772
 40
11.000000
  0
ARC
  8
0
 10
-26.167713
 20
60.927715
 40
2.992297
 50
89.852310
 51
180.147690
  0
ARC
  8
0
 10
-4.163949
 20
60.926052
 40
2.993955
 50
359.884216
 51
90.115799
  0
ARC
  8
0
 10
-4.172726
 20
38.922726
 40
3.002725
 50
270.052002
 51
359.948029
  0
ARC
  8
0
 10
-26.158932
 20
38.921066
 40
3.001068
 50
180.020386
 51
269.979614
  0
ARC
  8
0
 10
-15.172721
 20
49.922722
 40
19.001289
 50
296.514771
 51
333.485229
  0
ARC
  8
0
 10
-15.172995
 20
49.924347
 40
18.506771
 50
296.899628
 51
313.048309
  0
ARC
  8
0
 10
-15.153967
 20
49.916069
 40
19.001287
 50
206.492371
 51
243.440353
  0
ARC
  8
0
 10
-15.165031
 20
49.926434
 40
18.495438
 50
206.894623
 51
223.053299
  0
ARC
  8
0
 10
-15.167720
 20
49.927719
 40
18.991753
 50
116.527657
 51
153.472351
  0
ARC
  8
0
 10
-15.166343
 20
49.929001
 40
18.490641
 50
116.892532
 51
133.055405
  0
ARC
  8
0
 10
-15.158967
 20
49.921074
 40
18.991756
 50
26.550056
 51
63.517235
  0
ARC
  8
0
 10
-22.160120
 20
36.923252
 40
1.003253
 50
189.365067
 51
270.006866
  0
ARC
  8
0
 10
-8.177087
 20
36.919933
 40
0.999960
 50
270.406067
 51
350.796509
  0
ARC
  8
0
 10
-2.163951
 20
56.926048
 40
0.993970
 50
359.651245
 51
90.348686
  0
ARC
  8
0
 10
-8.167460
 20
62.929443
 40
0.990560
 50
9.328053
 51
90.146843
  0
ARC
  8
0
 10
-22.169737
 20
62.926193
 40
0.993856
 50
89.438652
 51
170.513245
  0
ARC
  8
0
 10
-28.167713
 20
56.927715
 40
0.992317
 50
89.554634
 51
180.445374
  0
ARC
  8
0
 10
-28.158913
 20
42.921089
 40
1.001088
 50
180.062225
 51
269.937775
  0
ARC
  8
0
 10
-2.172738
 20
42.922737
 40
1.002743
 50
270.156433
 51
359.843506
  0
ARC
  8
0
 10
-26.168451
 20
60.925659
 40
2.800145
 50
26.841658
 51
273.243927
  0
ARC
  8
0
 10
-4.166706
 20
60.928841
 40
2.803034
 50
266.865021
 51
153.260986
  0
ARC
  8
0
 10
-4.171313
 20
38.920708
 40
2.803238
 50
206.955658
 51
93.040474
  0
ARC
  8
0
 10
-26.163843
 20
38.923870
 40
2.800356
 50
86.850761
 51
332.941742
  0
ARC
  8
0
 10
-15.166672
 20
49.919998
 40
7.005386
 50
314.460266
 51
45.539749
  0
ARC
  8
0
 10
-15.166664
 20
49.919998
 40
6.996051
 50
134.382294
 51
225.617706
  0
CIRCLE
  8
0
 10
-15.166668
 20
49.928772
 40
13.500000
  0
CIRCLE
  8
0
 10
-15.166668
 20
49.928772
 40
12.000000
  0
ARC
  8
0
 10
-15.168575
 20
49.926044
 40
18.491158
 50
136.944824
 51
153.107239
  0
ARC
  8
0
 10
-15.164754
 20
49.927433
 40
18.492538
 50
46.945438
 51
63.106636
  0
ARC
  8
0
 10
-15.167208
 20
49.928001
 40
18.498142
 50
316.947906
 51
333.104187
  0
ARC
  8
0
 10
-15.158100
 20
49.922783
 40
18.504881
 50
226.950867
 51
243.101227
  0
ARC
  8
0
 10
-28.163342
 20
-15.696659
 40
1.003347
 50
270.190826
 51
359.809235
  0
ARC
  8
0
 10
-2.168333
 20
-15.698333
 40
1.001668
 50
180.095352
 51
269.904633
  0
ARC
  8
0
 10
-2.168336
 20
-17.698336
 40
0.998337
 50
359.904449
 51
90.095520
  0
ARC
  8
0
 10
-28.163330
 20
-17.696671
 40
0.996675
 50
89.808556
 51
180.191452
  0
ARC
  8
0
 10
-23.843233
 20
15.603094
 40
0.996912
 50
89.814194
 51
179.028320
  0
ARC
  8
0
 10
-6.488394
 20
15.601435
 40
0.998567
 50
1.065349
 51
90.092117
  0
ARC
  8
0
 10
-26.160000
 20
-21.600006
 40
4.995414
 50
63.229809
 51
116.770195
  0
ARC
  8
0
 10
-27.967131
 20
-18.028627
 40
0.992871
 50
116.490479
 51
180.079254
  0
ARC
  8
0
 10
-24.362551
 20
-18.034611
 40
1.002561
 50
0.263463
 51
63.166786
  0
ARC
  8
0
 10
-22.163332
 20
-17.696669
 40
0.996673
 50
89.808441
 51
180.191559
  0
ARC
  8
0
 10
-8.168336
 20
-17.698336
 40
0.998337
 50
359.904449
 51
90.095505
  0
ARC
  8
0
 10
-2.168335
 20
-20.998335
 40
0.998337
 50
359.904449
 51
90.095535
  0
ARC
  8
0
 10
-28.163330
 20
-20.996670
 40
0.996675
 50
89.808556
 51
180.191452
  0
ARC
  8
0
 10
-2.365288
 20
-18.030123
 40
0.995288
 50
0.007027
 51
63.423218
  0
ARC
  8
0
 10
-4.170000
 20
-21.600004
 40
4.995410
 50
63.229782
 51
116.770210
  0
ARC
  8
0
 10
-5.969878
 20
-18.033110
 40
1.000126
 50
116.747864
 51
179.821884
  0
ARC
  8
0
 10
-21.910000
 20
-30.196447
 40
19.492476
 50
69.739594
 51
110.260406
  0
ARC
  8
0
 10
-8.415000
 20
-30.196423
 40
19.490723
 50
69.753357
 51
110.246643
  0
ARC
  8
0
 10
-33.163334
 20
-58.996666
 40
1.003340
 50
270.190399
 51
359.809601
  0
ARC
  8
0
 10
2.831667
 20
-58.998333
 40
1.001669
 50
180.095352
 51
269.904633
  0
ARC
  8
0
 10
-29.163322
 20
-55.996677
 40
0.996683
 50
89.808998
 51
180.191010
  0
ARC
  8
0
 10
-1.168335
 20
-55.998337
 40
0.998337
 50
359.904541
 51
90.095535
  0
ARC
  8
0
 10
-29.163326
 20
-55.996674
 40
2.996675
 50
89.936401
 51
180.063599
  0
ARC
  8
0
 10
-1.168334
 20
-55.998333
 40
2.998335
 50
359.968140
 51
90.031822
  0
ARC
  8
0
 10
-33.163330
 20
-58.996670
 40
3.003332
 50
270.063538
 51
359.936462
  0
ARC
  8
0
 10
2.831666
 20
-58.998333
 40
3.001667
 50
180.031815
 51
269.968201
  0
CIRCLE
  8
0
 10
7.333328
 20
49.928772
 40
2.750000
  0
CIRCLE
  8
0
 10
-37.666656
 20
49.928772
 40
2.750000
  0
ARC
  8
0
  6
PHANTOM
 62
     2
 10
-48.853333
 20
-57.496666
 40
2.003337
 50
270.095367
 51
359.904633
  0
ARC
  8
0
  6
PHANTOM
 62
     2
 10
-48.853333
 20
-19.503332
 40
2.003337
 50
0.095300
 51
89.904648
  0
ARC
  8
0
  6
PHANTOM
 62
     2
 10
-53.849998
 20
-59.500000
 40
1.150002
 50
0.000000
 51
180.000000
  0
ARC
  8
0
  6
PHANTOM
 62
     2
 10
-49.856663
 20
-50.494999
 40
4.999420
 50
334.084137
 51
25.915873
  0
ARC
  8
0
  6
PHANTOM
 62
     2
 10
-46.258503
 20
-48.750805
 40
1.000808
 50
26.132677
 51
90.085831
  0
ARC
  8
0
  6
PHANTOM
 62
     2
 10
-46.261967
 20
-52.251369
 40
0.998632
 50
270.112701
 51
334.582062
  0
TEXT
  8
0
 10
91.083344
 20
-31.000000
 40
3.200000
  1
OUT
 50
0.000000
 41
1.052632
 51
0.000000
  7
STANDARD
  0
TEXT
  8
0
 10
39.083328
 20
-38.000000
 40
3.200000
  1
IN
 50
0.000000
 41
1.052632
 51
0.000000
  7
STANDARD
  0
TEXT
  8
0
 10
-130.207001
 20
82.620003
 40
3.200000
  1
MODEL:RS110-M5-TF-B
 50
0.000000
 41
1.052632
 51
0.000000
  7
STANDARD
  0
LINE
  8
0
 62
     2
 10
98.833328
 20
-32.000000
 11
90.833344
 21
-32.000000
  0
LINE
  8
0
 62
     2
 10
98.833328
 20
-32.000000
 11
95.935547
 21
-31.223543
  0
LINE
  8
0
 62
     2
 10
98.833328
 20
-32.000000
 11
95.935555
 21
-32.776459
  0
LINE
  8
0
 62
     2
 10
46.833328
 20
-39.000000
 11
38.833328
 21
-39.000000
  0
LINE
  8
0
 62
     2
 10
46.833328
 20
-39.000000
 11
43.935551
 21
-38.223545
  0
LINE
  8
0
 62
     2
 10
46.833328
 20
-39.000000
 11
43.935551
 21
-39.776459
  0
ENDSEC
  0
EOF
