  0
SECTION
  2
HEADER
  9
$ACADVER
  1
AC1012
  9
$DWGCODEPAGE
  3
dos932
  9
$INSBASE
 10
0.0
 20
0.0
 30
0.0
  9
$EXTMIN
 10
-277.0
 20
-191.5
 30
0.0
  9
$EXTMAX
 10
277.0
 20
191.5
 30
0.0
  9
$LIMMIN
 10
-277.0
 20
-191.5
  9
$LIMMAX
 10
277.0
 20
191.5
  9
$ORTHOMODE
 70
               0
  9
$REGENMODE
 70
               1
  9
$FILLMODE
 70
               1
  9
$QTEXTMODE
 70
               0
  9
$MIRRTEXT
 70
               1
  9
$DRAGMODE
 70
               2
  9
$LTSCALE
 40
1.0
  9
$OSMODE
 70
               0
  9
$ATTMODE
 70
               1
  9
$TEXTSIZE
 40
3.2000000476837158
  9
$TRACEWID
 40
0.05
  9
$TEXTSTYLE
  7
MX_NOTE_STANDARD
  9
$CLAYER
  8
0
  9
$CELTYPE
  6
CONTINUOUS
  9
$CECOLOR
 62
             256
  9
$CELTSCALE
 40
1.0
  9
$DELOBJ
 70
               1
  9
$DISPSILH
 70
               0
  9
$DIMSCALE
 40
1.0
  9
$DIMASZ
 40
2.5
  9
$DIMEXO
 40
1.5
  9
$DIMDLI
 40
3.75
  9
$DIMRND
 40
0.0
  9
$DIMDLE
 40
0.0
  9
$DIMEXE
 40
1.5
  9
$DIMTP
 40
0.0
  9
$DIMTM
 40
0.0
  9
$DIMTXT
 40
3.2000000476837158
  9
$DIMCEN
 40
2.5
  9
$DIMTSZ
 40
0.0
  9
$DIMTOL
 70
               0
  9
$DIMLIM
 70
               0
  9
$DIMTIH
 70
               0
  9
$DIMTOH
 70
               0
  9
$DIMSE1
 70
               0
  9
$DIMSE2
 70
               0
  9
$DIMTAD
 70
               1
  9
$DIMZIN
 70
               8
  9
$DIMBLK
  1

  9
$DIMASO
 70
               1
  9
$DIMSHO
 70
               1
  9
$DIMPOST
  1

  9
$DIMAPOST
  1

  9
$DIMALT
 70
               0
  9
$DIMALTD
 70
               4
  9
$DIMALTF
 40
0.0394
  9
$DIMLFAC
 40
1.0
  9
$DIMTOFL
 70
               1
  9
$DIMTVP
 40
0.0
  9
$DIMTIX
 70
               0
  9
$DIMSOXD
 70
               0
  9
$DIMSAH
 70
               0
  9
$DIMBLK1
  1

  9
$DIMBLK2
  1

  9
$DIMSTYLE
  2
MXDIMSTYLE
  9
$DIMCLRD
 70
               0
  9
$DIMCLRE
 70
               0
  9
$DIMCLRT
 70
               0
  9
$DIMTFAC
 40
1.0
  9
$DIMGAP
 40
1.0
  9
$DIMJUST
 70
               0
  9
$DIMSD1
 70
               0
  9
$DIMSD2
 70
               0
  9
$DIMTOLJ
 70
               1
  9
$DIMTZIN
 70
               0
  9
$DIMALTZ
 70
               0
  9
$DIMALTTZ
 70
               0
  9
$DIMFIT
 70
               3
  9
$DIMUPT
 70
               1
  9
$DIMUNIT
 70
               2
  9
$DIMDEC
 70
               4
  9
$DIMTDEC
 70
               4
  9
$DIMALTU
 70
               8
  9
$DIMALTTD
 70
               4
  9
$DIMTXSTY
  7
MX_NOTE_STANDARD
  9
$DIMAUNIT
 70
               0
  9
$LUNITS
 70
               2
  9
$LUPREC
 70
               4
  9
$SKETCHINC
 40
0.1
  9
$FILLETRAD
 40
0.0
  9
$AUNITS
 70
               0
  9
$AUPREC
 70
               0
  9
$MENU
  1
acad
  9
$ELEVATION
 40
0.0
  9
$PELEVATION
 40
0.0
  9
$THICKNESS
 40
0.0
  9
$LIMCHECK
 70
               0
  9
$BLIPMODE
 70
               1
  9
$CHAMFERA
 40
0.0
  9
$CHAMFERB
 40
0.0
  9
$CHAMFERC
 40
0.0
  9
$CHAMFERD
 40
0.0
  9
$SKPOLY
 70
               0
  9
$TDCREATE
 40
2452208.585717592
  9
$TDUPDATE
 40
2452208.585717592
  9
$TDINDWG
 40
0.0000000000
  9
$TDUSRTIMER
 40
0.0000000000
  9
$USRTIMER
 70
               1
  9
$ANGBASE
 50
0.0
  9
$ANGDIR
 70
               0
  9
$PDMODE
 70
               0
  9
$PDSIZE
 40
0.0
  9
$PLINEWID
 40
0.0
  9
$COORDS
 70
               1
  9
$SPLFRAME
 70
               0
  9
$SPLINETYPE
 70
               6
  9
$SPLINESEGS
 70
               8
  9
$ATTDIA
 70
               0
  9
$ATTREQ
 70
               1
  9
$HANDLING
 70
               1
  9
$HANDSEED
  5
3E2
  9
$SURFTAB1
 70
               6
  9
$SURFTAB2
 70
               6
  9
$SURFTYPE
 70
               6
  9
$SURFU
 70
               6
  9
$SURFV
 70
               6
  9
$UCSNAME
  2

  9
$UCSORG
 10
0.0
 20
0.0
 30
0.0
  9
$UCSXDIR
 10
1.0
 20
0.0
 30
0.0
  9
$UCSYDIR
 10
0.0
 20
1.0
 30
0.0
  9
$PUCSNAME
  2

  9
$PUCSORG
 10
0.0
 20
0.0
 30
0.0
  9
$PUCSXDIR
 10
1.0
 20
0.0
 30
0.0
  9
$PUCSYDIR
 10
0.0
 20
1.0
 30
0.0
  9
$USERI1
 70
               0
  9
$USERI2
 70
               0
  9
$USERI3
 70
               0
  9
$USERI4
 70
               0
  9
$USERI5
 70
               0
  9
$USERR1
 40
0.0
  9
$USERR2
 40
0.0
  9
$USERR3
 40
0.0
  9
$USERR4
 40
0.0
  9
$USERR5
 40
0.0
  9
$WORLDVIEW
 70
               1
  9
$SHADEDGE
 70
               3
  9
$SHADEDIF
 70
              70
  9
$TILEMODE
 70
               1
  9
$MAXACTVP
 70
              16
  9
$PINSBASE
 10
0.0
 20
0.0
 30
0.0
  9
$PLIMCHECK
 70
               0
  9
$PEXTMIN
 10
1.0000000000000000E+20
 20
1.0000000000000000E+20
 30
1.0000000000000000E+20
  9
$PEXTMAX
 10
-1.0000000000000000E+20
 20
-1.0000000000000000E+20
 30
-1.0000000000000000E+20
  9
$PLIMMIN
 10
0.0
 20
0.0
  9
$PLIMMAX
 10
12.0
 20
9.0
  9
$UNITMODE
 70
               0
  9
$VISRETAIN
 70
               0
  9
$PLINEGEN
 70
               1
  9
$PSLTSCALE
 70
               0
  9
$TREEDEPTH
 70
            3020
  9
$PICKSTYLE
 70
               1
  9
$CMLSTYLE
  2
Standard
  9
$CMLJUST
 70
               0
  9
$CMLSCALE
 40
1.0
  9
$SAVEIMAGES
 70
               0
  0
ENDSEC
  0
SECTION
  2
CLASSES
  0
CLASS
  1
LWPOLYLINE
  2
AcDbPolyline
  3
"AutoCAD"
 90
        0
280
               0
281
               1
  0
CLASS
  1
IMAGE
  2
AcDbRasterImage
  3
ISM
 90
      127
280
               0
281
               1
  0
CLASS
  1
OLE2FRAME
  2
AcDbOle2Frame
  3
""
 90
        0
280
               0
281
               1
  0
CLASS
  1
HATCH
  2
AcDbHatch
  3
"ACAD_SEDONA"
 90
        0
280
               0
281
               1
  0
CLASS
  1
DICTIONARYVAR
  2
AcDbDictionaryVar
  3
"AutoCAD"
 90
        0
280
               0
281
               0
  0
CLASS
  1
RASTERVARIABLES
  2
AcDbRasterVariables
  3
ISM
 90
        0
280
               0
281
               0
  0
CLASS
  1
IMAGEDEF
  2
AcDbRasterImageDef
  3
ISM
 90
        0
280
               0
281
               0
  0
CLASS
  1
IMAGEDEF_REACTOR
  2
AcDbRasterImageDefReactor
  3
ISM
 90
        1
280
               0
281
               0
  0
CLASS
  1
IDBUFFER
  2
AcDbIdBuffer
  3
"Acad"
 90
        0
280
               0
281
               0
  0
CLASS
  1
SPATIAL_FILTER
  2
AcDbSpatialFilter
  3
"Acad"
 90
        0
280
               0
281
               0
  0
CLASS
  1
XRECORD
  2
AcDbXrecord
  3
"<Built In>"
 90
        0
280
               0
281
               0
  0
CLASS
  1
SORTENTSTABLE
  2
AcDbSortentsTable
  3
"AutoCAD"
 90
        0
280
               0
281
               0
  0
CLASS
  1
LAYER_INDEX
  2
AcDbLayerIndex
  3
"Acad"
 90
        0
280
               0
281
               0
  0
CLASS
  1
SPATIAL_INDEX
  2
AcDbSpatialIndex
  3
"Acad"
 90
        0
280
               0
281
               0
  0
CLASS
  1
OBJECT_PTR
  2
CAseDLPNTableRecord
  3
"ASE-LPNTableRecord"
 90
        1
280
               0
281
               0
  0
CLASS
  1
LAYOUT
  2
AcDbLayout
  3
"AutoCAD 2000"
 90
        1
280
               0
281
               0
  0
CLASS
  1
PLOTSETTINGS
  2
AcDbPlotSettings
  3
"AutoCAD 2000"
 90
        1
280
               0
281
               0
  0
CLASS
  1
ACDBDICTIONARYWDFLT
  2
AcDbDictionaryWithDefault
  3
"AutoCAD 2000"
 90
        1
280
               0
281
               0
  0
CLASS
  1
ACDBPLACEHOLDER
  2
AcDbPlaceHolder
  3
"AutoCAD 2000"
 90
        1
280
               0
281
               0
  0
CLASS
  1
VBA_PROJECT
  2
AcDbVbaProject
  3
"acadvba"
 90
        1
280
               0
281
               0
  0
CLASS
  1
WIPEOUT
  2
AcDbWipeout
  3
WipeOut|AutoCAD Express Tool|expresstools@autodesk.com
 90
      127
280
               0
281
               1
  0
CLASS
  1
WIPEOUTVARIABLES
  2
AcDbWipeoutVariables
  3
WipeOut|AutoCAD Express Tool|expresstools@autodesk.com
 90
        0
280
               0
281
               0
  0
CLASS
  1
RTEXT
  2
RText
  3
RText|AutoCAD Express Tool|expresstools@autodesk.com
 90
        0
280
               0
281
               1
  0
CLASS
  1
ARCALIGNEDTEXT
  2
AcDbArcAlignedText
  3
ATEXT|AutoCAD Express Tool|expresstools@autodesk.com
 90
        0
280
               0
281
               1
  0
ENDSEC
  0
SECTION
  2
TABLES
  0
TABLE
  2
VPORT
  5
7
100
AcDbSymbolTable
 70
               1
  0
VPORT
  5
15
100
AcDbSymbolTableRecord
100
AcDbViewportTableRecord
  2
*ACTIVE
 70
               0
 10
0.0
 20
0.0
 11
1.0
 21
1.0
 12
0.0
 22
0.0
 13
0.0
 23
0.0
 14
1.0
 24
1.0
 15
0.0
 25
0.0
 16
0.0
 26
0.0
 36
1.0
 17
0.0
 27
0.0
 37
0.0
 40
386.82999999999998
 41
1.7320508075688772
 42
50.0
 43
0.0
 44
0.0
 50
0.0
 51
0.0
 71
               0
 72
             100
 73
               1
 74
               1
 75
               0
 76
               0
 77
               0
 78
               0
  0
ENDTAB
  0
TABLE
  2
LTYPE
  5
4
100
AcDbSymbolTable
 70
               5
  0
LTYPE
  5
11
100
AcDbSymbolTableRecord
100
AcDbLinetypeTableRecord
  2
BYBLOCK
 70
              64
  3

 72
              65
 73
               0
 40
0.0
  0
LTYPE
  5
12
100
AcDbSymbolTableRecord
100
AcDbLinetypeTableRecord
  2
BYLAYER
 70
              64
  3

 72
              65
 73
               0
 40
0.0
  0
LTYPE
  5
13
100
AcDbSymbolTableRecord
100
AcDbLinetypeTableRecord
  2
CONTINUOUS
 70
              64
  3
Solid line
 72
              65
 73
               0
 40
0.0
  0
LTYPE
  5
4D
100
AcDbSymbolTableRecord
100
AcDbLinetypeTableRecord
  2
CENTER
 70
              64
  3
Center ____ _ ____ _ ____ _ ____ _ ____ _ ____
 72
              65
 73
               4
 40
50.800000000000004
 49
31.75
 74
               0
 49
-6.3499999999999996
 74
               0
 49
6.3499999999999996
 74
               0
 49
-6.3499999999999996
 74
               0
  0
LTYPE
  5
57
100
AcDbSymbolTableRecord
100
AcDbLinetypeTableRecord
  2
DASHED
 70
              64
  3
Dashed __ __ __ __ __ __ __ __ __ __ __ __ __ _
 72
              65
 73
               2
 40
19.049999999999997
 49
12.699999999999999
 74
               0
 49
-6.3499999999999996
 74
               0
  0
ENDTAB
  0
TABLE
  2
LAYER
  5
2
100
AcDbSymbolTable
 70
               2
  0
LAYER
  5
14
100
AcDbSymbolTableRecord
100
AcDbLayerTableRecord
  2
0
 70
               0
 62
               7
  6
CONTINUOUS
  0
LAYER
  5
1D
100
AcDbSymbolTableRecord
100
AcDbLayerTableRecord
  2
DEFPOINTS
 70
               0
 62
               7
  6
CONTINUOUS
  0
ENDTAB
  0
TABLE
  2
STYLE
  5
3
100
AcDbSymbolTable
 70
               1
  0
STYLE
  5
17
100
AcDbSymbolTableRecord
100
AcDbTextStyleTableRecord
  2
MX_NOTE_STANDARD
 70
               0
 40
3.2000000476837158
 41
1.0
 50
0.0
 71
               0
 42
3.2000000476837158
  3
txt.shx
  4
extfont.shx
  0
ENDTAB
  0
TABLE
  2
VIEW
  5
5
100
AcDbSymbolTable
 70
               0
  0
ENDTAB
  0
TABLE
  2
UCS
  5
6
100
AcDbSymbolTable
 70
               0
  0
ENDTAB
  0
TABLE
  2
APPID
  5
8
100
AcDbSymbolTable
 70
               1
  0
APPID
  5
16
100
AcDbSymbolTableRecord
100
AcDbRegAppTableRecord
  2
ACAD
 70
               0
  0
ENDTAB
  0
TABLE
  2
DIMSTYLE
  5
9
100
AcDbSymbolTable
 70
               1
  0
DIMSTYLE
105
18
100
AcDbSymbolTableRecord
100
AcDbDimStyleTableRecord
  2
MXDIMSTYLE
 70
               0
  3

  4

  5

  6

  7

 40
1.0
 41
2.5
 42
1.5
 43
3.75
 44
1.5
 45
0.0
 46
0.0
 47
0.0
 48
0.0
 71
               0
 72
               0
 73
               0
 74
               0
 75
               0
 76
               0
 77
               1
 78
               8
140
3.2000000476837158
141
2.5
142
0.0
143
0.0394
144
1.0
145
0.0
146
1.0
147
1.0
170
               0
171
               4
172
               1
173
               0
174
               0
175
               0
176
               0
177
               0
178
               0
270
               2
271
               4
272
               4
273
               8
274
               4
275
               0
280
               0
281
               0
282
               0
283
               1
284
               0
285
               0
286
               0
287
               3
288
               1
340
17
  0
ENDTAB
  0
TABLE
  2
BLOCK_RECORD
  5
1
100
AcDbSymbolTable
 70
               9
  0
BLOCK_RECORD
  5
A
100
AcDbSymbolTableRecord
100
AcDbBlockTableRecord
  2
*MODEL_SPACE
  0
BLOCK_RECORD
  5
B
100
AcDbSymbolTableRecord
100
AcDbBlockTableRecord
  2
*PAPER_SPACE
  0
BLOCK_RECORD
  5
1E
100
AcDbSymbolTableRecord
100
AcDbBlockTableRecord
  2
MS_1
  0
BLOCK_RECORD
  5
1F
100
AcDbSymbolTableRecord
100
AcDbBlockTableRecord
  2
MS_2
  0
BLOCK_RECORD
  5
20
100
AcDbSymbolTableRecord
100
AcDbBlockTableRecord
  2
MS_3
  0
BLOCK_RECORD
  5
21
100
AcDbSymbolTableRecord
100
AcDbBlockTableRecord
  2
MS_4
  0
BLOCK_RECORD
  5
22
100
AcDbSymbolTableRecord
100
AcDbBlockTableRecord
  2
MS_5
  0
BLOCK_RECORD
  5
23
100
AcDbSymbolTableRecord
100
AcDbBlockTableRecord
  2
MS_6
  0
BLOCK_RECORD
  5
24
100
AcDbSymbolTableRecord
100
AcDbBlockTableRecord
  2
MS_7
  0
BLOCK_RECORD
  5
25
100
AcDbSymbolTableRecord
100
AcDbBlockTableRecord
  2
MS_8
  0
BLOCK_RECORD
  5
26
100
AcDbSymbolTableRecord
100
AcDbBlockTableRecord
  2
MS_9
  0
ENDTAB
  0
ENDSEC
  0
SECTION
  2
BLOCKS
  0
BLOCK
  5
D
100
AcDbEntity
  8
0
100
AcDbBlockBegin
  2
*MODEL_SPACE
 70
               0
 10
0.0
 20
0.0
 30
0.0
  3
*MODEL_SPACE
  1

  0
ENDBLK
  5
E
100
AcDbEntity
  8
0
100
AcDbBlockEnd
  0
BLOCK
  5
F
100
AcDbEntity
 67
               1
  8
0
100
AcDbBlockBegin
  2
*PAPER_SPACE
 70
               0
 10
0.0
 20
0.0
 30
0.0
  3
*PAPER_SPACE
  1

  0
ENDBLK
  5
10
100
AcDbEntity
 67
               1
  8
0
100
AcDbBlockEnd
  0
BLOCK
  5
27
100
AcDbEntity
  8
0
100
AcDbBlockBegin
  2
MS_1
 70
               0
 10
0.0
 20
0.0
 30
0.0
  3
MS_1
  1

  0
SPLINE
  5
28
100
AcDbEntity
  8
0
  6
CONTINUOUS
 62
               7
100
AcDbSpline
210
0.0
220
0.0
230
1.0
 70
               0
 71
               3
 72
               0
 73
               0
 74
              13
 44
0.000001
 12
-0.365693356093152
 22
-0.930735391671192
 32
0.0
 13
-0.058964065669342
 23
-0.9982601058640687
 33
0.0
 11
14.0
 21
23.139987945556641
 31
0.0
 11
13.982060327668297
 21
23.094179074090164
 31
0.0
 11
13.9642333984375
 21
23.048328399658203
 31
0.0
 11
13.909779023704861
 21
22.906109226193095
 31
0.0
 11
13.856414794921875
 21
22.763477325439453
 31
0.0
 11
13.763740728807534
 21
22.507287100102189
 31
0.0
 11
13.6748046875
 21
22.249774932861328
 31
0.0
 11
13.540343178900901
 21
21.833988816340977
 31
0.0
 11
13.416412353515625
 21
21.414905548095703
 31
0.0
 11
13.227512210204498
 21
20.677539683740115
 31
0.0
 11
13.076690673828125
 21
19.931278228759766
 31
0.0
 11
12.966074813562965
 21
19.163227617587353
 31
0.0
 11
12.898896575376595
 21
18.38998852283293
 31
0.0
  0
SPLINE
  5
29
100
AcDbEntity
  8
0
  6
CONTINUOUS
 62
               7
100
AcDbSpline
210
0.0
220
0.0
230
1.0
 70
               0
 71
               3
 72
               0
 73
               0
 74
              13
 44
0.000001
 12
-0.3656933560931522
 22
0.9307353916711919
 32
0.0
 13
-0.0589645798272523
 23
0.998260075494255
 33
0.0
 11
14.0
 21
12.139987945556641
 31
0.0
 11
13.982060969385445
 21
12.185802789419066
 31
0.0
 11
13.9642333984375
 21
12.231662750244141
 31
0.0
 11
13.909779023704861
 21
12.373881923709247
 31
0.0
 11
13.856414794921875
 21
12.516513824462891
 31
0.0
 11
13.763740728807534
 21
12.772704049800154
 31
0.0
 11
13.6748046875
 21
13.030216217041016
 31
0.0
 11
13.540343178900901
 21
13.446002333561369
 31
0.0
 11
13.416412353515625
 21
13.865085601806641
 31
0.0
 11
13.227512425331243
 21
14.602450226410642
 31
0.0
 11
13.076690673828125
 21
15.348712921142578
 31
0.0
 11
12.966074813562965
 21
16.116759501886243
 31
0.0
 11
12.898896575376595
 21
16.889991176598024
 31
0.0
  0
ARC
  5
2A
100
AcDbEntity
  8
0
  6
CONTINUOUS
 62
               7
100
AcDbCircle
 10
0.0
 20
-15.280489921569824
 30
0.0
 40
47.184608459472656
100
AcDbArc
 50
83.307305042457585
 51
96.692699966498338
  0
ARC
  5
2B
100
AcDbEntity
  8
0
  6
CONTINUOUS
 62
               7
100
AcDbCircle
 10
10.392304420471191
 20
19.987390518188477
 30
0.0
 40
11.916729927062988
100
AcDbArc
 50
76.659953206336922
 51
103.34004497242984
  0
ARC
  5
2C
100
AcDbEntity
  8
0
  6
CONTINUOUS
 62
               7
100
AcDbCircle
 10
-10.392304420471191
 20
19.987390518188477
 30
0.0
 40
11.916729927062988
100
AcDbArc
 50
76.659953206336922
 51
103.34004497242984
  0
ARC
  5
2D
100
AcDbEntity
  8
0
  6
CONTINUOUS
 62
               7
100
AcDbCircle
 10
10.699999809265137
 20
8.8400154113769531
 30
0.0
 40
0.5
100
AcDbArc
 50
329.99999916517322
 51
0.0000000000001018
  0
ARC
  5
2E
100
AcDbEntity
  8
0
  6
CONTINUOUS
 62
               7
100
AcDbCircle
 10
-10.699999809265137
 20
8.8400154113769531
 30
0.0
 40
0.5
100
AcDbArc
 50
179.99999499104325
 51
210.00000265605843
  0
ARC
  5
2F
100
AcDbEntity
  8
0
  6
CONTINUOUS
 62
               7
100
AcDbCircle
 10
30.699989318847656
 20
24.239994049072266
 30
0.0
 40
0.300000011920929
100
AcDbArc
 50
0.0000025044780655
 51
90.000002504477962
  0
ARC
  5
30
100
AcDbEntity
  8
0
  6
CONTINUOUS
 62
               7
100
AcDbCircle
 10
30.699989318847656
 20
11.039981842041016
 30
0.0
 40
0.300000011920929
100
AcDbArc
 50
269.99999749552126
 51
0.0000025044780655
  0
LINE
  5
31
100
AcDbEntity
  8
0
  6
CONTINUOUS
 62
               7
100
AcDbLine
 10
5.4990906715393066
 20
31.58258056640625
 30
0.0
 11
7.6427593231201172
 21
31.58258056640625
 31
0.0
  0
LINE
  5
32
100
AcDbEntity
  8
0
  6
CONTINUOUS
 62
               7
100
AcDbLine
 10
13.141850471496582
 20
31.58258056640625
 30
0.0
 11
13.199999809265137
 21
31.58258056640625
 31
0.0
  0
LINE
  5
33
100
AcDbEntity
  8
0
  6
CONTINUOUS
 62
               7
100
AcDbLine
 10
-13.199999809265137
 20
31.58258056640625
 30
0.0
 11
-13.199999809265137
 21
26.890018463134766
 31
0.0
  0
LINE
  5
34
100
AcDbEntity
  8
0
  6
CONTINUOUS
 62
               7
100
AcDbLine
 10
7.6427593231201172
 20
31.58258056640625
 30
0.0
 11
7.6427593231201172
 21
26.890018463134766
 31
0.0
  0
LINE
  5
35
100
AcDbEntity
  8
0
  6
CONTINUOUS
 62
               7
100
AcDbLine
 10
10.477499530153766
 20
-0.0000002978778113
 30
0.0
 11
10.269999533531058
 21
-6.6400001898044891
 31
0.0
  0
LINE
  5
36
100
AcDbEntity
  8
0
  6
CONTINUOUS
 62
               7
100
AcDbLine
 10
13.141850471496582
 20
31.58258056640625
 30
0.0
 11
13.141850471496582
 21
26.890018463134766
 31
0.0
  0
LINE
  5
37
100
AcDbEntity
  8
0
  6
CONTINUOUS
 62
               7
100
AcDbLine
 10
13.199999809265137
 20
31.58258056640625
 30
0.0
 11
13.199999809265137
 21
26.890018463134766
 31
0.0
  0
LINE
  5
38
100
AcDbEntity
  8
0
  6
CONTINUOUS
 62
               7
100
AcDbLine
 10
13.20000034788967
 20
31.582582378892397
 30
0.0
 11
10.000000433995595
 21
32.440019778786571
 31
0.0
  0
LINE
  5
39
100
AcDbEntity
  8
0
  6
CONTINUOUS
 62
               7
100
AcDbLine
 10
-13.20000034788967
 20
31.582582378892397
 30
0.0
 11
-10.000000433995595
 21
32.440019778786571
 31
0.0
  0
LINE
  5
3A
100
AcDbEntity
  8
0
  6
CONTINUOUS
 62
               7
100
AcDbLine
 10
-13.199999809265137
 20
26.890018463134766
 30
0.0
 11
13.199999809265137
 21
26.890018463134766
 31
0.0
  0
LINE
  5
3B
100
AcDbEntity
  8
0
  6
CONTINUOUS
 62
               7
100
AcDbLine
 10
-13.199999809265137
 20
31.58258056640625
 30
0.0
 11
-13.141850471496582
 21
31.58258056640625
 31
0.0
  0
LINE
  5
3C
100
AcDbEntity
  8
0
  6
CONTINUOUS
 62
               7
100
AcDbLine
 10
-10.0
 20
32.440006256103516
 30
0.0
 11
10.0
 21
32.440006256103516
 31
0.0
  0
LINE
  5
3D
100
AcDbEntity
  8
0
  6
CONTINUOUS
 62
               7
100
AcDbLine
 10
-13.141850471496582
 20
31.58258056640625
 30
0.0
 11
-13.141850471496582
 21
26.890018463134766
 31
0.0
  0
LINE
  5
3E
100
AcDbEntity
  8
0
  6
CONTINUOUS
 62
               7
100
AcDbLine
 10
-7.6427593231201172
 20
31.58258056640625
 30
0.0
 11
-7.6427593231201172
 21
26.890018463134766
 31
0.0
  0
LINE
  5
3F
100
AcDbEntity
  8
0
  6
CONTINUOUS
 62
               7
100
AcDbLine
 10
-5.4990906715393066
 20
31.58258056640625
 30
0.0
 11
-5.4990906715393066
 21
26.890018463134766
 31
0.0
  0
LINE
  5
40
100
AcDbEntity
  8
0
  6
CONTINUOUS
 62
               7
100
AcDbLine
 10
5.4990906715393066
 20
31.58258056640625
 30
0.0
 11
5.4990906715393066
 21
26.890018463134766
 31
0.0
  0
LINE
  5
41
100
AcDbEntity
  8
0
  6
CONTINUOUS
 62
               4
100
AcDbLine
 10
10.699999884262837
 20
7.8010431816697974
 30
0.0
 11
9.494005755081929
 21
5.71220011378972
 31
0.0
  0
LINE
  5
42
100
AcDbEntity
  8
0
  6
CONTINUOUS
 62
               7
100
AcDbLine
 10
-10.477499530153766
 20
-0.0000002978778113
 30
0.0
 11
-10.269999533531058
 21
-6.6400001898044891
 31
0.0
  0
LINE
  5
43
100
AcDbEntity
  8
0
  6
CONTINUOUS
 62
               4
100
AcDbLine
 10
-9.3154993375733515
 20
-0.000000446816717
 30
0.0
 11
-9.0705154695360068
 21
-7.839484224011759
 31
0.0
  0
LINE
  5
44
100
AcDbEntity
  8
0
  6
CONTINUOUS
 62
               7
100
AcDbLine
 10
-10.699999809265137
 20
8.6400184631347656
 30
0.0
 11
10.699999809265137
 21
8.6400184631347656
 31
0.0
  0
LINE
  5
45
100
AcDbEntity
  8
0
  6
CONTINUOUS
 62
               7
100
AcDbLine
 10
-10.269999504089355
 20
-6.6399998664855957
 30
0.0
 11
10.269999504089355
 21
-6.6399998664855957
 31
0.0
  0
LINE
  5
46
100
AcDbEntity
  8
0
  6
CONTINUOUS
 62
               7
100
AcDbLine
 10
11.133012785811957
 20
8.5900154139152392
 30
0.0
 11
10.699999823470648
 21
7.8400149762653655
 31
0.0
  0
LINE
  5
47
100
AcDbEntity
  8
0
  6
CONTINUOUS
 62
               7
100
AcDbLine
 10
8.7499996372799878
 20
-8.1599994863586254
 30
0.0
 11
10.269999782499852
 21
-6.6399993411387612
 31
0.0
  0
LINE
  5
48
100
AcDbEntity
  8
0
  6
CONTINUOUS
 62
               7
100
AcDbLine
 10
-7.6427593231201172
 20
31.58258056640625
 30
0.0
 11
-5.4990906715393066
 21
31.58258056640625
 31
0.0
  0
LINE
  5
49
100
AcDbEntity
  8
0
  6
CONTINUOUS
 62
               7
100
AcDbLine
 10
-8.7499996372799878
 20
-8.1599994863586254
 30
0.0
 11
-10.269999782499852
 21
-6.6399993411387612
 31
0.0
  0
LINE
  5
4A
100
AcDbEntity
  8
0
  6
CONTINUOUS
 62
               4
100
AcDbLine
 10
9.4940056282878871
 20
5.7122008560484083
 30
0.0
 11
9.3154993375733515
 21
-0.000000446816717
 31
0.0
  0
LINE
  5
4B
100
AcDbEntity
  8
0
  6
CONTINUOUS
 62
               4
100
AcDbLine
 10
-9.4940056282878871
 20
5.7122008560484083
 30
0.0
 11
-9.3154993375733515
 21
-0.000000446816717
 31
0.0
  0
LINE
  5
4C
100
AcDbEntity
  8
0
  6
CONTINUOUS
 62
               7
100
AcDbLine
 10
-10.699999618228455
 20
7.120002520512223
 30
0.0
 11
-10.477499530153766
 21
-0.0000002978778113
 31
0.0
  0
LINE
  5
4E
100
AcDbEntity
  8
0
  6
CENTER
 62
               4
100
AcDbLine
 10
-13.019776344299316
 20
0.0
 30
0.0
 11
13.69629955291748
 21
0.0
 31
0.0
  0
LINE
  5
4F
100
AcDbEntity
  8
0
  6
CONTINUOUS
 62
               7
100
AcDbLine
 10
10.699999809265137
 20
7.8400154113769531
 30
0.0
 11
10.699999809265137
 21
7.120002269744873
 31
0.0
  0
LINE
  5
50
100
AcDbEntity
  8
0
  6
CONTINUOUS
 62
               7
100
AcDbLine
 10
-10.656005859375
 20
5.7122006416320801
 30
0.0
 11
10.656005859375
 21
5.7122006416320801
 31
0.0
  0
LINE
  5
51
100
AcDbEntity
  8
0
  6
CONTINUOUS
 62
               4
100
AcDbLine
 10
9.3154993375733515
 20
-0.000000446816717
 30
0.0
 11
9.0705154695360068
 21
-7.839484224011759
 31
0.0
  0
LINE
  5
52
100
AcDbEntity
  8
0
  6
CONTINUOUS
 62
               7
100
AcDbLine
 10
-10.699999809265137
 20
7.8400154113769531
 30
0.0
 11
10.699999809265137
 21
7.8400154113769531
 31
0.0
  0
LINE
  5
53
100
AcDbEntity
  8
0
  6
CONTINUOUS
 62
               7
100
AcDbLine
 10
-10.699999809265137
 20
7.8400154113769531
 30
0.0
 11
-10.699999809265137
 21
7.120002269744873
 31
0.0
  0
LINE
  5
54
100
AcDbEntity
  8
0
  6
CONTINUOUS
 62
               7
100
AcDbLine
 10
-11.133012785811957
 20
8.5900154139152392
 30
0.0
 11
-10.699999823470648
 21
7.8400149762653655
 31
0.0
  0
LINE
  5
55
100
AcDbEntity
  8
0
  6
CONTINUOUS
 62
               4
100
AcDbLine
 10
-10.699999884262837
 20
7.8010431816697974
 30
0.0
 11
-9.494005755081929
 21
5.71220011378972
 31
0.0
  0
LINE
  5
56
100
AcDbEntity
  8
0
  6
CONTINUOUS
 62
               7
100
AcDbLine
 10
10.699999618228455
 20
7.120002520512223
 30
0.0
 11
10.477499530153766
 21
-0.0000002978778113
 31
0.0
  0
LINE
  5
58
100
AcDbEntity
  8
0
  6
DASHED
 62
               4
100
AcDbLine
 10
12.899988174438477
 20
21.639987945556641
 30
0.0
 11
12.899988174438477
 21
13.639987945556641
 31
0.0
  0
LINE
  5
59
100
AcDbEntity
  8
0
  6
CENTER
 62
               4
100
AcDbLine
 10
6.5
 20
50.639995574951172
 30
0.0
 11
6.5
 21
46.240001678466797
 31
0.0
  0
LINE
  5
5A
100
AcDbEntity
  8
0
  6
CENTER
 62
               4
100
AcDbLine
 10
6.2000007629394531
 20
50.939998626708984
 30
0.0
 11
-6.2000007629394531
 21
50.939998626708984
 31
0.0
  0
LINE
  5
5B
100
AcDbEntity
  8
0
  6
CENTER
 62
               4
100
AcDbLine
 10
-6.5
 20
50.639995574951172
 30
0.0
 11
-6.5
 21
46.240001678466797
 31
0.0
  0
LINE
  5
5C
100
AcDbEntity
  8
0
  6
CENTER
 62
               4
100
AcDbLine
 10
6.500000993872618
 20
50.640001086290908
 30
0.0
 11
6.2000017290670257
 21
50.940000325808455
 31
0.0
  0
LINE
  5
5D
100
AcDbEntity
  8
0
  6
CONTINUOUS
 62
               7
100
AcDbLine
 10
-5.0
 20
38.739997863769531
 30
0.0
 11
5.0
 21
38.739997863769531
 31
0.0
  0
LINE
  5
5E
100
AcDbEntity
  8
0
  6
CONTINUOUS
 62
               7
100
AcDbLine
 10
5.000001261850116
 20
38.739997374177506
 30
0.0
 11
4.8000053653694295
 21
38.939993270658192
 31
0.0
  0
LINE
  5
5F
100
AcDbEntity
  8
0
  6
CONTINUOUS
 62
               7
100
AcDbLine
 10
-5.000001261850116
 20
38.740000071575764
 30
0.0
 11
-4.8000067140685587
 21
38.939994619357321
 31
0.0
  0
LINE
  5
60
100
AcDbEntity
  8
0
  6
CONTINUOUS
 62
               7
100
AcDbLine
 10
5.0
 20
38.739997863769531
 30
0.0
 11
5.0
 21
37.939990997314453
 31
0.0
  0
LINE
  5
61
100
AcDbEntity
  8
0
  6
CONTINUOUS
 62
               7
100
AcDbLine
 10
-5.0
 20
38.739997863769531
 30
0.0
 11
-5.0
 21
37.939990997314453
 31
0.0
  0
LINE
  5
62
100
AcDbEntity
  8
0
  6
CENTER
 62
               4
100
AcDbLine
 10
-6.500000993872618
 20
50.640001086290908
 30
0.0
 11
-6.2000017290670257
 21
50.940000325808455
 31
0.0
  0
LINE
  5
63
100
AcDbEntity
  8
0
  6
CONTINUOUS
 62
               7
100
AcDbLine
 10
6.2000007629394531
 20
43.939998626708984
 30
0.0
 11
-6.2000007629394531
 21
43.939998626708984
 31
0.0
  0
LINE
  5
64
100
AcDbEntity
  8
0
  6
CONTINUOUS
 62
               7
100
AcDbLine
 10
6.2000007629394531
 20
38.939994812011719
 30
0.0
 11
-6.2000007629394531
 21
38.939994812011719
 31
0.0
  0
LINE
  5
65
100
AcDbEntity
  8
0
  6
CONTINUOUS
 62
               4
100
AcDbLine
 10
4.1879978179931641
 20
38.939994812011719
 30
0.0
 11
4.1879978179931641
 21
37.939990997314453
 31
0.0
  0
LINE
  5
66
100
AcDbEntity
  8
0
  6
CONTINUOUS
 62
               4
100
AcDbLine
 10
-4.1879997253417969
 20
38.939994812011719
 30
0.0
 11
-4.1879997253417969
 21
37.939990997314453
 31
0.0
  0
LINE
  5
67
100
AcDbEntity
  8
0
  6
CONTINUOUS
 62
               7
100
AcDbLine
 10
6.5
 20
39.239997863769531
 30
0.0
 11
-6.5
 21
39.239997863769531
 31
0.0
  0
LINE
  5
68
100
AcDbEntity
  8
0
  6
CONTINUOUS
 62
               7
100
AcDbLine
 10
6.5000012889006484
 20
43.63999875493289
 30
0.0
 11
6.2000020240950562
 21
43.939997994450437
 31
0.0
  0
LINE
  5
69
100
AcDbEntity
  8
0
  6
CONTINUOUS
 62
               7
100
AcDbLine
 10
-6.5
 20
43.639995574951172
 30
0.0
 11
-6.5
 21
39.239997863769531
 31
0.0
  0
LINE
  5
6A
100
AcDbEntity
  8
0
  6
CONTINUOUS
 62
               7
100
AcDbLine
 10
-6.500000000000048
 20
43.639991760253899
 30
0.0
 11
6.499999999999952
 21
43.639991760253913
 31
0.0
  0
LINE
  5
6B
100
AcDbEntity
  8
0
  6
CONTINUOUS
 62
               7
100
AcDbLine
 10
6.5000020846329107
 20
39.239999284860005
 30
0.0
 11
6.1999987737295896
 21
38.93999599924507
 31
0.0
  0
LINE
  5
6C
100
AcDbEntity
  8
0
  6
CONTINUOUS
 62
               7
100
AcDbLine
 10
6.5
 20
43.639995574951172
 30
0.0
 11
6.5
 21
39.239997863769531
 31
0.0
  0
LINE
  5
6D
100
AcDbEntity
  8
0
  6
CONTINUOUS
 62
               7
100
AcDbLine
 10
-6.5000012889006484
 20
43.63999875493289
 30
0.0
 11
-6.2000020240950562
 21
43.939997994450437
 31
0.0
  0
LINE
  5
6E
100
AcDbEntity
  8
0
  6
CONTINUOUS
 62
               7
100
AcDbLine
 10
-6.4999980385352956
 20
39.239997936160989
 30
0.0
 11
-6.1999974250304604
 21
38.939997347944313
 31
0.0
  0
LINE
  5
6F
100
AcDbEntity
  8
0
  6
DASHED
 62
               4
100
AcDbLine
 10
30.999984741210938
 20
13.639987945556641
 30
0.0
 11
12.899988174438477
 21
13.639987945556641
 31
0.0
  0
LINE
  5
70
100
AcDbEntity
  8
0
  6
DASHED
 62
               4
100
AcDbLine
 10
30.999984741210938
 20
21.639987945556641
 30
0.0
 11
12.899988174438477
 21
21.639987945556641
 31
0.0
  0
LINE
  5
71
100
AcDbEntity
  8
0
  6
CONTINUOUS
 62
               7
100
AcDbLine
 10
28.999984741210938
 20
12.739994049072266
 30
0.0
 11
28.199989318847656
 21
12.739994049072266
 31
0.0
  0
LINE
  5
72
100
AcDbEntity
  8
0
  6
CONTINUOUS
 62
               7
100
AcDbLine
 10
27.199986074578064
 20
24.43998658478732
 30
0.0
 11
27.024990404934087
 21
24.639981640334653
 31
0.0
  0
LINE
  5
73
100
AcDbEntity
  8
0
  6
CONTINUOUS
 62
               7
100
AcDbLine
 10
27.899986267089844
 20
24.639987945556641
 30
0.0
 11
27.899986267089844
 21
10.639987945556641
 31
0.0
  0
LINE
  5
74
100
AcDbEntity
  8
0
  6
CONTINUOUS
 62
               7
100
AcDbLine
 10
-8.75
 20
-8.1599998474121094
 30
0.0
 11
8.75
 21
-8.1599998474121094
 31
0.0
  0
LINE
  5
75
100
AcDbEntity
  8
0
  6
CONTINUOUS
 62
               7
100
AcDbLine
 10
7.0000000535547393
 20
34.14000319336494
 30
0.0
 11
-6.9999999464452607
 21
34.140003215326466
 31
0.0
  0
LINE
  5
76
100
AcDbEntity
  8
0
  6
CONTINUOUS
 62
               7
100
AcDbLine
 10
7.0
 20
34.140003204345703
 30
0.0
 11
7.0
 21
32.439990997314453
 31
0.0
  0
LINE
  5
77
100
AcDbEntity
  8
0
  6
CONTINUOUS
 62
               7
100
AcDbLine
 10
-7.0
 20
34.140003204345703
 30
0.0
 11
-7.0
 21
32.439990997314453
 31
0.0
  0
LINE
  5
78
100
AcDbEntity
  8
0
  6
CONTINUOUS
 62
               7
100
AcDbLine
 10
11.95001220703125
 20
26.890003204345703
 30
0.0
 11
11.95001220703125
 21
26.539997100830078
 31
0.0
  0
LINE
  5
79
100
AcDbEntity
  8
0
  6
CONTINUOUS
 62
               7
100
AcDbLine
 10
-11.95001220703125
 20
26.890003204345703
 30
0.0
 11
-11.95001220703125
 21
26.539997100830078
 31
0.0
  0
LINE
  5
7A
100
AcDbEntity
  8
0
  6
CONTINUOUS
 62
               7
100
AcDbLine
 10
-6.9999887541717953
 20
34.140004474900252
 30
0.0
 11
-6.6999948841631749
 21
34.439998319621282
 31
0.0
  0
LINE
  5
7B
100
AcDbEntity
  8
0
  6
CONTINUOUS
 62
               7
100
AcDbLine
 10
6.6999923924410041
 20
34.43999505745569
 30
0.0
 11
6.9999916319585509
 21
34.139995792650097
 31
0.0
  0
LINE
  5
7C
100
AcDbEntity
  8
0
  6
CONTINUOUS
 62
               7
100
AcDbLine
 10
7.8000141708421324
 20
34.440002412081185
 30
0.0
 11
8.0000100673228189
 21
34.639998325420265
 31
0.0
  0
LINE
  5
7D
100
AcDbEntity
  8
0
  6
CONTINUOUS
 62
               7
100
AcDbLine
 10
-8.0000000000000675
 20
37.739994049072251
 30
0.0
 11
7.9999999999999334
 21
37.73999404907228
 31
0.0
  0
LINE
  5
7E
100
AcDbEntity
  8
0
  6
CONTINUOUS
 62
               7
100
AcDbLine
 10
7.9999991470745044
 20
37.739988799490447
 30
0.0
 11
7.7999978389384523
 21
37.939990090767651
 31
0.0
  0
LINE
  5
7F
100
AcDbEntity
  8
0
  6
CONTINUOUS
 62
               7
100
AcDbLine
 10
7.9999999683022391
 20
34.639987952877142
 30
0.0
 11
-8.0000000316977609
 21
34.639987938236139
 31
0.0
  0
LINE
  5
80
100
AcDbEntity
  8
0
  6
CONTINUOUS
 62
               7
100
AcDbLine
 10
-8.0000021976625248
 20
34.639992256273445
 30
0.0
 11
-7.8000008895264727
 21
34.439990964996241
 31
0.0
  0
LINE
  5
81
100
AcDbEntity
  8
0
  6
CONTINUOUS
 62
               7
100
AcDbLine
 10
-7.9999937522773052
 20
37.739999589083709
 30
0.0
 11
-7.799997838938225
 21
37.939995485564395
 31
0.0
  0
LINE
  5
82
100
AcDbEntity
  8
0
  6
CONTINUOUS
 62
               7
100
AcDbLine
 10
8.0
 20
37.739994049072266
 30
0.0
 11
8.0
 21
34.639987945556641
 31
0.0
  0
LINE
  5
83
100
AcDbEntity
  8
0
  6
CONTINUOUS
 62
               7
100
AcDbLine
 10
7.79998779296875
 20
37.939990997314453
 30
0.0
 11
-7.79998779296875
 21
37.939990997314453
 31
0.0
  0
LINE
  5
84
100
AcDbEntity
  8
0
  6
CONTINUOUS
 62
               7
100
AcDbLine
 10
-8.0
 20
37.739994049072266
 30
0.0
 11
-8.0
 21
34.639987945556641
 31
0.0
  0
LINE
  5
85
100
AcDbEntity
  8
0
  6
CONTINUOUS
 62
               7
100
AcDbLine
 10
7.79998779296875
 20
34.439990997314453
 30
0.0
 11
-7.79998779296875
 21
34.439990997314453
 31
0.0
  0
LINE
  5
86
100
AcDbEntity
  8
0
  6
CONTINUOUS
 62
               7
100
AcDbLine
 10
27.374984741210937
 20
24.639987945556641
 30
0.0
 11
27.374984741210937
 21
10.639987945556641
 31
0.0
  0
LINE
  5
87
100
AcDbEntity
  8
0
  6
CONTINUOUS
 62
               7
100
AcDbLine
 10
27.374985132276493
 20
24.63999283665828
 30
0.0
 11
27.199984438641081
 21
24.43999203940632
 31
0.0
  0
LINE
  5
88
100
AcDbEntity
  8
0
  6
CONTINUOUS
 62
               7
100
AcDbLine
 10
27.899986267089844
 20
24.639987945556641
 30
0.0
 11
27.374984741210937
 21
24.639987945556641
 31
0.0
  0
LINE
  5
89
100
AcDbEntity
  8
0
  6
CONTINUOUS
 62
               7
100
AcDbLine
 10
28.199989318847656
 20
24.339984893798828
 30
0.0
 11
28.199989318847656
 21
10.939990997314453
 31
0.0
  0
LINE
  5
8A
100
AcDbEntity
  8
0
  6
CONTINUOUS
 62
               7
100
AcDbLine
 10
30.699989318847656
 20
10.739994049072266
 30
0.0
 11
28.999984741210938
 21
10.739994049072266
 31
0.0
  0
LINE
  5
8B
100
AcDbEntity
  8
0
  6
CONTINUOUS
 62
               7
100
AcDbLine
 10
30.699989318847656
 20
24.539981842041016
 30
0.0
 11
28.999984741210938
 21
24.539981842041016
 31
0.0
  0
LINE
  5
8C
100
AcDbEntity
  8
0
  6
CONTINUOUS
 62
               7
100
AcDbLine
 10
27.024986267089844
 20
24.639987945556641
 30
0.0
 11
27.024986267089844
 21
10.639987945556641
 31
0.0
  0
LINE
  5
8D
100
AcDbEntity
  8
0
  6
CONTINUOUS
 62
               7
100
AcDbLine
 10
27.899992686749343
 20
24.639986617921352
 30
0.0
 11
28.199986531470373
 21
24.339992747912731
 31
0.0
  0
LINE
  5
8E
100
AcDbEntity
  8
0
  6
CONTINUOUS
 62
               7
100
AcDbLine
 10
27.89999069404746
 20
10.639987510159244
 30
0.0
 11
28.199989933565007
 21
10.939986774964837
 31
0.0
  0
LINE
  5
8F
100
AcDbEntity
  8
0
  6
CONTINUOUS
 62
               7
100
AcDbLine
 10
27.19999410085336
 20
10.839986764212313
 30
0.0
 11
27.024993407217949
 21
10.639985966960353
 31
0.0
  0
LINE
  5
90
100
AcDbEntity
  8
0
  6
CONTINUOUS
 62
               7
100
AcDbLine
 10
27.199989318847656
 20
24.439990997314453
 30
0.0
 11
27.199989318847656
 21
10.839984893798828
 31
0.0
  0
LINE
  5
91
100
AcDbEntity
  8
0
  6
CONTINUOUS
 62
               7
100
AcDbLine
 10
30.999984741210938
 20
24.239994049072266
 30
0.0
 11
30.999984741210938
 21
11.039981842041016
 31
0.0
  0
LINE
  5
92
100
AcDbEntity
  8
0
  6
CONTINUOUS
 62
               7
100
AcDbLine
 10
28.999984741210938
 20
24.539981842041016
 30
0.0
 11
28.999984741210938
 21
10.739994049072266
 31
0.0
  0
LINE
  5
93
100
AcDbEntity
  8
0
  6
CONTINUOUS
 62
               7
100
AcDbLine
 10
27.374985348487371
 20
10.639991367751463
 30
0.0
 11
27.199989678843394
 21
10.839986423298797
 31
0.0
  0
LINE
  5
94
100
AcDbEntity
  8
0
  6
CONTINUOUS
 62
               7
100
AcDbLine
 10
27.024986267089844
 20
10.639987945556641
 30
0.0
 11
26.29998779296875
 21
10.639987945556641
 31
0.0
  0
LINE
  5
95
100
AcDbEntity
  8
0
  6
CONTINUOUS
 62
               7
100
AcDbLine
 10
28.999984741210938
 20
22.539981842041016
 30
0.0
 11
28.199989318847656
 21
22.539981842041016
 31
0.0
  0
LINE
  5
96
100
AcDbEntity
  8
0
  6
CONTINUOUS
 62
               7
100
AcDbLine
 10
27.024986267089844
 20
24.639987945556641
 30
0.0
 11
26.29998779296875
 21
24.639987945556641
 31
0.0
  0
LINE
  5
97
100
AcDbEntity
  8
0
  6
CENTER
 62
               4
100
AcDbLine
 10
0.0
 20
52.909999847412109
 30
0.0
 11
0.0
 21
-10.159999847412109
 31
0.0
  0
LINE
  5
98
100
AcDbEntity
  8
0
  6
CONTINUOUS
 62
               7
100
AcDbLine
 10
27.899986267089844
 20
10.639987945556641
 30
0.0
 11
27.374984741210937
 21
10.639987945556641
 31
0.0
  0
LINE
  5
99
100
AcDbEntity
  8
0
  6
CONTINUOUS
 62
               7
100
AcDbLine
 10
16.600006103515625
 20
16.889987945556641
 30
0.0
 11
16.600006103515625
 21
10.439990997314453
 31
0.0
  0
LINE
  5
9A
100
AcDbEntity
  8
0
  6
CONTINUOUS
 62
               7
100
AcDbLine
 10
14.0
 20
12.139987945556641
 30
0.0
 11
14.0
 21
10.572040557861328
 31
0.0
  0
LINE
  5
9B
100
AcDbEntity
  8
0
  6
CONTINUOUS
 62
               7
100
AcDbLine
 10
14.600006103515625
 20
16.889987945556641
 30
0.0
 11
14.600006103515625
 21
12.139987945556641
 31
0.0
  0
LINE
  5
9C
100
AcDbEntity
  8
0
  6
CONTINUOUS
 62
               7
100
AcDbLine
 10
12.00665283203125
 20
18.389987945556641
 30
0.0
 11
16.600006103515625
 21
18.389987945556641
 31
0.0
  0
LINE
  5
9D
100
AcDbEntity
  8
0
  6
CONTINUOUS
 62
               7
100
AcDbLine
 10
12.00665283203125
 20
16.889987945556641
 30
0.0
 11
16.600006103515625
 21
16.889987945556641
 31
0.0
  0
LINE
  5
9E
100
AcDbEntity
  8
0
  6
CONTINUOUS
 62
               7
100
AcDbLine
 10
14.600006753751316
 20
12.139994586269708
 30
0.0
 11
16.600004347241224
 21
10.439996764789953
 31
0.0
  0
LINE
  5
9F
100
AcDbEntity
  8
0
  6
CONTINUOUS
 62
               7
100
AcDbLine
 10
26.300010382948567
 20
10.540002722998459
 30
0.0
 11
24.300006352548262
 21
10.440002522970424
 31
0.0
  0
LINE
  5
A0
100
AcDbEntity
  8
0
  6
CONTINUOUS
 62
               7
100
AcDbLine
 10
16.600006103515625
 20
10.439990997314453
 30
0.0
 11
24.29998779296875
 21
10.439990997314453
 31
0.0
  0
LINE
  5
A1
100
AcDbEntity
  8
0
  6
CONTINUOUS
 62
               7
100
AcDbLine
 10
14.0
 20
12.139987945556641
 30
0.0
 11
14.600006103515625
 21
12.139987945556641
 31
0.0
  0
LINE
  5
A2
100
AcDbEntity
  8
0
  6
CONTINUOUS
 62
               7
100
AcDbLine
 10
14.600002084531127
 20
23.139990171557145
 30
0.0
 11
16.599999859681532
 21
24.83998814744831
 31
0.0
  0
LINE
  5
A3
100
AcDbEntity
  8
0
  6
CONTINUOUS
 62
               7
100
AcDbLine
 10
26.300008499351001
 20
24.739993563820008
 30
0.0
 11
24.300004468950696
 21
24.839993763848042
 31
0.0
  0
LINE
  5
A4
100
AcDbEntity
  8
0
  6
CONTINUOUS
 62
               7
100
AcDbLine
 10
14.600006103515625
 20
23.139987945556641
 30
0.0
 11
14.600006103515625
 21
18.389987945556641
 31
0.0
  0
LINE
  5
A5
100
AcDbEntity
  8
0
  6
CONTINUOUS
 62
               7
100
AcDbLine
 10
26.29998779296875
 20
24.739994049072266
 30
0.0
 11
26.29998779296875
 21
10.539997100830078
 31
0.0
  0
LINE
  5
A6
100
AcDbEntity
  8
0
  6
CONTINUOUS
 62
               7
100
AcDbLine
 10
13.999993201921569
 20
10.572032250893812
 30
0.0
 11
12.999994155595886
 21
8.8399831262245243
 31
0.0
  0
LINE
  5
A7
100
AcDbEntity
  8
0
  6
CONTINUOUS
 62
               7
100
AcDbLine
 10
14.000010296951473
 20
24.807944930968972
 30
0.0
 11
13.000010773788631
 21
26.53999488154443
 31
0.0
  0
LINE
  5
A8
100
AcDbEntity
  8
0
  6
CONTINUOUS
 62
               7
100
AcDbLine
 10
16.600006103515625
 20
24.840000152587891
 30
0.0
 11
24.29998779296875
 21
24.840000152587891
 31
0.0
  0
LINE
  5
A9
100
AcDbEntity
  8
0
  6
CONTINUOUS
 62
               7
100
AcDbLine
 10
24.29998779296875
 20
24.840000152587891
 30
0.0
 11
24.29998779296875
 21
10.439990997314453
 31
0.0
  0
LINE
  5
AA
100
AcDbEntity
  8
0
  6
CONTINUOUS
 62
               7
100
AcDbLine
 10
-14.0
 20
24.807941436767578
 30
0.0
 11
14.0
 21
24.807941436767578
 31
0.0
  0
LINE
  5
AB
100
AcDbEntity
  8
0
  6
CONTINUOUS
 62
               7
100
AcDbLine
 10
16.600006103515625
 20
24.840000152587891
 30
0.0
 11
16.600006103515625
 21
18.389987945556641
 31
0.0
  0
LINE
  5
AC
100
AcDbEntity
  8
0
  6
CONTINUOUS
 62
               7
100
AcDbLine
 10
-14.0
 20
10.572040557861328
 30
0.0
 11
14.0
 21
10.572040557861328
 31
0.0
  0
LINE
  5
AD
100
AcDbEntity
  8
0
  6
CONTINUOUS
 62
               7
100
AcDbLine
 10
-13.999987324408721
 20
24.807950388305017
 30
0.0
 11
-12.999988278083038
 21
26.539999512974305
 31
0.0
  0
LINE
  5
AE
100
AcDbEntity
  8
0
  6
CONTINUOUS
 62
               7
100
AcDbLine
 10
-13.99999835359759
 20
10.572046895904009
 30
0.0
 11
-12.999998830434748
 21
8.8399969453285507
 31
0.0
  0
LINE
  5
AF
100
AcDbEntity
  8
0
  6
CONTINUOUS
 62
               7
100
AcDbLine
 10
14.0
 20
24.807941436767578
 30
0.0
 11
14.0
 21
23.139987945556641
 31
0.0
  0
LINE
  5
B0
100
AcDbEntity
  8
0
  6
CONTINUOUS
 62
               7
100
AcDbLine
 10
-14.0
 20
24.807941436767578
 30
0.0
 11
-14.0
 21
10.572040557861328
 31
0.0
  0
LINE
  5
B1
100
AcDbEntity
  8
0
  6
CONTINUOUS
 62
               7
100
AcDbLine
 10
-13.0
 20
8.8400001525878906
 30
0.0
 11
13.0
 21
8.8400001525878906
 31
0.0
  0
LINE
  5
B2
100
AcDbEntity
  8
0
  6
CONTINUOUS
 62
               7
100
AcDbLine
 10
-13.0
 20
26.539997100830078
 30
0.0
 11
13.0
 21
26.539997100830078
 31
0.0
  0
LINE
  5
B3
100
AcDbEntity
  8
0
  6
CENTER
 62
               4
100
AcDbLine
 10
-16.539993286132813
 20
17.639987945556641
 30
0.0
 11
32.999984741210938
 21
17.639987945556641
 31
0.0
  0
LINE
  5
B4
100
AcDbEntity
  8
0
  6
CONTINUOUS
 62
               7
100
AcDbLine
 10
14.0
 20
23.139987945556641
 30
0.0
 11
14.600006103515625
 21
23.139987945556641
 31
0.0
  0
ENDBLK
  5
B5
100
AcDbEntity
  8
0
100
AcDbBlockEnd
  0
BLOCK
  5
B6
100
AcDbEntity
  8
0
100
AcDbBlockBegin
  2
MS_2
 70
               0
 10
0.0
 20
0.0
 30
0.0
  3
MS_2
  1

  0
ARC
  5
B7
100
AcDbEntity
  8
0
  6
CONTINUOUS
 62
               7
100
AcDbCircle
 10
0.0
 20
0.0
 30
0.0
 40
13.199999809265137
100
AcDbArc
 50
54.619977773648834
 51
65.380025565655117
  0
ARC
  5
B8
100
AcDbEntity
  8
0
  6
CONTINUOUS
 62
               7
100
AcDbCircle
 10
0.0
 20
0.0
 30
0.0
 40
13.199999809265137
100
AcDbArc
 50
234.61997959488127
 51
245.38002738688755
  0
CIRCLE
  5
B9
100
AcDbEntity
  8
0
  6
CONTINUOUS
 62
               7
100
AcDbCircle
 10
0.0
 20
0.0
 30
0.0
 40
10.0
  0
ARC
  5
BA
100
AcDbEntity
  8
0
  6
CONTINUOUS
 62
               7
100
AcDbCircle
 10
0.0
 20
0.0
 30
0.0
 40
13.199999809265137
100
AcDbArc
 50
174.61997428276362
 51
185.3800220747699
  0
ARC
  5
BB
100
AcDbEntity
  8
0
  6
CONTINUOUS
 62
               7
100
AcDbCircle
 10
0.0
 20
0.0
 30
0.0
 40
13.199999809265137
100
AcDbArc
 50
114.61997261311164
 51
125.38002040511793
  0
ARC
  5
BC
100
AcDbEntity
  8
0
  6
CONTINUOUS
 62
               7
100
AcDbCircle
 10
0.0
 20
0.0
 30
0.0
 40
13.199999809265137
100
AcDbArc
 50
294.6199744343441
 51
305.38002222635038
  0
ARC
  5
BD
100
AcDbEntity
  8
0
  6
CONTINUOUS
 62
               7
100
AcDbCircle
 10
0.0
 20
0.0
 30
0.0
 40
13.199999809265137
100
AcDbArc
 50
354.61997738465652
 51
5.3800226153426722
  0
ARC
  5
BE
100
AcDbEntity
  8
0
  6
CONTINUOUS
 62
               7
100
AcDbCircle
 10
30.699989318847656
 20
6.600006103515625
 30
0.0
 40
0.300000011920929
100
AcDbArc
 50
0.0000025044780655
 51
90.000002504477962
  0
ARC
  5
BF
100
AcDbEntity
  8
0
  6
CONTINUOUS
 62
               7
100
AcDbCircle
 10
30.699989318847656
 20
-6.600006103515625
 30
0.0
 40
0.300000011920929
100
AcDbArc
 50
269.99999749552126
 51
0.0000025044780655
  0
CIRCLE
  5
C0
100
AcDbEntity
  8
0
  6
CONTINUOUS
 62
               7
100
AcDbCircle
 10
0.0
 20
0.0
 30
0.0
 40
8.0
  0
CIRCLE
  5
C1
100
AcDbEntity
  8
0
  6
CONTINUOUS
 62
               7
100
AcDbCircle
 10
0.0
 20
0.0
 30
0.0
 40
7.8000001907348633
  0
ARC
  5
C2
100
AcDbEntity
  8
0
  6
CONTINUOUS
 62
               7
100
AcDbCircle
 10
0.0
 20
0.0
 30
0.0
 40
13.0
100
AcDbArc
 50
247.38013217210988
 51
292.61986281893257
  0
ARC
  5
C3
100
AcDbEntity
  8
0
  6
CONTINUOUS
 62
               7
100
AcDbCircle
 10
0.0
 20
0.0
 30
0.0
 40
13.0
100
AcDbArc
 50
7.3801346576410047
 51
52.619866158237329
  0
ARC
  5
C4
100
AcDbEntity
  8
0
  6
CONTINUOUS
 62
               7
100
AcDbCircle
 10
0.0
 20
0.0
 30
0.0
 40
13.0
100
AcDbArc
 50
67.38013718106663
 51
112.61986782788931
  0
CIRCLE
  5
C5
100
AcDbEntity
  8
0
  6
CONTINUOUS
 62
               7
100
AcDbCircle
 10
0.0
 20
0.0
 30
0.0
 40
6.5
  0
CIRCLE
  5
C6
100
AcDbEntity
  8
0
  6
CONTINUOUS
 62
               7
100
AcDbCircle
 10
0.0
 20
0.0
 30
0.0
 40
6.1999998092651367
  0
ARC
  5
C7
100
AcDbEntity
  8
0
  6
CONTINUOUS
 62
               7
100
AcDbCircle
 10
0.0
 20
0.0
 30
0.0
 40
13.0
100
AcDbArc
 50
307.38013384176185
 51
352.6198653423582
  0
ARC
  5
C8
100
AcDbEntity
  8
0
  6
CONTINUOUS
 62
               7
100
AcDbCircle
 10
0.0
 20
0.0
 30
0.0
 40
13.0
100
AcDbArc
 50
187.38013733264708
 51
232.61986797946975
  0
ARC
  5
C9
100
AcDbEntity
  8
0
  6
CONTINUOUS
 62
               7
100
AcDbCircle
 10
0.0
 20
0.0
 30
0.0
 40
13.0
100
AcDbArc
 50
127.38013202052943
 51
172.61986266735212
  0
CIRCLE
  5
CA
100
AcDbEntity
  8
0
  6
CONTINUOUS
 62
               7
100
AcDbCircle
 10
0.0
 20
0.0
 30
0.0
 40
14.0
  0
LINE
  5
CB
100
AcDbEntity
  8
0
  6
CONTINUOUS
 62
               7
100
AcDbLine
 10
13.141849994659424
 20
1.2376478662087322
 30
0.0
 11
7.6427593231201172
 21
10.762352133791268
 31
0.0
  0
LINE
  5
CC
100
AcDbEntity
  8
0
  6
CONTINUOUS
 62
               7
100
AcDbLine
 10
-5.4990906715393066
 20
12.0
 30
0.0
 11
5.4990906715393066
 21
12.0
 31
0.0
  0
LINE
  5
CD
100
AcDbEntity
  8
0
  6
CONTINUOUS
 62
               7
100
AcDbLine
 10
7.6427593231201172
 20
-10.762352133791268
 30
0.0
 11
13.141849994659424
 21
-1.2376478662087322
 31
0.0
  0
LINE
  5
CE
100
AcDbEntity
  8
0
  6
CONTINUOUS
 62
               7
100
AcDbLine
 10
-5.4990906715393066
 20
-12.0
 30
0.0
 11
5.4990906715393066
 21
-12.0
 31
0.0
  0
LINE
  5
CF
100
AcDbEntity
  8
0
  6
CONTINUOUS
 62
               7
100
AcDbLine
 10
-13.141849994659424
 20
1.2376478662087322
 30
0.0
 11
-7.6427593231201172
 21
10.762352133791268
 31
0.0
  0
LINE
  5
D0
100
AcDbEntity
  8
0
  6
CONTINUOUS
 62
               7
100
AcDbLine
 10
-7.6427593231201172
 20
-10.762352133791268
 30
0.0
 11
-13.141849994659424
 21
-1.2376478662087322
 31
0.0
  0
LINE
  5
D1
100
AcDbEntity
  8
0
  6
DASHED
 62
               4
100
AcDbLine
 10
12.899988174438477
 20
4.0
 30
0.0
 11
12.899988174438477
 21
-4.0
 31
0.0
  0
LINE
  5
D2
100
AcDbEntity
  8
0
  6
DASHED
 62
               4
100
AcDbLine
 10
30.999984741210938
 20
4.0
 30
0.0
 11
12.899988174438477
 21
4.0
 31
0.0
  0
LINE
  5
D3
100
AcDbEntity
  8
0
  6
DASHED
 62
               4
100
AcDbLine
 10
30.999984741210938
 20
-4.0
 30
0.0
 11
12.899988174438477
 21
-4.0
 31
0.0
  0
LINE
  5
D4
100
AcDbEntity
  8
0
  6
CONTINUOUS
 62
               7
100
AcDbLine
 10
28.999984741210938
 20
-4.899993896484375
 30
0.0
 11
28.199989318847656
 21
-4.899993896484375
 31
0.0
  0
LINE
  5
D5
100
AcDbEntity
  8
0
  6
CONTINUOUS
 62
               7
100
AcDbLine
 10
27.199988108397633
 20
6.8000000000016598
 30
0.0
 11
27.024992438753657
 21
6.9999950555489932
 31
0.0
  0
LINE
  5
D6
100
AcDbEntity
  8
0
  6
CONTINUOUS
 62
               7
100
AcDbLine
 10
27.899986267089844
 20
7.0
 30
0.0
 11
27.899986267089844
 21
-7.0
 31
0.0
  0
LINE
  5
D7
100
AcDbEntity
  8
0
  6
CONTINUOUS
 62
               7
100
AcDbLine
 10
27.374984741210937
 20
7.0
 30
0.0
 11
27.374984741210937
 21
-7.0
 31
0.0
  0
LINE
  5
D8
100
AcDbEntity
  8
0
  6
CONTINUOUS
 62
               7
100
AcDbLine
 10
27.374986586093883
 20
7.0000058930161231
 30
0.0
 11
27.199985892458471
 21
6.8000050957641633
 31
0.0
  0
LINE
  5
D9
100
AcDbEntity
  8
0
  6
CONTINUOUS
 62
               7
100
AcDbLine
 10
27.899986267089844
 20
7.0
 30
0.0
 11
27.374984741210937
 21
7.0
 31
0.0
  0
LINE
  5
DA
100
AcDbEntity
  8
0
  6
CONTINUOUS
 62
               7
100
AcDbLine
 10
28.199989318847656
 20
6.6999969482421875
 30
0.0
 11
28.199989318847656
 21
-6.6999969482421875
 31
0.0
  0
LINE
  5
DB
100
AcDbEntity
  8
0
  6
CONTINUOUS
 62
               7
100
AcDbLine
 10
30.699989318847656
 20
-6.899993896484375
 30
0.0
 11
28.999984741210938
 21
-6.899993896484375
 31
0.0
  0
LINE
  5
DC
100
AcDbEntity
  8
0
  6
CONTINUOUS
 62
               7
100
AcDbLine
 10
30.699989318847656
 20
6.899993896484375
 30
0.0
 11
28.999984741210938
 21
6.899993896484375
 31
0.0
  0
LINE
  5
DD
100
AcDbEntity
  8
0
  6
CONTINUOUS
 62
               7
100
AcDbLine
 10
27.024986267089844
 20
7.0
 30
0.0
 11
27.024986267089844
 21
-7.0
 31
0.0
  0
LINE
  5
DE
100
AcDbEntity
  8
0
  6
CONTINUOUS
 62
               7
100
AcDbLine
 10
27.899990088817958
 20
6.9999957606646603
 30
0.0
 11
28.199983933538988
 21
6.7000018906560399
 31
0.0
  0
LINE
  5
DF
100
AcDbEntity
  8
0
  6
CONTINUOUS
 62
               7
100
AcDbLine
 10
27.899992111866993
 20
-7.0000018298109126
 30
0.0
 11
28.19999135138454
 21
-6.7000025650053203
 31
0.0
  0
LINE
  5
E0
100
AcDbEntity
  8
0
  6
CONTINUOUS
 62
               7
100
AcDbLine
 10
27.199994298672891
 20
-6.8000016148560007
 30
0.0
 11
27.02499360503748
 21
-7.0000024121079605
 31
0.0
  0
LINE
  5
E1
100
AcDbEntity
  8
0
  6
CONTINUOUS
 62
               7
100
AcDbLine
 10
27.199989318847656
 20
6.8000030517578125
 30
0.0
 11
27.199989318847656
 21
-6.8000030517578125
 31
0.0
  0
LINE
  5
E2
100
AcDbEntity
  8
0
  6
CONTINUOUS
 62
               7
100
AcDbLine
 10
30.999984741210938
 20
6.600006103515625
 30
0.0
 11
30.999984741210938
 21
-6.600006103515625
 31
0.0
  0
LINE
  5
E3
100
AcDbEntity
  8
0
  6
CONTINUOUS
 62
               7
100
AcDbLine
 10
28.999984741210938
 20
6.899993896484375
 30
0.0
 11
28.999984741210938
 21
-6.899993896484375
 31
0.0
  0
LINE
  5
E4
100
AcDbEntity
  8
0
  6
CONTINUOUS
 62
               7
100
AcDbLine
 10
27.37498515066784
 20
-6.9999970113168501
 30
0.0
 11
27.199989481023863
 21
-6.8000019557695168
 31
0.0
  0
LINE
  5
E5
100
AcDbEntity
  8
0
  6
CONTINUOUS
 62
               7
100
AcDbLine
 10
27.024986267089844
 20
-7.0
 30
0.0
 11
26.29998779296875
 21
-7.0
 31
0.0
  0
LINE
  5
E6
100
AcDbEntity
  8
0
  6
CONTINUOUS
 62
               7
100
AcDbLine
 10
28.999984741210938
 20
4.899993896484375
 30
0.0
 11
28.199989318847656
 21
4.899993896484375
 31
0.0
  0
LINE
  5
E7
100
AcDbEntity
  8
0
  6
CONTINUOUS
 62
               7
100
AcDbLine
 10
27.024986267089844
 20
7.0
 30
0.0
 11
26.29998779296875
 21
7.0
 31
0.0
  0
LINE
  5
E8
100
AcDbEntity
  8
0
  6
CONTINUOUS
 62
               7
100
AcDbLine
 10
27.899986267089844
 20
-7.0
 30
0.0
 11
27.374984741210937
 21
-7.0
 31
0.0
  0
LINE
  5
E9
100
AcDbEntity
  8
0
  6
CONTINUOUS
 62
               7
100
AcDbLine
 10
14.599993138024587
 20
-5.4999932102582818
 30
0.0
 11
16.600002539446763
 21
-7.2000010684796791
 31
0.0
  0
LINE
  5
EA
100
AcDbEntity
  8
0
  6
CONTINUOUS
 62
               7
100
AcDbLine
 10
26.300019418424615
 20
-7.0999848954573892
 30
0.0
 11
24.30001538802431
 21
-7.1999850954854239
 31
0.0
  0
LINE
  5
EB
100
AcDbEntity
  8
0
  6
CONTINUOUS
 62
               7
100
AcDbLine
 10
12.00665283203125
 20
-7.1999969482421875
 30
0.0
 11
24.29998779296875
 21
-7.1999969482421875
 31
0.0
  0
LINE
  5
EC
100
AcDbEntity
  8
0
  6
CONTINUOUS
 62
               7
100
AcDbLine
 10
12.8743896484375
 20
-5.5
 30
0.0
 11
14.600006103515625
 21
-5.5
 31
0.0
  0
LINE
  5
ED
100
AcDbEntity
  8
0
  6
CONTINUOUS
 62
               7
100
AcDbLine
 10
14.60001043210346
 20
5.4999978970982681
 30
0.0
 11
16.600007480611879
 21
7.1999952553437936
 31
0.0
  0
LINE
  5
EE
100
AcDbEntity
  8
0
  6
CONTINUOUS
 62
               7
100
AcDbLine
 10
26.299999463874954
 20
7.1000059453641597
 30
0.0
 11
24.299995433474649
 21
7.2000061453921944
 31
0.0
  0
LINE
  5
EF
100
AcDbEntity
  8
0
  6
CONTINUOUS
 62
               7
100
AcDbLine
 10
14.600006103515625
 20
5.5
 30
0.0
 11
14.600006103515625
 21
-5.5
 31
0.0
  0
LINE
  5
F0
100
AcDbEntity
  8
0
  6
CONTINUOUS
 62
               7
100
AcDbLine
 10
26.29998779296875
 20
7.100006103515625
 30
0.0
 11
26.29998779296875
 21
-7.0999908447265625
 31
0.0
  0
LINE
  5
F1
100
AcDbEntity
  8
0
  6
CONTINUOUS
 62
               7
100
AcDbLine
 10
12.00665283203125
 20
7.1999969482421875
 30
0.0
 11
24.29998779296875
 21
7.1999969482421875
 31
0.0
  0
LINE
  5
F2
100
AcDbEntity
  8
0
  6
CONTINUOUS
 62
               7
100
AcDbLine
 10
24.29998779296875
 20
7.1999969482421875
 30
0.0
 11
24.29998779296875
 21
-7.1999969482421875
 31
0.0
  0
LINE
  5
F3
100
AcDbEntity
  8
0
  6
CONTINUOUS
 62
               7
100
AcDbLine
 10
16.600006103515625
 20
7.1999969482421875
 30
0.0
 11
16.600006103515625
 21
-7.1999969482421875
 31
0.0
  0
LINE
  5
F4
100
AcDbEntity
  8
0
  6
CONTINUOUS
 62
               7
100
AcDbLine
 10
12.8743896484375
 20
5.5
 30
0.0
 11
14.600006103515625
 21
5.5
 31
0.0
  0
LINE
  5
F5
100
AcDbEntity
  8
0
  6
CENTER
 62
               4
100
AcDbLine
 10
32.999984741210938
 20
0.0
 30
0.0
 11
-16.539993286132813
 21
0.0
 31
0.0
  0
LINE
  5
F6
100
AcDbEntity
  8
0
  6
CENTER
 62
               4
100
AcDbLine
 10
0.0
 20
16.540008544921875
 30
0.0
 11
0.0
 21
-16.539993286132813
 31
0.0
  0
ENDBLK
  5
F7
100
AcDbEntity
  8
0
100
AcDbBlockEnd
  0
BLOCK
  5
F8
100
AcDbEntity
  8
0
100
AcDbBlockBegin
  2
MS_3
 70
               0
 10
0.0
 20
0.0
 30
0.0
  3
MS_3
  1

  0
ARC
  5
F9
100
AcDbEntity
  8
0
  6
CONTINUOUS
 62
               7
100
AcDbCircle
 10
-10.699999809265137
 20
8.8400154113769531
 30
0.0
 40
0.5
100
AcDbArc
 50
179.99999499104325
 51
210.00000265605843
  0
ARC
  5
FA
100
AcDbEntity
  8
0
  6
CONTINUOUS
 62
               7
100
AcDbCircle
 10
6.0
 20
-3.5245294570922852
 30
0.0
 40
35.42864990234375
100
AcDbArc
 50
82.274860477707634
 51
97.725137701059126
  0
ARC
  5
FB
100
AcDbEntity
  8
0
  6
CONTINUOUS
 62
               7
100
AcDbCircle
 10
-6.0
 20
-3.5245294570922852
 30
0.0
 40
35.42864990234375
100
AcDbArc
 50
82.274860477707634
 51
97.725137701059126
  0
ARC
  5
FC
100
AcDbEntity
  8
0
  6
CONTINUOUS
 62
               7
100
AcDbCircle
 10
10.699999809265137
 20
8.8400154113769531
 30
0.0
 40
0.5
100
AcDbArc
 50
329.99999916517322
 51
0.0000000000001018
  0
CIRCLE
  5
FD
100
AcDbEntity
  8
0
  6
CONTINUOUS
 62
               7
100
AcDbCircle
 10
0.0
 20
17.639987945556641
 30
0.0
 40
6.9000000953674316
  0
CIRCLE
  5
FE
100
AcDbEntity
  8
0
  6
CONTINUOUS
 62
               7
100
AcDbCircle
 10
0.0
 20
17.639987945556641
 30
0.0
 40
4.0999999046325684
  0
CIRCLE
  5
FF
100
AcDbEntity
  8
0
  6
CONTINUOUS
 62
               7
100
AcDbCircle
 10
0.0
 20
17.639987945556641
 30
0.0
 40
7.1999998092651367
  0
CIRCLE
  5
100
100
AcDbEntity
  8
0
  6
CONTINUOUS
 62
               7
100
AcDbCircle
 10
0.0
 20
17.639987945556641
 30
0.0
 40
7.0999999046325684
  0
LINE
  5
101
100
AcDbEntity
  8
0
  6
CONTINUOUS
 62
               7
100
AcDbLine
 10
0.678557276725769
 20
24.807941436767578
 30
0.0
 11
14.0
 21
24.807941436767578
 31
0.0
  0
LINE
  5
102
100
AcDbEntity
  8
0
  6
CONTINUOUS
 62
               7
100
AcDbLine
 10
-1.2376476526260376
 20
31.58258056640625
 30
0.0
 11
1.2376476526260376
 21
31.58258056640625
 31
0.0
  0
LINE
  5
103
100
AcDbEntity
  8
0
  6
CONTINUOUS
 62
               7
100
AcDbLine
 10
10.762351989746094
 20
31.58258056640625
 30
0.0
 11
12.0
 21
31.58258056640625
 31
0.0
  0
LINE
  5
104
100
AcDbEntity
  8
0
  6
CONTINUOUS
 62
               7
100
AcDbLine
 10
12.0
 20
31.904119491577148
 30
0.0
 11
12.0
 21
26.890018463134766
 31
0.0
  0
LINE
  5
105
100
AcDbEntity
  8
0
  6
CONTINUOUS
 62
               7
100
AcDbLine
 10
-11.133012785811957
 20
8.5900154139152392
 30
0.0
 11
-10.699999823470648
 21
7.8400149762653655
 31
0.0
  0
LINE
  5
106
100
AcDbEntity
  8
0
  6
CONTINUOUS
 62
               7
100
AcDbLine
 10
-12.0
 20
26.890018463134766
 30
0.0
 11
12.0
 21
26.890018463134766
 31
0.0
  0
LINE
  5
107
100
AcDbEntity
  8
0
  6
CONTINUOUS
 62
               7
100
AcDbLine
 10
12.000000279425478
 20
31.904121430849642
 30
0.0
 11
10.000000433995595
 21
32.440019778786571
 31
0.0
  0
LINE
  5
108
100
AcDbEntity
  8
0
  6
CONTINUOUS
 62
               7
100
AcDbLine
 10
-12.000000279425478
 20
31.904121430849642
 30
0.0
 11
-10.000000433995595
 21
32.440019778786571
 31
0.0
  0
LINE
  5
109
100
AcDbEntity
  8
0
  6
CONTINUOUS
 62
               7
100
AcDbLine
 10
-10.762351989746094
 20
31.58258056640625
 30
0.0
 11
-10.762351989746094
 21
26.890018463134766
 31
0.0
  0
LINE
  5
10A
100
AcDbEntity
  8
0
  6
CONTINUOUS
 62
               7
100
AcDbLine
 10
-12.0
 20
31.904119491577148
 30
0.0
 11
-12.0
 21
26.890018463134766
 31
0.0
  0
LINE
  5
10B
100
AcDbEntity
  8
0
  6
CONTINUOUS
 62
               7
100
AcDbLine
 10
1.2376476526260376
 20
31.58258056640625
 30
0.0
 11
1.2376476526260376
 21
26.890018463134766
 31
0.0
  0
LINE
  5
10C
100
AcDbEntity
  8
0
  6
CONTINUOUS
 62
               7
100
AcDbLine
 10
10.762351989746094
 20
31.58258056640625
 30
0.0
 11
10.762351989746094
 21
26.890018463134766
 31
0.0
  0
LINE
  5
10D
100
AcDbEntity
  8
0
  6
CONTINUOUS
 62
               7
100
AcDbLine
 10
-1.2376476526260376
 20
31.58258056640625
 30
0.0
 11
-1.2376476526260376
 21
26.890018463134766
 31
0.0
  0
LINE
  5
10E
100
AcDbEntity
  8
0
  6
CONTINUOUS
 62
               7
100
AcDbLine
 10
-12.0
 20
31.58258056640625
 30
0.0
 11
-10.762351989746094
 21
31.58258056640625
 31
0.0
  0
LINE
  5
10F
100
AcDbEntity
  8
0
  6
CONTINUOUS
 62
               7
100
AcDbLine
 10
-10.699999809265137
 20
7.8400154113769531
 30
0.0
 11
-10.699999809265137
 21
7.120002269744873
 31
0.0
  0
LINE
  5
110
100
AcDbEntity
  8
0
  6
CONTINUOUS
 62
               7
100
AcDbLine
 10
-10.699999809265137
 20
7.8400154113769531
 30
0.0
 11
10.699999809265137
 21
7.8400154113769531
 31
0.0
  0
LINE
  5
111
100
AcDbEntity
  8
0
  6
CONTINUOUS
 62
               4
100
AcDbLine
 10
9.3154993375733515
 20
-0.000000446816717
 30
0.0
 11
9.0705154695360068
 21
-7.839484224011759
 31
0.0
  0
LINE
  5
112
100
AcDbEntity
  8
0
  6
CONTINUOUS
 62
               7
100
AcDbLine
 10
-10.656005859375
 20
5.7122006416320801
 30
0.0
 11
10.656005859375
 21
5.7122006416320801
 31
0.0
  0
LINE
  5
113
100
AcDbEntity
  8
0
  6
CONTINUOUS
 62
               7
100
AcDbLine
 10
10.699999809265137
 20
7.8400154113769531
 30
0.0
 11
10.699999809265137
 21
7.120002269744873
 31
0.0
  0
LINE
  5
114
100
AcDbEntity
  8
0
  6
CONTINUOUS
 62
               7
100
AcDbLine
 10
-8.75
 20
-8.1599998474121094
 30
0.0
 11
8.75
 21
-8.1599998474121094
 31
0.0
  0
LINE
  5
115
100
AcDbEntity
  8
0
  6
CENTER
 62
               4
100
AcDbLine
 10
-13.019776344299316
 20
0.0
 30
0.0
 11
13.69629955291748
 21
0.0
 31
0.0
  0
LINE
  5
116
100
AcDbEntity
  8
0
  6
CONTINUOUS
 62
               7
100
AcDbLine
 10
-10.699999618228455
 20
7.120002520512223
 30
0.0
 11
-10.477499530153766
 21
-0.0000002978778113
 31
0.0
  0
LINE
  5
117
100
AcDbEntity
  8
0
  6
CONTINUOUS
 62
               4
100
AcDbLine
 10
-9.4940056282878871
 20
5.7122008560484083
 30
0.0
 11
-9.3154993375733515
 21
-0.000000446816717
 31
0.0
  0
LINE
  5
118
100
AcDbEntity
  8
0
  6
CONTINUOUS
 62
               4
100
AcDbLine
 10
9.4940056282878871
 20
5.7122008560484083
 30
0.0
 11
9.3154993375733515
 21
-0.000000446816717
 31
0.0
  0
LINE
  5
119
100
AcDbEntity
  8
0
  6
CONTINUOUS
 62
               7
100
AcDbLine
 10
10.699999618228455
 20
7.120002520512223
 30
0.0
 11
10.477499530153766
 21
-0.0000002978778113
 31
0.0
  0
LINE
  5
11A
100
AcDbEntity
  8
0
  6
CONTINUOUS
 62
               7
100
AcDbLine
 10
-8.7499996372799878
 20
-8.1599994863586254
 30
0.0
 11
-10.269999782499852
 21
-6.6399993411387612
 31
0.0
  0
LINE
  5
11B
100
AcDbEntity
  8
0
  6
CONTINUOUS
 62
               7
100
AcDbLine
 10
8.7499996372799878
 20
-8.1599994863586254
 30
0.0
 11
10.269999782499852
 21
-6.6399993411387612
 31
0.0
  0
LINE
  5
11C
100
AcDbEntity
  8
0
  6
CONTINUOUS
 62
               7
100
AcDbLine
 10
11.133012785811957
 20
8.5900154139152392
 30
0.0
 11
10.699999823470648
 21
7.8400149762653655
 31
0.0
  0
LINE
  5
11D
100
AcDbEntity
  8
0
  6
CONTINUOUS
 62
               7
100
AcDbLine
 10
-10.269999504089355
 20
-6.6399998664855957
 30
0.0
 11
10.269999504089355
 21
-6.6399998664855957
 31
0.0
  0
LINE
  5
11E
100
AcDbEntity
  8
0
  6
CONTINUOUS
 62
               7
100
AcDbLine
 10
-10.699999809265137
 20
8.6400184631347656
 30
0.0
 11
10.699999809265137
 21
8.6400184631347656
 31
0.0
  0
LINE
  5
11F
100
AcDbEntity
  8
0
  6
CONTINUOUS
 62
               4
100
AcDbLine
 10
-9.3154993375733515
 20
-0.000000446816717
 30
0.0
 11
-9.0705154695360068
 21
-7.839484224011759
 31
0.0
  0
LINE
  5
120
100
AcDbEntity
  8
0
  6
CONTINUOUS
 62
               4
100
AcDbLine
 10
-10.699999884262837
 20
7.8010431816697974
 30
0.0
 11
-9.494005755081929
 21
5.71220011378972
 31
0.0
  0
LINE
  5
121
100
AcDbEntity
  8
0
  6
CONTINUOUS
 62
               7
100
AcDbLine
 10
-10.477499530153766
 20
-0.0000002978778113
 30
0.0
 11
-10.269999533531058
 21
-6.6400001898044891
 31
0.0
  0
LINE
  5
122
100
AcDbEntity
  8
0
  6
CONTINUOUS
 62
               7
100
AcDbLine
 10
10.477499530153766
 20
-0.0000002978778113
 30
0.0
 11
10.269999533531058
 21
-6.6400001898044891
 31
0.0
  0
LINE
  5
123
100
AcDbEntity
  8
0
  6
CONTINUOUS
 62
               4
100
AcDbLine
 10
10.699999884262837
 20
7.8010431816697974
 30
0.0
 11
9.494005755081929
 21
5.71220011378972
 31
0.0
  0
LINE
  5
124
100
AcDbEntity
  8
0
  6
CENTER
 62
               4
100
AcDbLine
 10
6.5
 20
50.639995574951172
 30
0.0
 11
6.5
 21
46.240001678466797
 31
0.0
  0
LINE
  5
125
100
AcDbEntity
  8
0
  6
CENTER
 62
               4
100
AcDbLine
 10
6.2000007629394531
 20
50.939998626708984
 30
0.0
 11
-6.2000007629394531
 21
50.939998626708984
 31
0.0
  0
LINE
  5
126
100
AcDbEntity
  8
0
  6
CENTER
 62
               4
100
AcDbLine
 10
-6.5
 20
50.639995574951172
 30
0.0
 11
-6.5
 21
46.240001678466797
 31
0.0
  0
LINE
  5
127
100
AcDbEntity
  8
0
  6
CENTER
 62
               4
100
AcDbLine
 10
6.500000993872618
 20
50.640001086290908
 30
0.0
 11
6.2000017290670257
 21
50.940000325808455
 31
0.0
  0
LINE
  5
128
100
AcDbEntity
  8
0
  6
CONTINUOUS
 62
               7
100
AcDbLine
 10
-5.0
 20
38.739997863769531
 30
0.0
 11
5.0
 21
38.739997863769531
 31
0.0
  0
LINE
  5
129
100
AcDbEntity
  8
0
  6
CONTINUOUS
 62
               7
100
AcDbLine
 10
5.000001261850116
 20
38.739997374177506
 30
0.0
 11
4.8000053653694295
 21
38.939993270658192
 31
0.0
  0
LINE
  5
12A
100
AcDbEntity
  8
0
  6
CONTINUOUS
 62
               7
100
AcDbLine
 10
-5.000001261850116
 20
38.740000071575764
 30
0.0
 11
-4.8000067140685587
 21
38.939994619357321
 31
0.0
  0
LINE
  5
12B
100
AcDbEntity
  8
0
  6
CONTINUOUS
 62
               7
100
AcDbLine
 10
5.0
 20
38.739997863769531
 30
0.0
 11
5.0
 21
37.939990997314453
 31
0.0
  0
LINE
  5
12C
100
AcDbEntity
  8
0
  6
CONTINUOUS
 62
               7
100
AcDbLine
 10
-5.0
 20
38.739997863769531
 30
0.0
 11
-5.0
 21
37.939990997314453
 31
0.0
  0
LINE
  5
12D
100
AcDbEntity
  8
0
  6
CENTER
 62
               4
100
AcDbLine
 10
-6.500000993872618
 20
50.640001086290908
 30
0.0
 11
-6.2000017290670257
 21
50.940000325808455
 31
0.0
  0
LINE
  5
12E
100
AcDbEntity
  8
0
  6
CONTINUOUS
 62
               7
100
AcDbLine
 10
6.2000007629394531
 20
43.939998626708984
 30
0.0
 11
-6.2000007629394531
 21
43.939998626708984
 31
0.0
  0
LINE
  5
12F
100
AcDbEntity
  8
0
  6
CONTINUOUS
 62
               7
100
AcDbLine
 10
6.2000007629394531
 20
38.939994812011719
 30
0.0
 11
-6.2000007629394531
 21
38.939994812011719
 31
0.0
  0
LINE
  5
130
100
AcDbEntity
  8
0
  6
CONTINUOUS
 62
               4
100
AcDbLine
 10
4.1879978179931641
 20
38.939994812011719
 30
0.0
 11
4.1879978179931641
 21
37.939990997314453
 31
0.0
  0
LINE
  5
131
100
AcDbEntity
  8
0
  6
CONTINUOUS
 62
               4
100
AcDbLine
 10
-4.1879997253417969
 20
38.939994812011719
 30
0.0
 11
-4.1879997253417969
 21
37.939990997314453
 31
0.0
  0
LINE
  5
132
100
AcDbEntity
  8
0
  6
CONTINUOUS
 62
               7
100
AcDbLine
 10
6.5
 20
39.239997863769531
 30
0.0
 11
-6.5
 21
39.239997863769531
 31
0.0
  0
LINE
  5
133
100
AcDbEntity
  8
0
  6
CONTINUOUS
 62
               7
100
AcDbLine
 10
6.5000012889006484
 20
43.63999875493289
 30
0.0
 11
6.2000020240950562
 21
43.939997994450437
 31
0.0
  0
LINE
  5
134
100
AcDbEntity
  8
0
  6
CONTINUOUS
 62
               7
100
AcDbLine
 10
-6.5
 20
43.639995574951172
 30
0.0
 11
-6.5
 21
39.239997863769531
 31
0.0
  0
LINE
  5
135
100
AcDbEntity
  8
0
  6
CONTINUOUS
 62
               7
100
AcDbLine
 10
-6.500000000000048
 20
43.639991760253899
 30
0.0
 11
6.499999999999952
 21
43.639991760253913
 31
0.0
  0
LINE
  5
136
100
AcDbEntity
  8
0
  6
CONTINUOUS
 62
               7
100
AcDbLine
 10
6.5000020846329107
 20
39.239999284860005
 30
0.0
 11
6.1999987737295896
 21
38.93999599924507
 31
0.0
  0
LINE
  5
137
100
AcDbEntity
  8
0
  6
CONTINUOUS
 62
               7
100
AcDbLine
 10
6.5
 20
43.639995574951172
 30
0.0
 11
6.5
 21
39.239997863769531
 31
0.0
  0
LINE
  5
138
100
AcDbEntity
  8
0
  6
CONTINUOUS
 62
               7
100
AcDbLine
 10
-6.5000012889006484
 20
43.63999875493289
 30
0.0
 11
-6.2000020240950562
 21
43.939997994450437
 31
0.0
  0
LINE
  5
139
100
AcDbEntity
  8
0
  6
CONTINUOUS
 62
               7
100
AcDbLine
 10
-6.4999980385352956
 20
39.239997936160989
 30
0.0
 11
-6.1999974250304604
 21
38.939997347944313
 31
0.0
  0
LINE
  5
13A
100
AcDbEntity
  8
0
  6
CONTINUOUS
 62
               7
100
AcDbLine
 10
-10.0
 20
32.439990997314453
 30
0.0
 11
10.0
 21
32.439990997314453
 31
0.0
  0
LINE
  5
13B
100
AcDbEntity
  8
0
  6
CONTINUOUS
 62
               7
100
AcDbLine
 10
7.0000000535547393
 20
34.14000319336494
 30
0.0
 11
-6.9999999464452607
 21
34.140003215326466
 31
0.0
  0
LINE
  5
13C
100
AcDbEntity
  8
0
  6
CONTINUOUS
 62
               7
100
AcDbLine
 10
7.0
 20
34.140003204345703
 30
0.0
 11
7.0
 21
32.439990997314453
 31
0.0
  0
LINE
  5
13D
100
AcDbEntity
  8
0
  6
CONTINUOUS
 62
               7
100
AcDbLine
 10
-7.0
 20
34.140003204345703
 30
0.0
 11
-7.0
 21
32.439990997314453
 31
0.0
  0
LINE
  5
13E
100
AcDbEntity
  8
0
  6
CONTINUOUS
 62
               7
100
AcDbLine
 10
11.95001220703125
 20
26.890003204345703
 30
0.0
 11
11.95001220703125
 21
26.539997100830078
 31
0.0
  0
LINE
  5
13F
100
AcDbEntity
  8
0
  6
CONTINUOUS
 62
               7
100
AcDbLine
 10
-11.95001220703125
 20
26.890003204345703
 30
0.0
 11
-11.95001220703125
 21
26.539997100830078
 31
0.0
  0
LINE
  5
140
100
AcDbEntity
  8
0
  6
CONTINUOUS
 62
               7
100
AcDbLine
 10
-7.0000143794572978
 20
34.139981547015168
 30
0.0
 11
-6.6999989302607901
 21
34.439996970922266
 31
0.0
  0
LINE
  5
141
100
AcDbEntity
  8
0
  6
CONTINUOUS
 62
               7
100
AcDbLine
 10
6.6999964385381645
 20
34.439985616561216
 30
0.0
 11
6.9999902832591943
 21
34.139991746552596
 31
0.0
  0
LINE
  5
142
100
AcDbEntity
  8
0
  6
CONTINUOUS
 62
               7
100
AcDbLine
 10
7.79998779296875
 20
34.439990997314453
 30
0.0
 11
-7.79998779296875
 21
34.439990997314453
 31
0.0
  0
LINE
  5
143
100
AcDbEntity
  8
0
  6
CONTINUOUS
 62
               7
100
AcDbLine
 10
-8.0
 20
37.739994049072266
 30
0.0
 11
-8.0
 21
34.639987945556641
 31
0.0
  0
LINE
  5
144
100
AcDbEntity
  8
0
  6
CONTINUOUS
 62
               7
100
AcDbLine
 10
7.79998779296875
 20
37.939990997314453
 30
0.0
 11
-7.79998779296875
 21
37.939990997314453
 31
0.0
  0
LINE
  5
145
100
AcDbEntity
  8
0
  6
CONTINUOUS
 62
               7
100
AcDbLine
 10
8.0
 20
37.739994049072266
 30
0.0
 11
8.0
 21
34.639987945556641
 31
0.0
  0
LINE
  5
146
100
AcDbEntity
  8
0
  6
CONTINUOUS
 62
               7
100
AcDbLine
 10
-7.9999991470740497
 20
37.739999589083936
 30
0.0
 11
-7.8000032337349694
 21
37.939995485564623
 31
0.0
  0
LINE
  5
147
100
AcDbEntity
  8
0
  6
CONTINUOUS
 62
               7
100
AcDbLine
 10
-8.0000021976626385
 20
34.639994953671817
 30
0.0
 11
-7.8000008895265864
 21
34.439993662394613
 31
0.0
  0
LINE
  5
148
100
AcDbEntity
  8
0
  6
CONTINUOUS
 62
               7
100
AcDbLine
 10
7.9999999683022391
 20
34.639987952877142
 30
0.0
 11
-8.0000000316977609
 21
34.639987938236139
 31
0.0
  0
LINE
  5
149
100
AcDbEntity
  8
0
  6
CONTINUOUS
 62
               7
100
AcDbLine
 10
8.00000049577352
 20
37.739992845588063
 30
0.0
 11
7.8000045824344397
 21
37.939988742068749
 31
0.0
  0
LINE
  5
14A
100
AcDbEntity
  8
0
  6
CONTINUOUS
 62
               7
100
AcDbLine
 10
-8.0000000000000675
 20
37.739994049072251
 30
0.0
 11
7.9999999999999334
 21
37.73999404907228
 31
0.0
  0
LINE
  5
14B
100
AcDbEntity
  8
0
  6
CONTINUOUS
 62
               7
100
AcDbLine
 10
7.7999925916559505
 20
34.43998353029167
 30
0.0
 11
7.999988488136637
 21
34.63997944363075
 31
0.0
  0
LINE
  5
14C
100
AcDbEntity
  8
0
  6
CONTINUOUS
 62
               7
100
AcDbLine
 10
14.0
 20
24.807941436767578
 30
0.0
 11
14.0
 21
10.572040557861328
 31
0.0
  0
LINE
  5
14D
100
AcDbEntity
  8
0
  6
CENTER
 62
               4
100
AcDbLine
 10
0.0
 20
52.909999847412109
 30
0.0
 11
0.0
 21
-10.159999847412109
 31
0.0
  0
LINE
  5
14E
100
AcDbEntity
  8
0
  6
CENTER
 62
               4
100
AcDbLine
 10
9.44000244140625
 20
17.639987945556641
 30
0.0
 11
-9.44000244140625
 21
17.639987945556641
 31
0.0
  0
LINE
  5
14F
100
AcDbEntity
  8
0
  6
CONTINUOUS
 62
               7
100
AcDbLine
 10
-13.99999110487056
 20
24.807951469747479
 30
0.0
 11
-12.999991581707718
 21
26.540001420322938
 31
0.0
  0
LINE
  5
150
100
AcDbEntity
  8
0
  6
CONTINUOUS
 62
               7
100
AcDbLine
 10
-13.999988442723549
 20
10.572052617949907
 30
0.0
 11
-12.999989396397865
 21
8.8400034932806193
 31
0.0
  0
LINE
  5
151
100
AcDbEntity
  8
0
  6
CONTINUOUS
 62
               7
100
AcDbLine
 10
-14.0
 20
10.572040557861328
 30
0.0
 11
14.0
 21
10.572040557861328
 31
0.0
  0
LINE
  5
152
100
AcDbEntity
  8
0
  6
CONTINUOUS
 62
               7
100
AcDbLine
 10
-14.0
 20
24.807941436767578
 30
0.0
 11
-0.678557276725769
 21
24.807941436767578
 31
0.0
  0
LINE
  5
153
100
AcDbEntity
  8
0
  6
CONTINUOUS
 62
               7
100
AcDbLine
 10
-14.0
 20
24.807941436767578
 30
0.0
 11
-14.0
 21
10.572040557861328
 31
0.0
  0
LINE
  5
154
100
AcDbEntity
  8
0
  6
CONTINUOUS
 62
               7
100
AcDbLine
 10
14.000019730988356
 20
24.807951478921041
 30
0.0
 11
13.000020684662672
 21
26.540000603590329
 31
0.0
  0
LINE
  5
155
100
AcDbEntity
  8
0
  6
CONTINUOUS
 62
               7
100
AcDbLine
 10
-13.0
 20
8.8400001525878906
 30
0.0
 11
13.0
 21
8.8400001525878906
 31
0.0
  0
LINE
  5
156
100
AcDbEntity
  8
0
  6
CONTINUOUS
 62
               7
100
AcDbLine
 10
-13.0
 20
26.539997100830078
 30
0.0
 11
13.0
 21
26.539997100830078
 31
0.0
  0
LINE
  5
157
100
AcDbEntity
  8
0
  6
CONTINUOUS
 62
               7
100
AcDbLine
 10
14.000003112795611
 20
10.572026528847914
 30
0.0
 11
13.000003589632769
 21
8.8399765782724558
 31
0.0
  0
ENDBLK
  5
158
100
AcDbEntity
  8
0
100
AcDbBlockEnd
  0
BLOCK
  5
159
100
AcDbEntity
  8
0
100
AcDbBlockBegin
  2
MS_4
 70
               0
 10
0.0
 20
0.0
 30
0.0
  3
MS_4
  1

  0
SPLINE
  5
15A
100
AcDbEntity
  8
0
  6
CONTINUOUS
 62
               7
100
AcDbSpline
210
0.0
220
0.0
230
1.0
 70
               0
 71
               3
 72
               0
 73
               0
 74
              15
 44
0.000001
 12
0.0597394845008508
 22
-0.9982140021015397
 32
0.0
 13
0.4076817227442129
 23
-0.913124095038736
 33
0.0
 11
12.550007802831896
 21
16.889611843080214
 31
0.0
 11
12.589851722512309
 21
16.388851588438957
 31
0.0
 11
12.64910888671875
 21
15.889999389648438
 31
0.0
 11
12.827478922173484
 21
14.882426944720958
 31
0.0
 11
13.076698303222656
 21
13.889999389648438
 31
0.0
 11
13.238072380866276
 21
13.361031887886195
 31
0.0
 11
13.416404724121094
 21
12.837656021118164
 31
0.0
 11
13.542405256946871
 21
12.496151003541314
 31
0.0
 11
13.674797058105469
 21
12.157072067260742
 31
0.0
 11
13.764367807904893
 21
11.937342593892524
 31
0.0
 11
13.856407165527344
 21
11.718639373779297
 31
0.0
 11
13.909947289404803
 21
11.594414823493508
 31
0.0
 11
13.964241027832031
 21
11.470518112182617
 31
0.0
 11
13.982081184629351
 21
11.430241260677576
 31
0.0
 11
14.0
 21
11.389999389648438
 31
0.0
  0
SPLINE
  5
15B
100
AcDbEntity
  8
0
  6
CONTINUOUS
 62
               7
100
AcDbSpline
210
0.0
220
0.0
230
1.0
 70
               0
 71
               3
 72
               0
 73
               0
 74
              15
 44
0.000001
 12
-0.407681722744213
 22
-0.913124095038736
 32
0.0
 13
-0.0597090273454195
 23
-0.9982158243854201
 33
0.0
 11
14.0
 21
23.889999389648437
 31
0.0
 11
13.982081172276292
 21
23.849757490477156
 31
0.0
 11
13.964241027832031
 21
23.809480667114258
 31
0.0
 11
13.909947355588789
 21
23.685584107531476
 31
0.0
 11
13.856407165527344
 21
23.561359405517578
 31
0.0
 11
13.76436768211031
 21
23.342656822466221
 31
0.0
 11
13.674797058105469
 21
23.122928619384766
 31
0.0
 11
13.542405459232471
 21
22.783849276203966
 31
0.0
 11
13.416404724121094
 21
22.442342758178711
 31
0.0
 11
13.238072195259653
 21
21.918966331755659
 31
0.0
 11
13.076698303222656
 21
21.389999389648438
 31
0.0
 11
12.827479043758482
 21
20.397572326137041
 31
0.0
 11
12.64910888671875
 21
19.389999389648438
 31
0.0
 11
12.589832535523138
 21
18.890953921489398
 31
0.0
 11
12.549984605287626
 21
18.389999374741599
 31
0.0
  0
ARC
  5
15C
100
AcDbEntity
  8
0
  6
CONTINUOUS
 62
               7
100
AcDbCircle
 10
33.300006866455078
 20
9.5399990081787109
 30
0.0
 40
0.300000011920929
100
AcDbArc
 50
269.99999749552126
 51
0.0000025044780655
  0
ARC
  5
15D
100
AcDbEntity
  8
0
  6
CONTINUOUS
 62
               7
100
AcDbCircle
 10
33.300006866455078
 20
25.739999771118164
 30
0.0
 40
0.300000011920929
100
AcDbArc
 50
0.0000025044780655
 51
90.000002504477962
  0
ARC
  5
15E
100
AcDbEntity
  8
0
  6
CONTINUOUS
 62
               7
100
AcDbCircle
 10
0.0
 20
-15.280489921569824
 30
0.0
 40
47.184608459472656
100
AcDbArc
 50
83.307305042457585
 51
96.692699966498338
  0
ARC
  5
15F
100
AcDbEntity
  8
0
  6
CONTINUOUS
 62
               7
100
AcDbCircle
 10
10.392304420471191
 20
19.987390518188477
 30
0.0
 40
11.916729927062988
100
AcDbArc
 50
76.659953206336922
 51
103.34004497242984
  0
ARC
  5
160
100
AcDbEntity
  8
0
  6
CONTINUOUS
 62
               7
100
AcDbCircle
 10
-10.392304420471191
 20
19.987390518188477
 30
0.0
 40
11.916729927062988
100
AcDbArc
 50
76.659953206336922
 51
103.34004497242984
  0
ARC
  5
161
100
AcDbEntity
  8
0
  6
CONTINUOUS
 62
               7
100
AcDbCircle
 10
10.699999809265137
 20
8.8400154113769531
 30
0.0
 40
0.5
100
AcDbArc
 50
329.99999916517322
 51
0.0000000000001018
  0
ARC
  5
162
100
AcDbEntity
  8
0
  6
CONTINUOUS
 62
               7
100
AcDbCircle
 10
-10.699999809265137
 20
8.8400154113769531
 30
0.0
 40
0.5
100
AcDbArc
 50
179.99999499104325
 51
210.00000265605843
  0
LINE
  5
163
100
AcDbEntity
  8
0
  6
DASHED
 62
               4
100
AcDbLine
 10
33.600006103515625
 20
22.639999389648438
 30
0.0
 11
13.400006294250488
 21
22.639999389648438
 31
0.0
  0
LINE
  5
164
100
AcDbEntity
  8
0
  6
DASHED
 62
               4
100
AcDbLine
 10
33.600006103515625
 20
12.639999389648438
 30
0.0
 11
13.400006294250488
 21
12.639999389648438
 31
0.0
  0
LINE
  5
165
100
AcDbEntity
  8
0
  6
CONTINUOUS
 62
               7
100
AcDbLine
 10
29.700006484985352
 20
25.939998626708984
 30
0.0
 11
29.700006484985352
 21
9.3399991989135742
 31
0.0
  0
LINE
  5
166
100
AcDbEntity
  8
0
  6
CONTINUOUS
 62
               7
100
AcDbLine
 10
29.525005340576172
 20
26.139999389648438
 30
0.0
 11
29.525005340576172
 21
9.1399993896484375
 31
0.0
  0
LINE
  5
167
100
AcDbEntity
  8
0
  6
CONTINUOUS
 62
               7
100
AcDbLine
 10
30.200006484985352
 20
26.139999389648438
 30
0.0
 11
30.200006484985352
 21
9.1399993896484375
 31
0.0
  0
LINE
  5
168
100
AcDbEntity
  8
0
  6
CONTINUOUS
 62
               7
100
AcDbLine
 10
29.875005769337918
 20
9.1399991910212748
 30
0.0
 11
29.700005703701436
 21
9.3399992705601562
 31
0.0
  0
LINE
  5
169
100
AcDbEntity
  8
0
  6
CONTINUOUS
 62
               7
100
AcDbLine
 10
30.200007726942204
 20
9.1400001128345707
 30
0.0
 11
30.50000696645975
 21
9.4399993776401629
 31
0.0
  0
LINE
  5
16A
100
AcDbEntity
  8
0
  6
CONTINUOUS
 62
               7
100
AcDbLine
 10
30.200006484985352
 20
9.1399993896484375
 30
0.0
 11
29.875005722045898
 21
9.1399993896484375
 31
0.0
  0
LINE
  5
16B
100
AcDbEntity
  8
0
  6
CONTINUOUS
 62
               7
100
AcDbLine
 10
29.525005340576172
 20
9.1399993896484375
 30
0.0
 11
28.600006103515625
 21
9.1399993896484375
 31
0.0
  0
LINE
  5
16C
100
AcDbEntity
  8
0
  6
CONTINUOUS
 62
               7
100
AcDbLine
 10
29.700005853075481
 20
9.3399999366877182
 30
0.0
 11
29.525006415437929
 21
9.1400005748619151
 31
0.0
  0
LINE
  5
16D
100
AcDbEntity
  8
0
  6
CONTINUOUS
 62
               7
100
AcDbLine
 10
29.525005340576172
 20
26.139999389648438
 30
0.0
 11
28.600006103515625
 21
26.139999389648438
 31
0.0
  0
LINE
  5
16E
100
AcDbEntity
  8
0
  6
CONTINUOUS
 62
               7
100
AcDbLine
 10
30.200008202358646
 20
26.14000115781721
 30
0.0
 11
30.500008116225757
 21
25.840001218661996
 31
0.0
  0
LINE
  5
16F
100
AcDbEntity
  8
0
  6
CONTINUOUS
 62
               7
100
AcDbLine
 10
29.70000522085715
 20
25.939998271537625
 30
0.0
 11
29.525005152767548
 21
26.139998353880074
 31
0.0
  0
LINE
  5
170
100
AcDbEntity
  8
0
  6
CONTINUOUS
 62
               7
100
AcDbLine
 10
29.875006898838876
 20
26.140000309648315
 30
0.0
 11
29.700006205203465
 21
25.939999512396355
 31
0.0
  0
LINE
  5
171
100
AcDbEntity
  8
0
  6
CONTINUOUS
 62
               7
100
AcDbLine
 10
30.200006484985352
 20
26.139999389648438
 30
0.0
 11
29.875005722045898
 21
26.139999389648438
 31
0.0
  0
LINE
  5
172
100
AcDbEntity
  8
0
  6
CONTINUOUS
 62
               7
100
AcDbLine
 10
30.500005722045898
 20
25.840000152587891
 30
0.0
 11
30.500005722045898
 21
9.4399995803833008
 31
0.0
  0
LINE
  5
173
100
AcDbEntity
  8
0
  6
CONTINUOUS
 62
               7
100
AcDbLine
 10
29.875005722045898
 20
26.139999389648438
 30
0.0
 11
29.875005722045898
 21
9.1399993896484375
 31
0.0
  0
LINE
  5
174
100
AcDbEntity
  8
0
  6
CONTINUOUS
 62
               7
100
AcDbLine
 10
33.300006866455078
 20
9.2399997711181641
 30
0.0
 11
31.400005340576172
 21
9.2399997711181641
 31
0.0
  0
LINE
  5
175
100
AcDbEntity
  8
0
  6
CONTINUOUS
 62
               7
100
AcDbLine
 10
33.300006866455078
 20
26.039999008178711
 30
0.0
 11
31.400005340576172
 21
26.039999008178711
 31
0.0
  0
LINE
  5
176
100
AcDbEntity
  8
0
  6
CONTINUOUS
 62
               7
100
AcDbLine
 10
33.600006103515625
 20
25.739999771118164
 30
0.0
 11
33.600006103515625
 21
9.5399990081787109
 31
0.0
  0
LINE
  5
177
100
AcDbEntity
  8
0
  6
CONTINUOUS
 62
               7
100
AcDbLine
 10
31.400005340576172
 20
26.039999008178711
 30
0.0
 11
31.400005340576172
 21
9.2399997711181641
 31
0.0
  0
LINE
  5
178
100
AcDbEntity
  8
0
  6
CONTINUOUS
 62
               7
100
AcDbLine
 10
31.400005340576172
 20
11.614999771118164
 30
0.0
 11
30.500005722045898
 21
11.614999771118164
 31
0.0
  0
LINE
  5
179
100
AcDbEntity
  8
0
  6
CONTINUOUS
 62
               7
100
AcDbLine
 10
31.400005340576172
 20
23.664999008178711
 30
0.0
 11
30.500005722045898
 21
23.664999008178711
 31
0.0
  0
LINE
  5
17A
100
AcDbEntity
  8
0
  6
CONTINUOUS
 62
               7
100
AcDbLine
 10
5.4990906715393066
 20
31.58258056640625
 30
0.0
 11
7.6427593231201172
 21
31.58258056640625
 31
0.0
  0
LINE
  5
17B
100
AcDbEntity
  8
0
  6
CONTINUOUS
 62
               7
100
AcDbLine
 10
13.141850471496582
 20
31.58258056640625
 30
0.0
 11
13.199999809265137
 21
31.58258056640625
 31
0.0
  0
LINE
  5
17C
100
AcDbEntity
  8
0
  6
CONTINUOUS
 62
               7
100
AcDbLine
 10
-13.199999809265137
 20
31.58258056640625
 30
0.0
 11
-13.199999809265137
 21
26.890018463134766
 31
0.0
  0
LINE
  5
17D
100
AcDbEntity
  8
0
  6
CONTINUOUS
 62
               7
100
AcDbLine
 10
7.6427593231201172
 20
31.58258056640625
 30
0.0
 11
7.6427593231201172
 21
26.890018463134766
 31
0.0
  0
LINE
  5
17E
100
AcDbEntity
  8
0
  6
CONTINUOUS
 62
               7
100
AcDbLine
 10
10.477499530153766
 20
-0.0000002978778113
 30
0.0
 11
10.269999533531058
 21
-6.6400001898044891
 31
0.0
  0
LINE
  5
17F
100
AcDbEntity
  8
0
  6
CONTINUOUS
 62
               7
100
AcDbLine
 10
13.141850471496582
 20
31.58258056640625
 30
0.0
 11
13.141850471496582
 21
26.890018463134766
 31
0.0
  0
LINE
  5
180
100
AcDbEntity
  8
0
  6
CONTINUOUS
 62
               7
100
AcDbLine
 10
13.199999809265137
 20
31.58258056640625
 30
0.0
 11
13.199999809265137
 21
26.890018463134766
 31
0.0
  0
LINE
  5
181
100
AcDbEntity
  8
0
  6
CONTINUOUS
 62
               7
100
AcDbLine
 10
13.20000034788967
 20
31.582582378892397
 30
0.0
 11
10.000000433995595
 21
32.440019778786571
 31
0.0
  0
LINE
  5
182
100
AcDbEntity
  8
0
  6
CONTINUOUS
 62
               7
100
AcDbLine
 10
-13.20000034788967
 20
31.582582378892397
 30
0.0
 11
-10.000000433995595
 21
32.440019778786571
 31
0.0
  0
LINE
  5
183
100
AcDbEntity
  8
0
  6
CONTINUOUS
 62
               7
100
AcDbLine
 10
-13.199999809265137
 20
26.890018463134766
 30
0.0
 11
13.199999809265137
 21
26.890018463134766
 31
0.0
  0
LINE
  5
184
100
AcDbEntity
  8
0
  6
CONTINUOUS
 62
               7
100
AcDbLine
 10
-13.199999809265137
 20
31.58258056640625
 30
0.0
 11
-13.141850471496582
 21
31.58258056640625
 31
0.0
  0
LINE
  5
185
100
AcDbEntity
  8
0
  6
CONTINUOUS
 62
               7
100
AcDbLine
 10
-13.141850471496582
 20
31.58258056640625
 30
0.0
 11
-13.141850471496582
 21
26.890018463134766
 31
0.0
  0
LINE
  5
186
100
AcDbEntity
  8
0
  6
CONTINUOUS
 62
               7
100
AcDbLine
 10
-7.6427593231201172
 20
31.58258056640625
 30
0.0
 11
-7.6427593231201172
 21
26.890018463134766
 31
0.0
  0
LINE
  5
187
100
AcDbEntity
  8
0
  6
CONTINUOUS
 62
               7
100
AcDbLine
 10
-5.4990906715393066
 20
31.58258056640625
 30
0.0
 11
-5.4990906715393066
 21
26.890018463134766
 31
0.0
  0
LINE
  5
188
100
AcDbEntity
  8
0
  6
CONTINUOUS
 62
               7
100
AcDbLine
 10
5.4990906715393066
 20
31.58258056640625
 30
0.0
 11
5.4990906715393066
 21
26.890018463134766
 31
0.0
  0
LINE
  5
189
100
AcDbEntity
  8
0
  6
CONTINUOUS
 62
               4
100
AcDbLine
 10
10.699999884262837
 20
7.8010431816697974
 30
0.0
 11
9.494005755081929
 21
5.71220011378972
 31
0.0
  0
LINE
  5
18A
100
AcDbEntity
  8
0
  6
CONTINUOUS
 62
               7
100
AcDbLine
 10
-10.477499530153766
 20
-0.0000002978778113
 30
0.0
 11
-10.269999533531058
 21
-6.6400001898044891
 31
0.0
  0
LINE
  5
18B
100
AcDbEntity
  8
0
  6
CONTINUOUS
 62
               4
100
AcDbLine
 10
-9.3154993375733515
 20
-0.000000446816717
 30
0.0
 11
-9.0705154695360068
 21
-7.839484224011759
 31
0.0
  0
LINE
  5
18C
100
AcDbEntity
  8
0
  6
CONTINUOUS
 62
               7
100
AcDbLine
 10
-10.699999809265137
 20
8.6400184631347656
 30
0.0
 11
10.699999809265137
 21
8.6400184631347656
 31
0.0
  0
LINE
  5
18D
100
AcDbEntity
  8
0
  6
CONTINUOUS
 62
               7
100
AcDbLine
 10
-10.269999504089355
 20
-6.6399998664855957
 30
0.0
 11
10.269999504089355
 21
-6.6399998664855957
 31
0.0
  0
LINE
  5
18E
100
AcDbEntity
  8
0
  6
CONTINUOUS
 62
               7
100
AcDbLine
 10
11.133012785811957
 20
8.5900154139152392
 30
0.0
 11
10.699999823470648
 21
7.8400149762653655
 31
0.0
  0
LINE
  5
18F
100
AcDbEntity
  8
0
  6
CONTINUOUS
 62
               7
100
AcDbLine
 10
8.7499996372799878
 20
-8.1599994863586254
 30
0.0
 11
10.269999782499852
 21
-6.6399993411387612
 31
0.0
  0
LINE
  5
190
100
AcDbEntity
  8
0
  6
CONTINUOUS
 62
               7
100
AcDbLine
 10
-7.6427593231201172
 20
31.58258056640625
 30
0.0
 11
-5.4990906715393066
 21
31.58258056640625
 31
0.0
  0
LINE
  5
191
100
AcDbEntity
  8
0
  6
CONTINUOUS
 62
               7
100
AcDbLine
 10
-8.7499996372799878
 20
-8.1599994863586254
 30
0.0
 11
-10.269999782499852
 21
-6.6399993411387612
 31
0.0
  0
LINE
  5
192
100
AcDbEntity
  8
0
  6
CONTINUOUS
 62
               4
100
AcDbLine
 10
9.4940056282878871
 20
5.7122008560484083
 30
0.0
 11
9.3154993375733515
 21
-0.000000446816717
 31
0.0
  0
LINE
  5
193
100
AcDbEntity
  8
0
  6
CONTINUOUS
 62
               4
100
AcDbLine
 10
-9.4940056282878871
 20
5.7122008560484083
 30
0.0
 11
-9.3154993375733515
 21
-0.000000446816717
 31
0.0
  0
LINE
  5
194
100
AcDbEntity
  8
0
  6
CONTINUOUS
 62
               7
100
AcDbLine
 10
-10.699999618228455
 20
7.120002520512223
 30
0.0
 11
-10.477499530153766
 21
-0.0000002978778113
 31
0.0
  0
LINE
  5
195
100
AcDbEntity
  8
0
  6
CENTER
 62
               4
100
AcDbLine
 10
-13.019776344299316
 20
0.0
 30
0.0
 11
13.69629955291748
 21
0.0
 31
0.0
  0
LINE
  5
196
100
AcDbEntity
  8
0
  6
CONTINUOUS
 62
               7
100
AcDbLine
 10
-8.75
 20
-8.1599998474121094
 30
0.0
 11
8.75
 21
-8.1599998474121094
 31
0.0
  0
LINE
  5
197
100
AcDbEntity
  8
0
  6
CONTINUOUS
 62
               7
100
AcDbLine
 10
10.699999809265137
 20
7.8400154113769531
 30
0.0
 11
10.699999809265137
 21
7.120002269744873
 31
0.0
  0
LINE
  5
198
100
AcDbEntity
  8
0
  6
CONTINUOUS
 62
               7
100
AcDbLine
 10
-10.656005859375
 20
5.7122006416320801
 30
0.0
 11
10.656005859375
 21
5.7122006416320801
 31
0.0
  0
LINE
  5
199
100
AcDbEntity
  8
0
  6
CONTINUOUS
 62
               4
100
AcDbLine
 10
9.3154993375733515
 20
-0.000000446816717
 30
0.0
 11
9.0705154695360068
 21
-7.839484224011759
 31
0.0
  0
LINE
  5
19A
100
AcDbEntity
  8
0
  6
CONTINUOUS
 62
               7
100
AcDbLine
 10
-10.699999809265137
 20
7.8400154113769531
 30
0.0
 11
10.699999809265137
 21
7.8400154113769531
 31
0.0
  0
LINE
  5
19B
100
AcDbEntity
  8
0
  6
CONTINUOUS
 62
               7
100
AcDbLine
 10
-10.699999809265137
 20
7.8400154113769531
 30
0.0
 11
-10.699999809265137
 21
7.120002269744873
 31
0.0
  0
LINE
  5
19C
100
AcDbEntity
  8
0
  6
CONTINUOUS
 62
               7
100
AcDbLine
 10
-11.133012785811957
 20
8.5900154139152392
 30
0.0
 11
-10.699999823470648
 21
7.8400149762653655
 31
0.0
  0
LINE
  5
19D
100
AcDbEntity
  8
0
  6
CONTINUOUS
 62
               4
100
AcDbLine
 10
-10.699999884262837
 20
7.8010431816697974
 30
0.0
 11
-9.494005755081929
 21
5.71220011378972
 31
0.0
  0
LINE
  5
19E
100
AcDbEntity
  8
0
  6
CONTINUOUS
 62
               7
100
AcDbLine
 10
10.699999618228455
 20
7.120002520512223
 30
0.0
 11
10.477499530153766
 21
-0.0000002978778113
 31
0.0
  0
LINE
  5
19F
100
AcDbEntity
  8
0
  6
CENTER
 62
               4
100
AcDbLine
 10
6.5
 20
50.639995574951172
 30
0.0
 11
6.5
 21
46.240001678466797
 31
0.0
  0
LINE
  5
1A0
100
AcDbEntity
  8
0
  6
CENTER
 62
               4
100
AcDbLine
 10
6.2000007629394531
 20
50.939998626708984
 30
0.0
 11
-6.2000007629394531
 21
50.939998626708984
 31
0.0
  0
LINE
  5
1A1
100
AcDbEntity
  8
0
  6
CENTER
 62
               4
100
AcDbLine
 10
-6.5
 20
50.639995574951172
 30
0.0
 11
-6.5
 21
46.240001678466797
 31
0.0
  0
LINE
  5
1A2
100
AcDbEntity
  8
0
  6
CENTER
 62
               4
100
AcDbLine
 10
6.500000993872618
 20
50.640001086290908
 30
0.0
 11
6.2000017290670257
 21
50.940000325808455
 31
0.0
  0
LINE
  5
1A3
100
AcDbEntity
  8
0
  6
CONTINUOUS
 62
               7
100
AcDbLine
 10
-5.0
 20
38.739997863769531
 30
0.0
 11
5.0
 21
38.739997863769531
 31
0.0
  0
LINE
  5
1A4
100
AcDbEntity
  8
0
  6
CONTINUOUS
 62
               7
100
AcDbLine
 10
5.000001261850116
 20
38.739997374177506
 30
0.0
 11
4.8000053653694295
 21
38.939993270658192
 31
0.0
  0
LINE
  5
1A5
100
AcDbEntity
  8
0
  6
CONTINUOUS
 62
               7
100
AcDbLine
 10
-5.000001261850116
 20
38.740000071575764
 30
0.0
 11
-4.8000067140685587
 21
38.939994619357321
 31
0.0
  0
LINE
  5
1A6
100
AcDbEntity
  8
0
  6
CONTINUOUS
 62
               7
100
AcDbLine
 10
5.0
 20
38.739997863769531
 30
0.0
 11
5.0
 21
37.939998626708984
 31
0.0
  0
LINE
  5
1A7
100
AcDbEntity
  8
0
  6
CONTINUOUS
 62
               7
100
AcDbLine
 10
-5.0
 20
38.739997863769531
 30
0.0
 11
-5.0
 21
37.939998626708984
 31
0.0
  0
LINE
  5
1A8
100
AcDbEntity
  8
0
  6
CENTER
 62
               4
100
AcDbLine
 10
-6.500000993872618
 20
50.640001086290908
 30
0.0
 11
-6.2000017290670257
 21
50.940000325808455
 31
0.0
  0
LINE
  5
1A9
100
AcDbEntity
  8
0
  6
CONTINUOUS
 62
               7
100
AcDbLine
 10
6.2000007629394531
 20
43.939998626708984
 30
0.0
 11
-6.2000007629394531
 21
43.939998626708984
 31
0.0
  0
LINE
  5
1AA
100
AcDbEntity
  8
0
  6
CONTINUOUS
 62
               7
100
AcDbLine
 10
6.2000007629394531
 20
38.939994812011719
 30
0.0
 11
-6.2000007629394531
 21
38.939994812011719
 31
0.0
  0
LINE
  5
1AB
100
AcDbEntity
  8
0
  6
CONTINUOUS
 62
               4
100
AcDbLine
 10
4.1879978179931641
 20
38.939994812011719
 30
0.0
 11
4.1879978179931641
 21
37.939998626708984
 31
0.0
  0
LINE
  5
1AC
100
AcDbEntity
  8
0
  6
CONTINUOUS
 62
               4
100
AcDbLine
 10
-4.1879997253417969
 20
38.939994812011719
 30
0.0
 11
-4.1879997253417969
 21
37.939998626708984
 31
0.0
  0
LINE
  5
1AD
100
AcDbEntity
  8
0
  6
CONTINUOUS
 62
               7
100
AcDbLine
 10
6.5
 20
39.239997863769531
 30
0.0
 11
-6.5
 21
39.239997863769531
 31
0.0
  0
LINE
  5
1AE
100
AcDbEntity
  8
0
  6
CONTINUOUS
 62
               7
100
AcDbLine
 10
6.5000012889006484
 20
43.63999875493289
 30
0.0
 11
6.2000020240950562
 21
43.939997994450437
 31
0.0
  0
LINE
  5
1AF
100
AcDbEntity
  8
0
  6
CONTINUOUS
 62
               7
100
AcDbLine
 10
-6.5
 20
43.639995574951172
 30
0.0
 11
-6.5
 21
39.239997863769531
 31
0.0
  0
LINE
  5
1B0
100
AcDbEntity
  8
0
  6
CONTINUOUS
 62
               7
100
AcDbLine
 10
-6.500000000000048
 20
43.639991760253899
 30
0.0
 11
6.499999999999952
 21
43.639991760253913
 31
0.0
  0
LINE
  5
1B1
100
AcDbEntity
  8
0
  6
CONTINUOUS
 62
               7
100
AcDbLine
 10
6.5000020846329107
 20
39.239999284860005
 30
0.0
 11
6.1999987737295896
 21
38.93999599924507
 31
0.0
  0
LINE
  5
1B2
100
AcDbEntity
  8
0
  6
CONTINUOUS
 62
               7
100
AcDbLine
 10
6.5
 20
43.639995574951172
 30
0.0
 11
6.5
 21
39.239997863769531
 31
0.0
  0
LINE
  5
1B3
100
AcDbEntity
  8
0
  6
CONTINUOUS
 62
               7
100
AcDbLine
 10
-6.5000012889006484
 20
43.63999875493289
 30
0.0
 11
-6.2000020240950562
 21
43.939997994450437
 31
0.0
  0
LINE
  5
1B4
100
AcDbEntity
  8
0
  6
CONTINUOUS
 62
               7
100
AcDbLine
 10
-6.4999980385352956
 20
39.239997936160989
 30
0.0
 11
-6.1999974250304604
 21
38.939997347944313
 31
0.0
  0
LINE
  5
1B5
100
AcDbEntity
  8
0
  6
DASHED
 62
               4
100
AcDbLine
 10
13.400006294250488
 20
22.639999389648438
 30
0.0
 11
13.400006294250488
 21
12.639999389648438
 31
0.0
  0
LINE
  5
1B6
100
AcDbEntity
  8
0
  6
CONTINUOUS
 62
               7
100
AcDbLine
 10
-14.000000828679163
 20
24.807946071708727
 30
0.0
 11
-13.000001305516321
 21
26.539996022284186
 31
0.0
  0
LINE
  5
1B7
100
AcDbEntity
  8
0
  6
CONTINUOUS
 62
               7
100
AcDbLine
 10
26.599996910833646
 20
26.440001656994149
 30
0.0
 11
28.600000941233951
 21
26.340001456966114
 31
0.0
  0
LINE
  5
1B8
100
AcDbEntity
  8
0
  6
CONTINUOUS
 62
               7
100
AcDbLine
 10
14.0
 20
23.889999389648437
 30
0.0
 11
14.900001525878906
 21
23.889999389648437
 31
0.0
  0
LINE
  5
1B9
100
AcDbEntity
  8
0
  6
CONTINUOUS
 62
               7
100
AcDbLine
 10
14.900001525878906
 20
23.889999389648437
 30
0.0
 11
14.900001525878906
 21
18.389999389648438
 31
0.0
  0
LINE
  5
1BA
100
AcDbEntity
  8
0
  6
CONTINUOUS
 62
               7
100
AcDbLine
 10
26.60000243768431
 20
8.839998154016854
 30
0.0
 11
28.600006468084615
 21
8.9399983540448886
 31
0.0
  0
LINE
  5
1BB
100
AcDbEntity
  8
0
  6
CONTINUOUS
 62
               7
100
AcDbLine
 10
10.888526916503906
 20
16.889999389648438
 30
0.0
 11
17.400001525878906
 21
16.889999389648438
 31
0.0
  0
LINE
  5
1BC
100
AcDbEntity
  8
0
  6
CONTINUOUS
 62
               7
100
AcDbLine
 10
14.899997602735425
 20
11.389999134665572
 30
0.0
 11
17.399994683054615
 21
8.8400021084829632
 31
0.0
  0
LINE
  5
1BD
100
AcDbEntity
  8
0
  6
CONTINUOUS
 62
               7
100
AcDbLine
 10
-14.0
 20
24.807949066162109
 30
0.0
 11
14.0
 21
24.807949066162109
 31
0.0
  0
LINE
  5
1BE
100
AcDbEntity
  8
0
  6
CONTINUOUS
 62
               7
100
AcDbLine
 10
17.400001525878906
 20
26.439998626708984
 30
0.0
 11
17.400001525878906
 21
18.389999389648438
 31
0.0
  0
LINE
  5
1BF
100
AcDbEntity
  8
0
  6
CONTINUOUS
 62
               7
100
AcDbLine
 10
14.000003436802757
 20
10.572046163530558
 30
0.0
 11
13.000003913639915
 21
8.8399962129551
 31
0.0
  0
LINE
  5
1C0
100
AcDbEntity
  8
0
  6
CONTINUOUS
 62
               7
100
AcDbLine
 10
26.600006103515625
 20
26.439998626708984
 30
0.0
 11
26.600006103515625
 21
8.8400001525878906
 31
0.0
  0
LINE
  5
1C1
100
AcDbEntity
  8
0
  6
CONTINUOUS
 62
               7
100
AcDbLine
 10
-14.000003151617818
 20
10.572048530598636
 30
0.0
 11
-13.000004105292135
 21
8.8399994059293476
 31
0.0
  0
LINE
  5
1C2
100
AcDbEntity
  8
0
  6
CONTINUOUS
 62
               7
100
AcDbLine
 10
-14.0
 20
10.572052001953125
 30
0.0
 11
14.0
 21
10.572052001953125
 31
0.0
  0
LINE
  5
1C3
100
AcDbEntity
  8
0
  6
CONTINUOUS
 62
               7
100
AcDbLine
 10
17.400001525878906
 20
26.439998626708984
 30
0.0
 11
26.600006103515625
 21
26.439998626708984
 31
0.0
  0
LINE
  5
1C4
100
AcDbEntity
  8
0
  6
CONTINUOUS
 62
               7
100
AcDbLine
 10
17.400001525878906
 20
8.8400001525878906
 30
0.0
 11
26.600006103515625
 21
8.8400001525878906
 31
0.0
  0
LINE
  5
1C5
100
AcDbEntity
  8
0
  6
CONTINUOUS
 62
               7
100
AcDbLine
 10
-13.0
 20
26.539999008178711
 30
0.0
 11
13.0
 21
26.539999008178711
 31
0.0
  0
LINE
  5
1C6
100
AcDbEntity
  8
0
  6
CONTINUOUS
 62
               7
100
AcDbLine
 10
-13.0
 20
8.8400001525878906
 30
0.0
 11
13.0
 21
8.8400001525878906
 31
0.0
  0
LINE
  5
1C7
100
AcDbEntity
  8
0
  6
CENTER
 62
               4
100
AcDbLine
 10
0.0
 20
52.909999847412109
 30
0.0
 11
0.0
 21
-10.159999847412109
 31
0.0
  0
LINE
  5
1C8
100
AcDbEntity
  8
0
  6
CONTINUOUS
 62
               7
100
AcDbLine
 10
-14.0
 20
24.807949066162109
 30
0.0
 11
-14.0
 21
10.572052001953125
 31
0.0
  0
LINE
  5
1C9
100
AcDbEntity
  8
0
  6
CONTINUOUS
 62
               7
100
AcDbLine
 10
28.600006103515625
 20
26.340000152587891
 30
0.0
 11
28.600006103515625
 21
8.9399986267089844
 31
0.0
  0
LINE
  5
1CA
100
AcDbEntity
  8
0
  6
CENTER
 62
               4
100
AcDbLine
 10
-20.0
 20
17.639999389648437
 30
0.0
 11
35.600006103515625
 21
17.639999389648437
 31
0.0
  0
LINE
  5
1CB
100
AcDbEntity
  8
0
  6
CONTINUOUS
 62
               7
100
AcDbLine
 10
14.0
 20
11.389999389648438
 30
0.0
 11
14.900001525878906
 21
11.389999389648438
 31
0.0
  0
LINE
  5
1CC
100
AcDbEntity
  8
0
  6
CONTINUOUS
 62
               7
100
AcDbLine
 10
14.899998601458265
 20
23.889998859269951
 30
0.0
 11
17.400001022898323
 21
26.440001333395855
 31
0.0
  0
LINE
  5
1CD
100
AcDbEntity
  8
0
  6
CONTINUOUS
 62
               7
100
AcDbLine
 10
14.0
 20
24.807949066162109
 30
0.0
 11
14.0
 21
23.889999389648437
 31
0.0
  0
LINE
  5
1CE
100
AcDbEntity
  8
0
  6
CONTINUOUS
 62
               7
100
AcDbLine
 10
14.900001525878906
 20
16.889999389648438
 30
0.0
 11
14.900001525878906
 21
11.389999389648438
 31
0.0
  0
LINE
  5
1CF
100
AcDbEntity
  8
0
  6
CONTINUOUS
 62
               7
100
AcDbLine
 10
17.400001525878906
 20
16.889999389648438
 30
0.0
 11
17.400001525878906
 21
8.8400001525878906
 31
0.0
  0
LINE
  5
1D0
100
AcDbEntity
  8
0
  6
CONTINUOUS
 62
               7
100
AcDbLine
 10
14.0
 20
11.389999389648438
 30
0.0
 11
14.0
 21
10.572052001953125
 31
0.0
  0
LINE
  5
1D1
100
AcDbEntity
  8
0
  6
CONTINUOUS
 62
               7
100
AcDbLine
 10
10.888526916503906
 20
18.389999389648438
 30
0.0
 11
17.400001525878906
 21
18.389999389648438
 31
0.0
  0
LINE
  5
1D2
100
AcDbEntity
  8
0
  6
CONTINUOUS
 62
               7
100
AcDbLine
 10
13.000000096305712
 20
26.540001931395523
 30
0.0
 11
13.999999142631395
 21
24.807952806726234
 31
0.0
  0
LINE
  5
1D3
100
AcDbEntity
  8
0
  6
CONTINUOUS
 62
               7
100
AcDbLine
 10
7.8000030517578125
 20
34.439998626708984
 30
0.0
 11
-7.7999992370605469
 21
34.439998626708984
 31
0.0
  0
LINE
  5
1D4
100
AcDbEntity
  8
0
  6
CONTINUOUS
 62
               7
100
AcDbLine
 10
-8.0
 20
37.740001678466797
 30
0.0
 11
-8.0
 21
34.639995574951172
 31
0.0
  0
LINE
  5
1D5
100
AcDbEntity
  8
0
  6
CONTINUOUS
 62
               7
100
AcDbLine
 10
7.8000030517578125
 20
37.939998626708984
 30
0.0
 11
-7.7999992370605469
 21
37.939998626708984
 31
0.0
  0
LINE
  5
1D6
100
AcDbEntity
  8
0
  6
CONTINUOUS
 62
               7
100
AcDbLine
 10
8.0
 20
37.740001678466797
 30
0.0
 11
8.0
 21
34.639995574951172
 31
0.0
  0
LINE
  5
1D7
100
AcDbEntity
  8
0
  6
CONTINUOUS
 62
               7
100
AcDbLine
 10
-7.9999991470740497
 20
37.739999589083936
 30
0.0
 11
-7.8000005363364835
 21
37.939998182962881
 31
0.0
  0
LINE
  5
1D8
100
AcDbEntity
  8
0
  6
CONTINUOUS
 62
               7
100
AcDbLine
 10
-7.9999995002644937
 20
34.640000348468675
 30
0.0
 11
-7.7999981921284416
 21
34.439999057191471
 31
0.0
  0
LINE
  5
1D9
100
AcDbEntity
  8
0
  6
CONTINUOUS
 62
               7
100
AcDbLine
 10
7.999999968302232
 20
34.639995582271673
 30
0.0
 11
-8.000000031697768
 21
34.63999556763067
 31
0.0
  0
LINE
  5
1DA
100
AcDbEntity
  8
0
  6
CONTINUOUS
 62
               7
100
AcDbLine
 10
8.0000018444725356
 20
37.739996891685678
 30
0.0
 11
7.8000005363364835
 21
37.939998182962881
 31
0.0
  0
LINE
  5
1DB
100
AcDbEntity
  8
0
  6
CONTINUOUS
 62
               7
100
AcDbLine
 10
-8.0000000000000675
 20
37.740001678466783
 30
0.0
 11
7.9999999999999334
 21
37.740001678466811
 31
0.0
  0
LINE
  5
1DC
100
AcDbEntity
  8
0
  6
CONTINUOUS
 62
               7
100
AcDbLine
 10
7.8000033812488709
 20
34.439997017283986
 30
0.0
 11
8.000001975127816
 21
34.639995628021552
 31
0.0
  0
LINE
  5
1DD
100
AcDbEntity
  8
0
  6
CONTINUOUS
 62
               7
100
AcDbLine
 10
6.6999977872379759
 20
34.440000452252207
 30
0.0
 11
6.9999970267555227
 21
34.140001187446614
 31
0.0
  0
LINE
  5
1DE
100
AcDbEntity
  8
0
  6
CONTINUOUS
 62
               7
100
AcDbLine
 10
-6.9999995437655116
 20
34.139999080103962
 30
0.0
 11
-6.7000002789599193
 21
34.439998319621509
 31
0.0
  0
LINE
  5
1DF
100
AcDbEntity
  8
0
  6
CONTINUOUS
 62
               7
100
AcDbLine
 10
-11.949996948242188
 20
26.889999389648437
 30
0.0
 11
-11.949996948242188
 21
26.539997100830078
 31
0.0
  0
LINE
  5
1E0
100
AcDbEntity
  8
0
  6
CONTINUOUS
 62
               7
100
AcDbLine
 10
11.949996948242188
 20
26.889999389648437
 30
0.0
 11
11.949996948242188
 21
26.539997100830078
 31
0.0
  0
LINE
  5
1E1
100
AcDbEntity
  8
0
  6
CONTINUOUS
 62
               7
100
AcDbLine
 10
-7.0
 20
34.139999389648438
 30
0.0
 11
-7.0
 21
32.439998626708984
 31
0.0
  0
LINE
  5
1E2
100
AcDbEntity
  8
0
  6
CONTINUOUS
 62
               7
100
AcDbLine
 10
7.0
 20
34.139999389648438
 30
0.0
 11
7.0
 21
32.439998626708984
 31
0.0
  0
LINE
  5
1E3
100
AcDbEntity
  8
0
  6
CONTINUOUS
 62
               7
100
AcDbLine
 10
7.0000000535547331
 20
34.139999378667675
 30
0.0
 11
-6.9999999464452669
 21
34.1399994006292
 31
0.0
  0
LINE
  5
1E4
100
AcDbEntity
  8
0
  6
CONTINUOUS
 62
               7
100
AcDbLine
 10
-10.0
 20
32.439998626708984
 30
0.0
 11
10.0
 21
32.439998626708984
 31
0.0
  0
ENDBLK
  5
1E5
100
AcDbEntity
  8
0
100
AcDbBlockEnd
  0
BLOCK
  5
1E6
100
AcDbEntity
  8
0
100
AcDbBlockBegin
  2
MS_5
 70
               0
 10
0.0
 20
0.0
 30
0.0
  3
MS_5
  1

  0
ARC
  5
1E7
100
AcDbEntity
  8
0
  6
CONTINUOUS
 62
               7
100
AcDbCircle
 10
33.300006866455078
 20
-8.1000003814697266
 30
0.0
 40
0.300000011920929
100
AcDbArc
 50
269.99999749552126
 51
0.0000025044780655
  0
ARC
  5
1E8
100
AcDbEntity
  8
0
  6
CONTINUOUS
 62
               7
100
AcDbCircle
 10
33.300006866455078
 20
8.1000003814697266
 30
0.0
 40
0.300000011920929
100
AcDbArc
 50
0.0000025044780655
 51
90.000002504477962
  0
ARC
  5
1E9
100
AcDbEntity
  8
0
  6
CONTINUOUS
 62
               7
100
AcDbCircle
 10
0.0
 20
0.0
 30
0.0
 40
13.199999809265137
100
AcDbArc
 50
54.619977773648834
 51
65.380025565655117
  0
ARC
  5
1EA
100
AcDbEntity
  8
0
  6
CONTINUOUS
 62
               7
100
AcDbCircle
 10
0.0
 20
0.0
 30
0.0
 40
13.199999809265137
100
AcDbArc
 50
234.61997959488127
 51
245.38002738688755
  0
ARC
  5
1EB
100
AcDbEntity
  8
0
  6
CONTINUOUS
 62
               7
100
AcDbCircle
 10
0.0
 20
0.0
 30
0.0
 40
13.199999809265137
100
AcDbArc
 50
174.61997428276362
 51
185.3800220747699
  0
ARC
  5
1EC
100
AcDbEntity
  8
0
  6
CONTINUOUS
 62
               7
100
AcDbCircle
 10
0.0
 20
0.0
 30
0.0
 40
13.199999809265137
100
AcDbArc
 50
114.61997261311164
 51
125.38002040511793
  0
ARC
  5
1ED
100
AcDbEntity
  8
0
  6
CONTINUOUS
 62
               7
100
AcDbCircle
 10
0.0
 20
0.0
 30
0.0
 40
13.199999809265137
100
AcDbArc
 50
294.6199744343441
 51
305.38002222635038
  0
ARC
  5
1EE
100
AcDbEntity
  8
0
  6
CONTINUOUS
 62
               7
100
AcDbCircle
 10
0.0
 20
0.0
 30
0.0
 40
13.199999809265137
100
AcDbArc
 50
354.61997738465652
 51
5.3800226153426722
  0
CIRCLE
  5
1EF
100
AcDbEntity
  8
0
  6
CONTINUOUS
 62
               7
100
AcDbCircle
 10
0.0
 20
0.0
 30
0.0
 40
14.0
  0
ARC
  5
1F0
100
AcDbEntity
  8
0
  6
CONTINUOUS
 62
               7
100
AcDbCircle
 10
0.0
 20
0.0
 30
0.0
 40
13.0
100
AcDbArc
 50
307.38013384176185
 51
352.6198653423582
  0
ARC
  5
1F1
100
AcDbEntity
  8
0
  6
CONTINUOUS
 62
               7
100
AcDbCircle
 10
0.0
 20
0.0
 30
0.0
 40
13.0
100
AcDbArc
 50
247.38013217210988
 51
292.61986281893257
  0
CIRCLE
  5
1F2
100
AcDbEntity
  8
0
  6
CONTINUOUS
 62
               7
100
AcDbCircle
 10
0.0
 20
0.0
 30
0.0
 40
6.1999998092651367
  0
CIRCLE
  5
1F3
100
AcDbEntity
  8
0
  6
CONTINUOUS
 62
               7
100
AcDbCircle
 10
0.0
 20
0.0
 30
0.0
 40
6.5
  0
CIRCLE
  5
1F4
100
AcDbEntity
  8
0
  6
CONTINUOUS
 62
               7
100
AcDbCircle
 10
0.0
 20
0.0
 30
0.0
 40
10.0
  0
ARC
  5
1F5
100
AcDbEntity
  8
0
  6
CONTINUOUS
 62
               7
100
AcDbCircle
 10
0.0
 20
0.0
 30
0.0
 40
13.0
100
AcDbArc
 50
127.38013202052943
 51
172.61986266735212
  0
ARC
  5
1F6
100
AcDbEntity
  8
0
  6
CONTINUOUS
 62
               7
100
AcDbCircle
 10
0.0
 20
0.0
 30
0.0
 40
13.0
100
AcDbArc
 50
67.38013718106663
 51
112.61986782788931
  0
ARC
  5
1F7
100
AcDbEntity
  8
0
  6
CONTINUOUS
 62
               7
100
AcDbCircle
 10
0.0
 20
0.0
 30
0.0
 40
13.0
100
AcDbArc
 50
7.3801346576410047
 51
52.619866158237329
  0
ARC
  5
1F8
100
AcDbEntity
  8
0
  6
CONTINUOUS
 62
               7
100
AcDbCircle
 10
0.0
 20
0.0
 30
0.0
 40
13.0
100
AcDbArc
 50
187.38013733264708
 51
232.61986797946975
  0
CIRCLE
  5
1F9
100
AcDbEntity
  8
0
  6
CONTINUOUS
 62
               7
100
AcDbCircle
 10
0.0
 20
0.0
 30
0.0
 40
7.8000001907348633
  0
CIRCLE
  5
1FA
100
AcDbEntity
  8
0
  6
CONTINUOUS
 62
               7
100
AcDbCircle
 10
0.0
 20
0.0
 30
0.0
 40
8.0
  0
LINE
  5
1FB
100
AcDbEntity
  8
0
  6
DASHED
 62
               4
100
AcDbLine
 10
33.600006103515625
 20
5.0
 30
0.0
 11
13.400006294250488
 21
5.0
 31
0.0
  0
LINE
  5
1FC
100
AcDbEntity
  8
0
  6
DASHED
 62
               4
100
AcDbLine
 10
33.600006103515625
 20
-5.0
 30
0.0
 11
13.400006294250488
 21
-5.0
 31
0.0
  0
LINE
  5
1FD
100
AcDbEntity
  8
0
  6
CONTINUOUS
 62
               7
100
AcDbLine
 10
29.700006484985352
 20
8.3000001907348633
 30
0.0
 11
29.700006484985352
 21
-8.3000001907348633
 31
0.0
  0
LINE
  5
1FE
100
AcDbEntity
  8
0
  6
CONTINUOUS
 62
               7
100
AcDbLine
 10
29.525005340576172
 20
8.5
 30
0.0
 11
29.525005340576172
 21
-8.5
 31
0.0
  0
LINE
  5
1FF
100
AcDbEntity
  8
0
  6
CONTINUOUS
 62
               7
100
AcDbLine
 10
30.200006484985352
 20
8.5
 30
0.0
 11
30.200006484985352
 21
-8.5
 31
0.0
  0
LINE
  5
200
100
AcDbEntity
  8
0
  6
CONTINUOUS
 62
               7
100
AcDbLine
 10
29.875006199517202
 20
-8.5000000434572485
 30
0.0
 11
29.700006761879649
 21
-8.3000006816314453
 31
0.0
  0
LINE
  5
201
100
AcDbEntity
  8
0
  6
CONTINUOUS
 62
               7
100
AcDbLine
 10
30.20000712171344
 20
-8.5000006910787533
 30
0.0
 11
30.500007035580552
 21
-8.2000007519235396
 31
0.0
  0
LINE
  5
202
100
AcDbEntity
  8
0
  6
CONTINUOUS
 62
               7
100
AcDbLine
 10
30.200006484985352
 20
-8.5
 30
0.0
 11
29.875005722045898
 21
-8.5
 31
0.0
  0
LINE
  5
203
100
AcDbEntity
  8
0
  6
CONTINUOUS
 62
               7
100
AcDbLine
 10
29.525005340576172
 20
-8.5
 30
0.0
 11
28.600006103515625
 21
-8.5
 31
0.0
  0
LINE
  5
204
100
AcDbEntity
  8
0
  6
CONTINUOUS
 62
               7
100
AcDbLine
 10
29.700006858322354
 20
-8.3000005537886636
 30
0.0
 11
29.525006792685872
 21
-8.5000006333275451
 31
0.0
  0
LINE
  5
205
100
AcDbEntity
  8
0
  6
CONTINUOUS
 62
               7
100
AcDbLine
 10
29.525005340576172
 20
8.5
 30
0.0
 11
28.600006103515625
 21
8.5
 31
0.0
  0
LINE
  5
206
100
AcDbEntity
  8
0
  6
CONTINUOUS
 62
               7
100
AcDbLine
 10
30.20000712171344
 20
8.5000006910787533
 30
0.0
 11
30.500007035580552
 21
8.2000007519235396
 31
0.0
  0
LINE
  5
207
100
AcDbEntity
  8
0
  6
CONTINUOUS
 62
               7
100
AcDbLine
 10
29.700006858322354
 20
8.3000005537886636
 30
0.0
 11
29.525006792685872
 21
8.5000006333275451
 31
0.0
  0
LINE
  5
208
100
AcDbEntity
  8
0
  6
CONTINUOUS
 62
               7
100
AcDbLine
 10
29.875006199517202
 20
8.5000000434572485
 30
0.0
 11
29.700006761879649
 21
8.3000006816314453
 31
0.0
  0
LINE
  5
209
100
AcDbEntity
  8
0
  6
CONTINUOUS
 62
               7
100
AcDbLine
 10
30.200006484985352
 20
8.5
 30
0.0
 11
29.875005722045898
 21
8.5
 31
0.0
  0
LINE
  5
20A
100
AcDbEntity
  8
0
  6
CONTINUOUS
 62
               7
100
AcDbLine
 10
30.500005722045898
 20
8.1999998092651367
 30
0.0
 11
30.500005722045898
 21
-8.1999998092651367
 31
0.0
  0
LINE
  5
20B
100
AcDbEntity
  8
0
  6
CONTINUOUS
 62
               7
100
AcDbLine
 10
29.875005722045898
 20
8.5
 30
0.0
 11
29.875005722045898
 21
-8.5
 31
0.0
  0
LINE
  5
20C
100
AcDbEntity
  8
0
  6
CONTINUOUS
 62
               7
100
AcDbLine
 10
33.300006866455078
 20
-8.3999996185302734
 30
0.0
 11
31.400005340576172
 21
-8.3999996185302734
 31
0.0
  0
LINE
  5
20D
100
AcDbEntity
  8
0
  6
CONTINUOUS
 62
               7
100
AcDbLine
 10
33.300006866455078
 20
8.3999996185302734
 30
0.0
 11
31.400005340576172
 21
8.3999996185302734
 31
0.0
  0
LINE
  5
20E
100
AcDbEntity
  8
0
  6
CONTINUOUS
 62
               7
100
AcDbLine
 10
33.600006103515625
 20
8.1000003814697266
 30
0.0
 11
33.600006103515625
 21
-8.1000003814697266
 31
0.0
  0
LINE
  5
20F
100
AcDbEntity
  8
0
  6
CONTINUOUS
 62
               7
100
AcDbLine
 10
31.400005340576172
 20
8.3999996185302734
 30
0.0
 11
31.400005340576172
 21
-8.3999996185302734
 31
0.0
  0
LINE
  5
210
100
AcDbEntity
  8
0
  6
CONTINUOUS
 62
               7
100
AcDbLine
 10
31.400005340576172
 20
-6.0250000953674316
 30
0.0
 11
30.500005722045898
 21
-6.0250000953674316
 31
0.0
  0
LINE
  5
211
100
AcDbEntity
  8
0
  6
CONTINUOUS
 62
               7
100
AcDbLine
 10
31.400005340576172
 20
6.0250000953674316
 30
0.0
 11
30.500005722045898
 21
6.0250000953674316
 31
0.0
  0
LINE
  5
212
100
AcDbEntity
  8
0
  6
CONTINUOUS
 62
               7
100
AcDbLine
 10
13.141849994659424
 20
1.2376478662087322
 30
0.0
 11
7.6427593231201172
 21
10.762352133791268
 31
0.0
  0
LINE
  5
213
100
AcDbEntity
  8
0
  6
CONTINUOUS
 62
               7
100
AcDbLine
 10
-5.4990906715393066
 20
12.0
 30
0.0
 11
5.4990906715393066
 21
12.0
 31
0.0
  0
LINE
  5
214
100
AcDbEntity
  8
0
  6
CONTINUOUS
 62
               7
100
AcDbLine
 10
7.6427593231201172
 20
-10.762352133791268
 30
0.0
 11
13.141849994659424
 21
-1.2376478662087322
 31
0.0
  0
LINE
  5
215
100
AcDbEntity
  8
0
  6
CONTINUOUS
 62
               7
100
AcDbLine
 10
-5.4990906715393066
 20
-12.0
 30
0.0
 11
5.4990906715393066
 21
-12.0
 31
0.0
  0
LINE
  5
216
100
AcDbEntity
  8
0
  6
CONTINUOUS
 62
               7
100
AcDbLine
 10
-13.141849994659424
 20
1.2376478662087322
 30
0.0
 11
-7.6427593231201172
 21
10.762352133791268
 31
0.0
  0
LINE
  5
217
100
AcDbEntity
  8
0
  6
CONTINUOUS
 62
               7
100
AcDbLine
 10
-7.6427593231201172
 20
-10.762352133791268
 30
0.0
 11
-13.141849994659424
 21
-1.2376478662087322
 31
0.0
  0
LINE
  5
218
100
AcDbEntity
  8
0
  6
DASHED
 62
               4
100
AcDbLine
 10
13.400006294250488
 20
5.0
 30
0.0
 11
13.400006294250488
 21
-5.0
 31
0.0
  0
LINE
  5
219
100
AcDbEntity
  8
0
  6
CONTINUOUS
 62
               7
100
AcDbLine
 10
26.600010115869981
 20
8.8000005132588441
 30
0.0
 11
28.599998906518767
 21
8.7000010752183741
 31
0.0
  0
LINE
  5
21A
100
AcDbEntity
  8
0
  6
CONTINUOUS
 62
               7
100
AcDbLine
 10
12.5274658203125
 20
6.25
 30
0.0
 11
14.900001525878906
 21
6.25
 31
0.0
  0
LINE
  5
21B
100
AcDbEntity
  8
0
  6
CONTINUOUS
 62
               7
100
AcDbLine
 10
26.599994733245794
 20
-8.7999984177929989
 30
0.0
 11
28.599998763646099
 21
-8.6999982177649642
 31
0.0
  0
LINE
  5
21C
100
AcDbEntity
  8
0
  6
CONTINUOUS
 62
               7
100
AcDbLine
 10
14.90000041880802
 20
-6.2500042687269115
 30
0.0
 11
17.399996831487101
 21
-8.8000006139166089
 31
0.0
  0
LINE
  5
21D
100
AcDbEntity
  8
0
  6
CONTINUOUS
 62
               7
100
AcDbLine
 10
17.400001525878906
 20
8.7999992370605469
 30
0.0
 11
17.400001525878906
 21
-8.7999992370605469
 31
0.0
  0
LINE
  5
21E
100
AcDbEntity
  8
0
  6
CONTINUOUS
 62
               7
100
AcDbLine
 10
14.900001525878906
 20
6.25
 30
0.0
 11
14.900001525878906
 21
-6.25
 31
0.0
  0
LINE
  5
21F
100
AcDbEntity
  8
0
  6
CONTINUOUS
 62
               7
100
AcDbLine
 10
10.888526916503906
 20
8.7999992370605469
 30
0.0
 11
26.600006103515625
 21
8.7999992370605469
 31
0.0
  0
LINE
  5
220
100
AcDbEntity
  8
0
  6
CONTINUOUS
 62
               7
100
AcDbLine
 10
26.600006103515625
 20
8.7999992370605469
 30
0.0
 11
26.600006103515625
 21
-8.7999992370605469
 31
0.0
  0
LINE
  5
221
100
AcDbEntity
  8
0
  6
CONTINUOUS
 62
               7
100
AcDbLine
 10
10.888526916503906
 20
-8.7999992370605469
 30
0.0
 11
26.600006103515625
 21
-8.7999992370605469
 31
0.0
  0
LINE
  5
222
100
AcDbEntity
  8
0
  6
CENTER
 62
               4
100
AcDbLine
 10
0.0
 20
16.539997100830078
 30
0.0
 11
0.0
 21
-16.540000915527344
 31
0.0
  0
LINE
  5
223
100
AcDbEntity
  8
0
  6
CONTINUOUS
 62
               7
100
AcDbLine
 10
28.600006103515625
 20
8.7000007629394531
 30
0.0
 11
28.600006103515625
 21
-8.7000007629394531
 31
0.0
  0
LINE
  5
224
100
AcDbEntity
  8
0
  6
CONTINUOUS
 62
               7
100
AcDbLine
 10
12.5274658203125
 20
-6.25
 30
0.0
 11
14.900001525878906
 21
-6.25
 31
0.0
  0
LINE
  5
225
100
AcDbEntity
  8
0
  6
CONTINUOUS
 62
               7
100
AcDbLine
 10
14.899997394398326
 20
6.2500032272083388
 30
0.0
 11
17.399999815838385
 21
8.8000057013342428
 31
0.0
  0
LINE
  5
226
100
AcDbEntity
  8
0
  6
CENTER
 62
               4
100
AcDbLine
 10
35.600006103515625
 20
0.0
 30
0.0
 11
-16.540000915527344
 21
0.0
 31
0.0
  0
ENDBLK
  5
227
100
AcDbEntity
  8
0
100
AcDbBlockEnd
  0
BLOCK
  5
228
100
AcDbEntity
  8
0
100
AcDbBlockBegin
  2
MS_6
 70
               0
 10
0.0
 20
0.0
 30
0.0
  3
MS_6
  1

  0
CIRCLE
  5
229
100
AcDbEntity
  8
0
  6
CONTINUOUS
 62
               7
100
AcDbCircle
 10
0.0
 20
17.639999389648437
 30
0.0
 40
8.3999996185302734
  0
CIRCLE
  5
22A
100
AcDbEntity
  8
0
  6
CONTINUOUS
 62
               7
100
AcDbCircle
 10
0.0
 20
17.639999389648437
 30
0.0
 40
5.0999999046325684
  0
ARC
  5
22B
100
AcDbEntity
  8
0
  6
CONTINUOUS
 62
               7
100
AcDbCircle
 10
-10.699999809265137
 20
8.8400154113769531
 30
0.0
 40
0.5
100
AcDbArc
 50
179.99999499104325
 51
210.00000265605843
  0
ARC
  5
22C
100
AcDbEntity
  8
0
  6
CONTINUOUS
 62
               7
100
AcDbCircle
 10
6.0
 20
-3.5245294570922852
 30
0.0
 40
35.42864990234375
100
AcDbArc
 50
82.274860477707634
 51
97.725137701059126
  0
ARC
  5
22D
100
AcDbEntity
  8
0
  6
CONTINUOUS
 62
               7
100
AcDbCircle
 10
-6.0
 20
-3.5245294570922852
 30
0.0
 40
35.42864990234375
100
AcDbArc
 50
82.274860477707634
 51
97.725137701059126
  0
ARC
  5
22E
100
AcDbEntity
  8
0
  6
CONTINUOUS
 62
               7
100
AcDbCircle
 10
10.699999809265137
 20
8.8400154113769531
 30
0.0
 40
0.5
100
AcDbArc
 50
329.99999916517322
 51
0.0000000000001018
  0
CIRCLE
  5
22F
100
AcDbEntity
  8
0
  6
CONTINUOUS
 62
               7
100
AcDbCircle
 10
0.0
 20
17.639999389648437
 30
0.0
 40
8.8000001907348633
  0
LINE
  5
230
100
AcDbEntity
  8
0
  6
CONTINUOUS
 62
               7
100
AcDbLine
 10
-1.2376476526260376
 20
31.58258056640625
 30
0.0
 11
1.2376476526260376
 21
31.58258056640625
 31
0.0
  0
LINE
  5
231
100
AcDbEntity
  8
0
  6
CONTINUOUS
 62
               7
100
AcDbLine
 10
10.762351989746094
 20
31.58258056640625
 30
0.0
 11
12.0
 21
31.58258056640625
 31
0.0
  0
LINE
  5
232
100
AcDbEntity
  8
0
  6
CONTINUOUS
 62
               7
100
AcDbLine
 10
12.0
 20
31.904119491577148
 30
0.0
 11
12.0
 21
26.890018463134766
 31
0.0
  0
LINE
  5
233
100
AcDbEntity
  8
0
  6
CONTINUOUS
 62
               7
100
AcDbLine
 10
-11.133012785811957
 20
8.5900154139152392
 30
0.0
 11
-10.699999823470648
 21
7.8400149762653655
 31
0.0
  0
LINE
  5
234
100
AcDbEntity
  8
0
  6
CONTINUOUS
 62
               7
100
AcDbLine
 10
-12.0
 20
26.890018463134766
 30
0.0
 11
12.0
 21
26.890018463134766
 31
0.0
  0
LINE
  5
235
100
AcDbEntity
  8
0
  6
CONTINUOUS
 62
               7
100
AcDbLine
 10
12.000000279425478
 20
31.904121430849642
 30
0.0
 11
10.000000433995595
 21
32.440019778786571
 31
0.0
  0
LINE
  5
236
100
AcDbEntity
  8
0
  6
CONTINUOUS
 62
               7
100
AcDbLine
 10
-12.000000279425478
 20
31.904121430849642
 30
0.0
 11
-10.000000433995595
 21
32.440019778786571
 31
0.0
  0
LINE
  5
237
100
AcDbEntity
  8
0
  6
CONTINUOUS
 62
               7
100
AcDbLine
 10
-10.762351989746094
 20
31.58258056640625
 30
0.0
 11
-10.762351989746094
 21
26.890018463134766
 31
0.0
  0
LINE
  5
238
100
AcDbEntity
  8
0
  6
CONTINUOUS
 62
               7
100
AcDbLine
 10
-12.0
 20
31.904119491577148
 30
0.0
 11
-12.0
 21
26.890018463134766
 31
0.0
  0
LINE
  5
239
100
AcDbEntity
  8
0
  6
CONTINUOUS
 62
               7
100
AcDbLine
 10
1.2376476526260376
 20
31.58258056640625
 30
0.0
 11
1.2376476526260376
 21
26.890018463134766
 31
0.0
  0
LINE
  5
23A
100
AcDbEntity
  8
0
  6
CONTINUOUS
 62
               7
100
AcDbLine
 10
10.762351989746094
 20
31.58258056640625
 30
0.0
 11
10.762351989746094
 21
26.890018463134766
 31
0.0
  0
LINE
  5
23B
100
AcDbEntity
  8
0
  6
CONTINUOUS
 62
               7
100
AcDbLine
 10
-10.0
 20
32.440006256103516
 30
0.0
 11
10.0
 21
32.440006256103516
 31
0.0
  0
LINE
  5
23C
100
AcDbEntity
  8
0
  6
CONTINUOUS
 62
               7
100
AcDbLine
 10
-1.2376476526260376
 20
31.58258056640625
 30
0.0
 11
-1.2376476526260376
 21
26.890018463134766
 31
0.0
  0
LINE
  5
23D
100
AcDbEntity
  8
0
  6
CONTINUOUS
 62
               7
100
AcDbLine
 10
-12.0
 20
31.58258056640625
 30
0.0
 11
-10.762351989746094
 21
31.58258056640625
 31
0.0
  0
LINE
  5
23E
100
AcDbEntity
  8
0
  6
CONTINUOUS
 62
               7
100
AcDbLine
 10
-10.699999809265137
 20
7.8400154113769531
 30
0.0
 11
-10.699999809265137
 21
7.120002269744873
 31
0.0
  0
LINE
  5
23F
100
AcDbEntity
  8
0
  6
CONTINUOUS
 62
               7
100
AcDbLine
 10
-10.699999809265137
 20
7.8400154113769531
 30
0.0
 11
10.699999809265137
 21
7.8400154113769531
 31
0.0
  0
LINE
  5
240
100
AcDbEntity
  8
0
  6
CONTINUOUS
 62
               4
100
AcDbLine
 10
9.3154993375733515
 20
-0.000000446816717
 30
0.0
 11
9.0705154695360068
 21
-7.839484224011759
 31
0.0
  0
LINE
  5
241
100
AcDbEntity
  8
0
  6
CONTINUOUS
 62
               7
100
AcDbLine
 10
-10.656005859375
 20
5.7122006416320801
 30
0.0
 11
10.656005859375
 21
5.7122006416320801
 31
0.0
  0
LINE
  5
242
100
AcDbEntity
  8
0
  6
CONTINUOUS
 62
               7
100
AcDbLine
 10
10.699999809265137
 20
7.8400154113769531
 30
0.0
 11
10.699999809265137
 21
7.120002269744873
 31
0.0
  0
LINE
  5
243
100
AcDbEntity
  8
0
  6
CENTER
 62
               4
100
AcDbLine
 10
-13.019776344299316
 20
0.0
 30
0.0
 11
13.69629955291748
 21
0.0
 31
0.0
  0
LINE
  5
244
100
AcDbEntity
  8
0
  6
CONTINUOUS
 62
               7
100
AcDbLine
 10
-10.699999618228455
 20
7.120002520512223
 30
0.0
 11
-10.477499530153766
 21
-0.0000002978778113
 31
0.0
  0
LINE
  5
245
100
AcDbEntity
  8
0
  6
CONTINUOUS
 62
               4
100
AcDbLine
 10
-9.4940056282878871
 20
5.7122008560484083
 30
0.0
 11
-9.3154993375733515
 21
-0.000000446816717
 31
0.0
  0
LINE
  5
246
100
AcDbEntity
  8
0
  6
CONTINUOUS
 62
               4
100
AcDbLine
 10
9.4940056282878871
 20
5.7122008560484083
 30
0.0
 11
9.3154993375733515
 21
-0.000000446816717
 31
0.0
  0
LINE
  5
247
100
AcDbEntity
  8
0
  6
CONTINUOUS
 62
               7
100
AcDbLine
 10
10.699999618228455
 20
7.120002520512223
 30
0.0
 11
10.477499530153766
 21
-0.0000002978778113
 31
0.0
  0
LINE
  5
248
100
AcDbEntity
  8
0
  6
CONTINUOUS
 62
               7
100
AcDbLine
 10
-8.7499996372799878
 20
-8.1599994863586254
 30
0.0
 11
-10.269999782499852
 21
-6.6399993411387612
 31
0.0
  0
LINE
  5
249
100
AcDbEntity
  8
0
  6
CONTINUOUS
 62
               7
100
AcDbLine
 10
8.7499996372799878
 20
-8.1599994863586254
 30
0.0
 11
10.269999782499852
 21
-6.6399993411387612
 31
0.0
  0
LINE
  5
24A
100
AcDbEntity
  8
0
  6
CONTINUOUS
 62
               7
100
AcDbLine
 10
11.133012785811957
 20
8.5900154139152392
 30
0.0
 11
10.699999823470648
 21
7.8400149762653655
 31
0.0
  0
LINE
  5
24B
100
AcDbEntity
  8
0
  6
CONTINUOUS
 62
               7
100
AcDbLine
 10
-10.269999504089355
 20
-6.6399998664855957
 30
0.0
 11
10.269999504089355
 21
-6.6399998664855957
 31
0.0
  0
LINE
  5
24C
100
AcDbEntity
  8
0
  6
CONTINUOUS
 62
               7
100
AcDbLine
 10
-10.699999809265137
 20
8.6400184631347656
 30
0.0
 11
10.699999809265137
 21
8.6400184631347656
 31
0.0
  0
LINE
  5
24D
100
AcDbEntity
  8
0
  6
CONTINUOUS
 62
               4
100
AcDbLine
 10
-9.3154993375733515
 20
-0.000000446816717
 30
0.0
 11
-9.0705154695360068
 21
-7.839484224011759
 31
0.0
  0
LINE
  5
24E
100
AcDbEntity
  8
0
  6
CONTINUOUS
 62
               4
100
AcDbLine
 10
-10.699999884262837
 20
7.8010431816697974
 30
0.0
 11
-9.494005755081929
 21
5.71220011378972
 31
0.0
  0
LINE
  5
24F
100
AcDbEntity
  8
0
  6
CONTINUOUS
 62
               7
100
AcDbLine
 10
-10.477499530153766
 20
-0.0000002978778113
 30
0.0
 11
-10.269999533531058
 21
-6.6400001898044891
 31
0.0
  0
LINE
  5
250
100
AcDbEntity
  8
0
  6
CONTINUOUS
 62
               7
100
AcDbLine
 10
10.477499530153766
 20
-0.0000002978778113
 30
0.0
 11
10.269999533531058
 21
-6.6400001898044891
 31
0.0
  0
LINE
  5
251
100
AcDbEntity
  8
0
  6
CONTINUOUS
 62
               4
100
AcDbLine
 10
10.699999884262837
 20
7.8010431816697974
 30
0.0
 11
9.494005755081929
 21
5.71220011378972
 31
0.0
  0
LINE
  5
252
100
AcDbEntity
  8
0
  6
CENTER
 62
               4
100
AcDbLine
 10
6.5
 20
50.639995574951172
 30
0.0
 11
6.5
 21
46.240001678466797
 31
0.0
  0
LINE
  5
253
100
AcDbEntity
  8
0
  6
CENTER
 62
               4
100
AcDbLine
 10
6.2000007629394531
 20
50.939998626708984
 30
0.0
 11
-6.2000007629394531
 21
50.939998626708984
 31
0.0
  0
LINE
  5
254
100
AcDbEntity
  8
0
  6
CENTER
 62
               4
100
AcDbLine
 10
-6.5
 20
50.639995574951172
 30
0.0
 11
-6.5
 21
46.240001678466797
 31
0.0
  0
LINE
  5
255
100
AcDbEntity
  8
0
  6
CENTER
 62
               4
100
AcDbLine
 10
6.500000993872618
 20
50.640001086290908
 30
0.0
 11
6.2000017290670257
 21
50.940000325808455
 31
0.0
  0
LINE
  5
256
100
AcDbEntity
  8
0
  6
CONTINUOUS
 62
               7
100
AcDbLine
 10
-5.0
 20
38.739997863769531
 30
0.0
 11
5.0
 21
38.739997863769531
 31
0.0
  0
LINE
  5
257
100
AcDbEntity
  8
0
  6
CONTINUOUS
 62
               7
100
AcDbLine
 10
5.000001261850116
 20
38.739997374177506
 30
0.0
 11
4.8000053653694295
 21
38.939993270658192
 31
0.0
  0
LINE
  5
258
100
AcDbEntity
  8
0
  6
CONTINUOUS
 62
               7
100
AcDbLine
 10
-5.000001261850116
 20
38.740000071575764
 30
0.0
 11
-4.8000067140685587
 21
38.939994619357321
 31
0.0
  0
LINE
  5
259
100
AcDbEntity
  8
0
  6
CONTINUOUS
 62
               7
100
AcDbLine
 10
5.0
 20
38.739997863769531
 30
0.0
 11
5.0
 21
37.939998626708984
 31
0.0
  0
LINE
  5
25A
100
AcDbEntity
  8
0
  6
CONTINUOUS
 62
               7
100
AcDbLine
 10
-5.0
 20
38.739997863769531
 30
0.0
 11
-5.0
 21
37.939998626708984
 31
0.0
  0
LINE
  5
25B
100
AcDbEntity
  8
0
  6
CENTER
 62
               4
100
AcDbLine
 10
-6.500000993872618
 20
50.640001086290908
 30
0.0
 11
-6.2000017290670257
 21
50.940000325808455
 31
0.0
  0
LINE
  5
25C
100
AcDbEntity
  8
0
  6
CONTINUOUS
 62
               7
100
AcDbLine
 10
6.2000007629394531
 20
43.939998626708984
 30
0.0
 11
-6.2000007629394531
 21
43.939998626708984
 31
0.0
  0
LINE
  5
25D
100
AcDbEntity
  8
0
  6
CONTINUOUS
 62
               7
100
AcDbLine
 10
6.2000007629394531
 20
38.939994812011719
 30
0.0
 11
-6.2000007629394531
 21
38.939994812011719
 31
0.0
  0
LINE
  5
25E
100
AcDbEntity
  8
0
  6
CONTINUOUS
 62
               4
100
AcDbLine
 10
4.1879978179931641
 20
38.939994812011719
 30
0.0
 11
4.1879978179931641
 21
37.939998626708984
 31
0.0
  0
LINE
  5
25F
100
AcDbEntity
  8
0
  6
CONTINUOUS
 62
               4
100
AcDbLine
 10
-4.1879997253417969
 20
38.939994812011719
 30
0.0
 11
-4.1879997253417969
 21
37.939998626708984
 31
0.0
  0
LINE
  5
260
100
AcDbEntity
  8
0
  6
CONTINUOUS
 62
               7
100
AcDbLine
 10
6.5
 20
39.239997863769531
 30
0.0
 11
-6.5
 21
39.239997863769531
 31
0.0
  0
LINE
  5
261
100
AcDbEntity
  8
0
  6
CONTINUOUS
 62
               7
100
AcDbLine
 10
6.5000012889006484
 20
43.63999875493289
 30
0.0
 11
6.2000020240950562
 21
43.939997994450437
 31
0.0
  0
LINE
  5
262
100
AcDbEntity
  8
0
  6
CONTINUOUS
 62
               7
100
AcDbLine
 10
-6.5
 20
43.639995574951172
 30
0.0
 11
-6.5
 21
39.239997863769531
 31
0.0
  0
LINE
  5
263
100
AcDbEntity
  8
0
  6
CONTINUOUS
 62
               7
100
AcDbLine
 10
-6.500000000000048
 20
43.639991760253899
 30
0.0
 11
6.499999999999952
 21
43.639991760253913
 31
0.0
  0
LINE
  5
264
100
AcDbEntity
  8
0
  6
CONTINUOUS
 62
               7
100
AcDbLine
 10
6.5000020846329107
 20
39.239999284860005
 30
0.0
 11
6.1999987737295896
 21
38.93999599924507
 31
0.0
  0
LINE
  5
265
100
AcDbEntity
  8
0
  6
CONTINUOUS
 62
               7
100
AcDbLine
 10
6.5
 20
43.639995574951172
 30
0.0
 11
6.5
 21
39.239997863769531
 31
0.0
  0
LINE
  5
266
100
AcDbEntity
  8
0
  6
CONTINUOUS
 62
               7
100
AcDbLine
 10
-6.5000012889006484
 20
43.63999875493289
 30
0.0
 11
-6.2000020240950562
 21
43.939997994450437
 31
0.0
  0
LINE
  5
267
100
AcDbEntity
  8
0
  6
CONTINUOUS
 62
               7
100
AcDbLine
 10
-6.4999980385352956
 20
39.239997936160989
 30
0.0
 11
-6.1999974250304604
 21
38.939997347944313
 31
0.0
  0
LINE
  5
268
100
AcDbEntity
  8
0
  6
CONTINUOUS
 62
               7
100
AcDbLine
 10
5.104949951171875
 20
24.807949066162109
 30
0.0
 11
14.0
 21
24.807949066162109
 31
0.0
  0
LINE
  5
269
100
AcDbEntity
  8
0
  6
CONTINUOUS
 62
               7
100
AcDbLine
 10
14.000007694101754
 20
10.572045907994266
 30
0.0
 11
13.000007694101754
 21
8.8399951315126373
 31
0.0
  0
LINE
  5
26A
100
AcDbEntity
  8
0
  6
CONTINUOUS
 62
               7
100
AcDbLine
 10
-14.000004105292135
 20
10.572050182410976
 30
0.0
 11
-13.000004105292135
 21
8.8399994059293476
 31
0.0
  0
LINE
  5
26B
100
AcDbEntity
  8
0
  6
CONTINUOUS
 62
               7
100
AcDbLine
 10
-14.0
 20
10.572052001953125
 30
0.0
 11
-5.242523193359375
 21
10.572052001953125
 31
0.0
  0
LINE
  5
26C
100
AcDbEntity
  8
0
  6
CONTINUOUS
 62
               7
100
AcDbLine
 10
-13.0
 20
8.8400001525878906
 30
0.0
 11
13.0
 21
8.8400001525878906
 31
0.0
  0
LINE
  5
26D
100
AcDbEntity
  8
0
  6
CENTER
 62
               4
100
AcDbLine
 10
10.94000244140625
 20
17.639999389648437
 30
0.0
 11
-10.94000244140625
 21
17.639999389648437
 31
0.0
  0
LINE
  5
26E
100
AcDbEntity
  8
0
  6
CONTINUOUS
 62
               7
100
AcDbLine
 10
-14.0
 20
24.807949066162109
 30
0.0
 11
-14.0
 21
10.572052001953125
 31
0.0
  0
LINE
  5
26F
100
AcDbEntity
  8
0
  6
CONTINUOUS
 62
               7
100
AcDbLine
 10
-13.0
 20
26.539999008178711
 30
0.0
 11
13.0
 21
26.539999008178711
 31
0.0
  0
LINE
  5
270
100
AcDbEntity
  8
0
  6
CENTER
 62
               4
100
AcDbLine
 10
0.0
 20
52.909999847412109
 30
0.0
 11
0.0
 21
-10.159999847412109
 31
0.0
  0
LINE
  5
271
100
AcDbEntity
  8
0
  6
CONTINUOUS
 62
               7
100
AcDbLine
 10
14.0
 20
24.807949066162109
 30
0.0
 11
14.0
 21
10.572052001953125
 31
0.0
  0
LINE
  5
272
100
AcDbEntity
  8
0
  6
CONTINUOUS
 62
               7
100
AcDbLine
 10
5.242523193359375
 20
10.572052001953125
 30
0.0
 11
14.0
 21
10.572052001953125
 31
0.0
  0
LINE
  5
273
100
AcDbEntity
  8
0
  6
CONTINUOUS
 62
               7
100
AcDbLine
 10
-13.999998444493372
 20
24.807950201239578
 30
0.0
 11
-12.999998444493372
 21
26.540000977721206
 31
0.0
  0
LINE
  5
274
100
AcDbEntity
  8
0
  6
CONTINUOUS
 62
               7
100
AcDbLine
 10
-14.0
 20
24.807949066162109
 30
0.0
 11
-5.104949951171875
 21
24.807949066162109
 31
0.0
  0
LINE
  5
275
100
AcDbEntity
  8
0
  6
CONTINUOUS
 62
               7
100
AcDbLine
 10
12.999995839006715
 20
26.54000167585923
 30
0.0
 11
13.999995839006715
 21
24.807950899377602
 31
0.0
  0
LINE
  5
276
100
AcDbEntity
  8
0
  6
CONTINUOUS
 62
               7
100
AcDbLine
 10
7.8000047299480002
 20
34.439998365983229
 30
0.0
 11
8.0000006264286867
 21
34.639994279322309
 31
0.0
  0
LINE
  5
277
100
AcDbEntity
  8
0
  6
CONTINUOUS
 62
               7
100
AcDbLine
 10
-8.0000000000000675
 20
37.740001678466783
 30
0.0
 11
7.9999999999999334
 21
37.740001678466811
 31
0.0
  0
LINE
  5
278
100
AcDbEntity
  8
0
  6
CONTINUOUS
 62
               7
100
AcDbLine
 10
8.0000018444725356
 20
37.739996891685678
 30
0.0
 11
7.8000005363364835
 21
37.939998182962881
 31
0.0
  0
LINE
  5
279
100
AcDbEntity
  8
0
  6
CONTINUOUS
 62
               7
100
AcDbLine
 10
7.999999968302232
 20
34.639995582271673
 30
0.0
 11
-8.000000031697768
 21
34.63999556763067
 31
0.0
  0
LINE
  5
27A
100
AcDbEntity
  8
0
  6
CONTINUOUS
 62
               7
100
AcDbLine
 10
-8.000000848963623
 20
34.639998999769432
 30
0.0
 11
-7.7999995408275709
 21
34.439997708492228
 31
0.0
  0
LINE
  5
27B
100
AcDbEntity
  8
0
  6
CONTINUOUS
 62
               7
100
AcDbLine
 10
-8.0000004957732926
 20
37.739998240384807
 30
0.0
 11
-7.7999991876372405
 21
37.939999531662011
 31
0.0
  0
LINE
  5
27C
100
AcDbEntity
  8
0
  6
CONTINUOUS
 62
               7
100
AcDbLine
 10
8.0
 20
37.740001678466797
 30
0.0
 11
8.0
 21
34.639995574951172
 31
0.0
  0
LINE
  5
27D
100
AcDbEntity
  8
0
  6
CONTINUOUS
 62
               7
100
AcDbLine
 10
7.8000030517578125
 20
37.939998626708984
 30
0.0
 11
-7.8000030517578125
 21
37.939998626708984
 31
0.0
  0
LINE
  5
27E
100
AcDbEntity
  8
0
  6
CONTINUOUS
 62
               7
100
AcDbLine
 10
-8.0
 20
37.740001678466797
 30
0.0
 11
-8.0
 21
34.639995574951172
 31
0.0
  0
LINE
  5
27F
100
AcDbEntity
  8
0
  6
CONTINUOUS
 62
               7
100
AcDbLine
 10
7.8000030517578125
 20
34.439998626708984
 30
0.0
 11
-7.8000030517578125
 21
34.439998626708984
 31
0.0
  0
LINE
  5
280
100
AcDbEntity
  8
0
  6
CONTINUOUS
 62
               7
100
AcDbLine
 10
6.7000058794328652
 20
34.439995057455121
 30
0.0
 11
6.9999997241538949
 21
34.140001187446501
 31
0.0
  0
LINE
  5
281
100
AcDbEntity
  8
0
  6
CONTINUOUS
 62
               7
100
AcDbLine
 10
-6.9999995437656253
 20
34.13999638270559
 30
0.0
 11
-6.700000278960033
 21
34.439995622223137
 31
0.0
  0
LINE
  5
282
100
AcDbEntity
  8
0
  6
CONTINUOUS
 62
               7
100
AcDbLine
 10
-11.949996948242188
 20
26.889999389648437
 30
0.0
 11
-11.949996948242188
 21
26.539999008178711
 31
0.0
  0
LINE
  5
283
100
AcDbEntity
  8
0
  6
CONTINUOUS
 62
               7
100
AcDbLine
 10
11.949996948242188
 20
26.889999389648437
 30
0.0
 11
11.949996948242188
 21
26.539999008178711
 31
0.0
  0
LINE
  5
284
100
AcDbEntity
  8
0
  6
CONTINUOUS
 62
               7
100
AcDbLine
 10
-7.0
 20
34.139999389648438
 30
0.0
 11
-7.0
 21
32.439998626708984
 31
0.0
  0
LINE
  5
285
100
AcDbEntity
  8
0
  6
CONTINUOUS
 62
               7
100
AcDbLine
 10
7.0
 20
34.139999389648438
 30
0.0
 11
7.0
 21
32.439998626708984
 31
0.0
  0
LINE
  5
286
100
AcDbEntity
  8
0
  6
CONTINUOUS
 62
               7
100
AcDbLine
 10
7.0000000535547331
 20
34.139999378667675
 30
0.0
 11
-6.9999999464452669
 21
34.1399994006292
 31
0.0
  0
LINE
  5
287
100
AcDbEntity
  8
0
  6
CONTINUOUS
 62
               7
100
AcDbLine
 10
-8.75
 20
-8.1599998474121094
 30
0.0
 11
8.75
 21
-8.1599998474121094
 31
0.0
  0
ENDBLK
  5
288
100
AcDbEntity
  8
0
100
AcDbBlockEnd
  0
BLOCK
  5
289
100
AcDbEntity
  8
0
100
AcDbBlockBegin
  2
MS_7
 70
               0
 10
0.0
 20
0.0
 30
0.0
  3
MS_7
  1

  0
SPLINE
  5
28A
100
AcDbEntity
  8
0
  6
CONTINUOUS
 62
               7
100
AcDbSpline
210
0.0
220
0.0
230
1.0
 70
               0
 71
               3
 72
               0
 73
               0
 74
              13
 44
0.000001
 12
-0.4472758686181831
 22
-0.8943960517309152
 32
0.0
 13
-0.0803590717432312
 23
-0.9967659803527437
 33
0.0
 11
11.0
 21
20.649999618530273
 31
0.0
 11
10.977167214488624
 21
20.604192274953384
 31
0.0
 11
10.954452514648437
 21
20.558326721191406
 31
0.0
 11
10.88497614921271
 21
20.416180345641891
 31
0.0
 11
10.816650390625
 21
20.273473739624023
 31
0.0
 11
10.697790741645601
 21
20.01754887449238
 31
0.0
 11
10.5830078125
 21
19.759771347045898
 31
0.0
 11
10.40904555933442
 21
19.344772163038119
 31
0.0
 11
10.2469482421875
 21
18.924917221069336
 31
0.0
 11
9.998774526384425
 21
18.190327602097021
 31
0.0
 11
9.7979583740234375
 21
17.441286087036133
 31
0.0
 11
9.6519220933145871
 21
16.675148618953074
 31
0.0
 11
9.5618514653354865
 21
15.899999228399606
 31
0.0
  0
SPLINE
  5
28B
100
AcDbEntity
  8
0
  6
CONTINUOUS
 62
               7
100
AcDbSpline
210
0.0
220
0.0
230
1.0
 70
               0
 71
               3
 72
               0
 73
               0
 74
              13
 44
0.000001
 12
-0.4472758686181831
 22
0.8943960517309152
 32
0.0
 13
-0.0803589847680979
 23
0.9967659873646575
 33
0.0
 11
11.0
 21
9.6499996185302734
 31
0.0
 11
10.977167245222722
 21
9.6958068998511084
 31
0.0
 11
10.954452514648437
 21
9.7416725158691406
 31
0.0
 11
10.884976005230605
 21
9.8838182416896636
 31
0.0
 11
10.816650390625
 21
10.026523590087891
 31
0.0
 11
10.697790828287687
 21
10.282449209904865
 31
0.0
 11
10.5830078125
 21
10.540227890014648
 31
0.0
 11
10.409045605240184
 21
10.955226949685672
 31
0.0
 11
10.2469482421875
 21
11.375082015991211
 31
0.0
 11
9.9987744395301306
 21
12.109671059158757
 31
0.0
 11
9.7979583740234375
 21
12.858711242675781
 31
0.0
 11
9.6519220933145871
 21
13.624849215802977
 31
0.0
 11
9.5618514653354865
 21
14.39999953505861
 31
0.0
  0
ARC
  5
28C
100
AcDbEntity
  8
0
  6
CONTINUOUS
 62
               7
100
AcDbCircle
 10
28.649997711181641
 20
9.5500001907348633
 30
0.0
 40
0.300000011920929
100
AcDbArc
 50
269.99999749552126
 51
0.0000025044780655
  0
ARC
  5
28D
100
AcDbEntity
  8
0
  6
CONTINUOUS
 62
               7
100
AcDbCircle
 10
28.649997711181641
 20
20.75
 30
0.0
 40
0.300000011920929
100
AcDbArc
 50
0.0000025044780655
 51
90.000002504477962
  0
ARC
  5
28E
100
AcDbEntity
  8
0
  6
CONTINUOUS
 62
               7
100
AcDbCircle
 10
8.2272415161132812
 20
18.81890869140625
 30
0.0
 40
9.4641017913818359
100
AcDbArc
 50
76.333599937604546
 51
103.66639824116221
  0
ARC
  5
28F
100
AcDbEntity
  8
0
  6
CONTINUOUS
 62
               7
100
AcDbCircle
 10
0.0
 20
-9.1714725494384766
 30
0.0
 40
37.454483032226563
100
AcDbArc
 50
83.142417445704311
 51
96.857587563251627
  0
ARC
  5
290
100
AcDbEntity
  8
0
  6
CONTINUOUS
 62
               7
100
AcDbCircle
 10
-8.2272415161132812
 20
18.81890869140625
 30
0.0
 40
9.4641017913818359
100
AcDbArc
 50
76.333599937604546
 51
103.66639824116221
  0
ARC
  5
291
100
AcDbEntity
  8
0
  6
CONTINUOUS
 62
               7
100
AcDbCircle
 10
8.3500003814697266
 20
7.5121393203735352
 30
0.0
 40
0.5
100
AcDbArc
 50
329.99999916517322
 51
0.0000000000001018
  0
ARC
  5
292
100
AcDbEntity
  8
0
  6
CONTINUOUS
 62
               7
100
AcDbCircle
 10
-8.3500003814697266
 20
7.5121393203735352
 30
0.0
 40
0.5
100
AcDbArc
 50
179.99999499104325
 51
210.00000265605843
  0
LINE
  5
293
100
AcDbEntity
  8
0
  6
DASHED
 62
               4
100
AcDbLine
 10
28.949996948242188
 20
12.149999618530273
 30
0.0
 11
11.999997138977051
 21
12.149999618530273
 31
0.0
  0
LINE
  5
294
100
AcDbEntity
  8
0
  6
DASHED
 62
               4
100
AcDbLine
 10
28.949996948242188
 20
18.149999618530273
 30
0.0
 11
11.999997138977051
 21
18.149999618530273
 31
0.0
  0
LINE
  5
295
100
AcDbEntity
  8
0
  6
CONTINUOUS
 62
               7
100
AcDbLine
 10
25.024997711181641
 20
20.899999618530273
 30
0.0
 11
25.024997711181641
 21
9.3999996185302734
 31
0.0
  0
LINE
  5
296
100
AcDbEntity
  8
0
  6
CONTINUOUS
 62
               7
100
AcDbLine
 10
25.19999710698869
 20
9.5999996102733576
 30
0.0
 11
25.024997669351137
 21
9.4000002484475544
 31
0.0
  0
LINE
  5
297
100
AcDbEntity
  8
0
  6
CONTINUOUS
 62
               7
100
AcDbLine
 10
26.199997362547322
 20
9.7000005657112069
 30
0.0
 11
25.899996749042486
 21
9.3999999774945309
 31
0.0
  0
LINE
  5
298
100
AcDbEntity
  8
0
  6
CONTINUOUS
 62
               7
100
AcDbLine
 10
25.374997567367359
 20
9.4000004906757795
 30
0.0
 11
25.199997501730877
 21
9.6000005702146609
 31
0.0
  0
LINE
  5
299
100
AcDbEntity
  8
0
  6
CONTINUOUS
 62
               7
100
AcDbLine
 10
25.024997711181641
 20
9.3999996185302734
 30
0.0
 11
24.199996948242188
 21
9.3999996185302734
 31
0.0
  0
LINE
  5
29A
100
AcDbEntity
  8
0
  6
CONTINUOUS
 62
               7
100
AcDbLine
 10
25.899997711181641
 20
9.3999996185302734
 30
0.0
 11
25.374996185302734
 21
9.3999996185302734
 31
0.0
  0
LINE
  5
29B
100
AcDbEntity
  8
0
  6
CONTINUOUS
 62
               7
100
AcDbLine
 10
25.024997711181641
 20
20.899999618530273
 30
0.0
 11
24.199996948242188
 21
20.899999618530273
 31
0.0
  0
LINE
  5
29C
100
AcDbEntity
  8
0
  6
CONTINUOUS
 62
               7
100
AcDbLine
 10
26.199996928434814
 20
20.599999935523968
 30
0.0
 11
25.8999969892796
 21
20.899999849391079
 31
0.0
  0
LINE
  5
29D
100
AcDbEntity
  8
0
  6
CONTINUOUS
 62
               7
100
AcDbLine
 10
25.199995809498006
 20
20.699998954571157
 30
0.0
 11
25.024995743861524
 21
20.899999034110039
 31
0.0
  0
LINE
  5
29E
100
AcDbEntity
  8
0
  6
CONTINUOUS
 62
               7
100
AcDbLine
 10
25.374996240719611
 20
20.899999419880714
 30
0.0
 11
25.199998059079917
 21
20.700001493481068
 31
0.0
  0
LINE
  5
29F
100
AcDbEntity
  8
0
  6
CONTINUOUS
 62
               7
100
AcDbLine
 10
25.899997711181641
 20
20.899999618530273
 30
0.0
 11
25.374996185302734
 21
20.899999618530273
 31
0.0
  0
LINE
  5
2A0
100
AcDbEntity
  8
0
  6
CONTINUOUS
 62
               7
100
AcDbLine
 10
26.199996948242188
 20
20.600000381469727
 30
0.0
 11
26.199996948242188
 21
9.7000007629394531
 31
0.0
  0
LINE
  5
2A1
100
AcDbEntity
  8
0
  6
CONTINUOUS
 62
               7
100
AcDbLine
 10
25.899997711181641
 20
20.899999618530273
 30
0.0
 11
25.899997711181641
 21
9.3999996185302734
 31
0.0
  0
LINE
  5
2A2
100
AcDbEntity
  8
0
  6
CONTINUOUS
 62
               7
100
AcDbLine
 10
28.649997711181641
 20
21.049999237060547
 30
0.0
 11
27.149997711181641
 21
21.049999237060547
 31
0.0
  0
LINE
  5
2A3
100
AcDbEntity
  8
0
  6
CONTINUOUS
 62
               7
100
AcDbLine
 10
28.649997711181641
 20
9.25
 30
0.0
 11
27.149997711181641
 21
9.25
 31
0.0
  0
LINE
  5
2A4
100
AcDbEntity
  8
0
  6
CONTINUOUS
 62
               7
100
AcDbLine
 10
28.949996948242188
 20
20.75
 30
0.0
 11
28.949996948242188
 21
9.5500001907348633
 31
0.0
  0
LINE
  5
2A5
100
AcDbEntity
  8
0
  6
CONTINUOUS
 62
               7
100
AcDbLine
 10
27.149997711181641
 20
21.049999237060547
 30
0.0
 11
27.149997711181641
 21
9.25
 31
0.0
  0
LINE
  5
2A6
100
AcDbEntity
  8
0
  6
CONTINUOUS
 62
               7
100
AcDbLine
 10
25.374996185302734
 20
20.899999618530273
 30
0.0
 11
25.374996185302734
 21
9.3999996185302734
 31
0.0
  0
LINE
  5
2A7
100
AcDbEntity
  8
0
  6
CONTINUOUS
 62
               7
100
AcDbLine
 10
27.149997711181641
 20
19.200000762939453
 30
0.0
 11
26.199996948242188
 21
19.200000762939453
 31
0.0
  0
LINE
  5
2A8
100
AcDbEntity
  8
0
  6
CONTINUOUS
 62
               7
100
AcDbLine
 10
27.149997711181641
 20
11.100000381469727
 30
0.0
 11
26.199996948242188
 21
11.100000381469727
 31
0.0
  0
LINE
  5
2A9
100
AcDbEntity
  8
0
  6
CONTINUOUS
 62
               7
100
AcDbLine
 10
25.199996948242187
 20
20.700000762939453
 30
0.0
 11
25.199996948242187
 21
9.6000003814697266
 31
0.0
  0
LINE
  5
2AA
100
AcDbEntity
  8
0
  6
CONTINUOUS
 62
               4
100
AcDbLine
 10
8.5450622853481946
 20
6.8499967509747535
 30
0.0
 11
7.6400787648403821
 21
5.2825193415761191
 31
0.0
  0
LINE
  5
2AB
100
AcDbEntity
  8
0
  6
CONTINUOUS
 62
               7
100
AcDbLine
 10
8.7830126103604016
 20
7.2621387961762025
 30
0.0
 11
8.5450622853481946
 21
6.8499967509747535
 31
0.0
  0
LINE
  5
2AC
100
AcDbEntity
  8
0
  6
CONTINUOUS
 62
               7
100
AcDbLine
 10
-10.499999802825755
 20
28.015060145592884
 30
0.0
 11
-9.2499998850386618
 21
28.349996616910168
 31
0.0
  0
LINE
  5
2AD
100
AcDbEntity
  8
0
  6
CONTINUOUS
 62
               7
100
AcDbLine
 10
-10.5
 20
23.349996566772461
 30
0.0
 11
10.5
 21
23.349996566772461
 31
0.0
  0
LINE
  5
2AE
100
AcDbEntity
  8
0
  6
CONTINUOUS
 62
               4
100
AcDbLine
 10
-8.5450622853481946
 20
6.8499967509747535
 30
0.0
 11
-7.6400787648403821
 21
5.2825193415761191
 31
0.0
  0
LINE
  5
2AF
100
AcDbEntity
  8
0
  6
CONTINUOUS
 62
               7
100
AcDbLine
 10
-5.991173267364502
 20
28.015060424804688
 30
0.0
 11
-5.991173267364502
 21
23.349996566772461
 31
0.0
  0
LINE
  5
2B0
100
AcDbEntity
  8
0
  6
CONTINUOUS
 62
               7
100
AcDbLine
 10
-10.463309288024902
 20
28.015060424804688
 30
0.0
 11
-10.463309288024902
 21
23.349996566772461
 31
0.0
  0
LINE
  5
2B1
100
AcDbEntity
  8
0
  6
CONTINUOUS
 62
               7
100
AcDbLine
 10
10.463309288024902
 20
28.015060424804688
 30
0.0
 11
10.463309288024902
 21
23.349996566772461
 31
0.0
  0
LINE
  5
2B2
100
AcDbEntity
  8
0
  6
CONTINUOUS
 62
               7
100
AcDbLine
 10
10.5
 20
28.015060424804688
 30
0.0
 11
10.5
 21
23.349996566772461
 31
0.0
  0
LINE
  5
2B3
100
AcDbEntity
  8
0
  6
CONTINUOUS
 62
               7
100
AcDbLine
 10
-5.991173267364502
 20
28.015060424804688
 30
0.0
 11
-4.4721360206604004
 21
28.015060424804688
 31
0.0
  0
LINE
  5
2B4
100
AcDbEntity
  8
0
  6
CONTINUOUS
 62
               7
100
AcDbLine
 10
10.463309288024902
 20
28.015060424804688
 30
0.0
 11
10.5
 21
28.015060424804688
 31
0.0
  0
LINE
  5
2B5
100
AcDbEntity
  8
0
  6
CONTINUOUS
 62
               7
100
AcDbLine
 10
-10.5
 20
28.015060424804688
 30
0.0
 11
-10.463309288024902
 21
28.015060424804688
 31
0.0
  0
LINE
  5
2B6
100
AcDbEntity
  8
0
  6
CONTINUOUS
 62
               7
100
AcDbLine
 10
-10.5
 20
28.015060424804688
 30
0.0
 11
-10.5
 21
23.349996566772461
 31
0.0
  0
LINE
  5
2B7
100
AcDbEntity
  8
0
  6
CONTINUOUS
 62
               7
100
AcDbLine
 10
4.4721360206604004
 20
28.015060424804688
 30
0.0
 11
5.991173267364502
 21
28.015060424804688
 31
0.0
  0
LINE
  5
2B8
100
AcDbEntity
  8
0
  6
CONTINUOUS
 62
               7
100
AcDbLine
 10
5.991173267364502
 20
28.015060424804688
 30
0.0
 11
5.991173267364502
 21
23.349996566772461
 31
0.0
  0
LINE
  5
2B9
100
AcDbEntity
  8
0
  6
CONTINUOUS
 62
               7
100
AcDbLine
 10
-8.4960784912109375
 20
5.2825193405151367
 30
0.0
 11
8.4960784912109375
 21
5.2825193405151367
 31
0.0
  0
LINE
  5
2BA
100
AcDbEntity
  8
0
  6
CONTINUOUS
 62
               7
100
AcDbLine
 10
-8.563812255859375
 20
7.4500031471252441
 30
0.0
 11
8.563812255859375
 21
7.4500031471252441
 31
0.0
  0
LINE
  5
2BB
100
AcDbEntity
  8
0
  6
CONTINUOUS
 62
               7
100
AcDbLine
 10
-8.7830126103604016
 20
7.2621387961762025
 30
0.0
 11
-8.5450622853481946
 21
6.8499967509747535
 31
0.0
  0
LINE
  5
2BC
100
AcDbEntity
  8
0
  6
CONTINUOUS
 62
               4
100
AcDbLine
 10
7.4750002885405706
 20
0.0000000297877811
 30
0.0
 11
7.2806454475065241
 21
-6.2193548833017065
 31
0.0
  0
LINE
  5
2BD
100
AcDbEntity
  8
0
  6
CONTINUOUS
 62
               7
100
AcDbLine
 10
8.330999705267951
 20
-0.0000001787266868
 30
0.0
 11
8.1642577803540384
 21
-5.3357417759718828
 31
0.0
  0
LINE
  5
2BE
100
AcDbEntity
  8
0
  6
CONTINUOUS
 62
               7
100
AcDbLine
 10
-8.330999705267951
 20
-0.0000001787266868
 30
0.0
 11
-8.1642577803540384
 21
-5.3357417759718828
 31
0.0
  0
LINE
  5
2BF
100
AcDbEntity
  8
0
  6
CONTINUOUS
 62
               7
100
AcDbLine
 10
-7.149993896484375
 20
-6.3499999046325684
 30
0.0
 11
7.149993896484375
 21
-6.3499999046325684
 31
0.0
  0
LINE
  5
2C0
100
AcDbEntity
  8
0
  6
CONTINUOUS
 62
               7
100
AcDbLine
 10
-8.1642580032348633
 20
-5.3357419967651367
 30
0.0
 11
8.1642580032348633
 21
-5.3357419967651367
 31
0.0
  0
LINE
  5
2C1
100
AcDbEntity
  8
0
  6
CONTINUOUS
 62
               7
100
AcDbLine
 10
7.1499996751869155
 20
-6.3499998205809227
 30
0.0
 11
8.1642577931250457
 21
-5.3357417026427925
 31
0.0
  0
LINE
  5
2C2
100
AcDbEntity
  8
0
  6
CONTINUOUS
 62
               7
100
AcDbLine
 10
-7.1499996751869155
 20
-6.3499998205809227
 30
0.0
 11
-8.1642577931250457
 21
-5.3357417026427925
 31
0.0
  0
LINE
  5
2C3
100
AcDbEntity
  8
0
  6
CONTINUOUS
 62
               7
100
AcDbLine
 10
8.5450621232152102
 20
6.8499971955856154
 30
0.0
 11
8.330999705267951
 21
-0.0000001787266868
 31
0.0
  0
LINE
  5
2C4
100
AcDbEntity
  8
0
  6
CENTER
 62
               4
100
AcDbLine
 10
-12.00794506072998
 20
0.0
 30
0.0
 11
11.561882972717285
 21
0.0
 31
0.0
  0
LINE
  5
2C5
100
AcDbEntity
  8
0
  6
CONTINUOUS
 62
               4
100
AcDbLine
 10
7.6400790234000393
 20
5.2825195452907803
 30
0.0
 11
7.4750002885405706
 21
0.0000000297877811
 31
0.0
  0
LINE
  5
2C6
100
AcDbEntity
  8
0
  6
CONTINUOUS
 62
               4
100
AcDbLine
 10
-7.6400790234000393
 20
5.2825195452907803
 30
0.0
 11
-7.4750002885405706
 21
0.0000000297877811
 31
0.0
  0
LINE
  5
2C7
100
AcDbEntity
  8
0
  6
CONTINUOUS
 62
               7
100
AcDbLine
 10
-8.5450621232152102
 20
6.8499971955856154
 30
0.0
 11
-8.330999705267951
 21
-0.0000001787266868
 31
0.0
  0
LINE
  5
2C8
100
AcDbEntity
  8
0
  6
CONTINUOUS
 62
               7
100
AcDbLine
 10
8.8500003814697266
 20
7.6500000953674316
 30
0.0
 11
8.8500003814697266
 21
7.5121393203735352
 31
0.0
  0
LINE
  5
2C9
100
AcDbEntity
  8
0
  6
CONTINUOUS
 62
               7
100
AcDbLine
 10
-8.8500003814697266
 20
7.6500000953674316
 30
0.0
 11
-8.8500003814697266
 21
7.5121393203735352
 31
0.0
  0
LINE
  5
2CA
100
AcDbEntity
  8
0
  6
CONTINUOUS
 62
               7
100
AcDbLine
 10
-8.5450620651245117
 20
6.8499970436096191
 30
0.0
 11
8.5450620651245117
 21
6.8499970436096191
 31
0.0
  0
LINE
  5
2CB
100
AcDbEntity
  8
0
  6
CONTINUOUS
 62
               4
100
AcDbLine
 10
-7.4750002885405706
 20
0.0000000297877811
 30
0.0
 11
-7.2806454475065241
 21
-6.2193548833017065
 31
0.0
  0
LINE
  5
2CC
100
AcDbEntity
  8
0
  6
CONTINUOUS
 62
               7
100
AcDbLine
 10
9.2499998850386618
 20
28.349996616910168
 30
0.0
 11
10.499999802825755
 21
28.015060145592884
 31
0.0
  0
LINE
  5
2CD
100
AcDbEntity
  8
0
  6
CONTINUOUS
 62
               7
100
AcDbLine
 10
4.4721360206604004
 20
28.015060424804688
 30
0.0
 11
4.4721360206604004
 21
23.349996566772461
 31
0.0
  0
LINE
  5
2CE
100
AcDbEntity
  8
0
  6
CONTINUOUS
 62
               7
100
AcDbLine
 10
-4.4721360206604004
 20
28.015060424804688
 30
0.0
 11
-4.4721360206604004
 21
23.349996566772461
 31
0.0
  0
LINE
  5
2CF
100
AcDbEntity
  8
0
  6
DASHED
 62
               4
100
AcDbLine
 10
11.999997138977051
 20
18.149999618530273
 30
0.0
 11
11.999997138977051
 21
12.149999618530273
 31
0.0
  0
LINE
  5
2D0
100
AcDbEntity
  8
0
  6
CENTER
 62
               4
100
AcDbLine
 10
-5.6999969482421875
 20
47.150001525878906
 30
0.0
 11
5.6999969482421875
 21
47.150001525878906
 31
0.0
  0
LINE
  5
2D1
100
AcDbEntity
  8
0
  6
CENTER
 62
               4
100
AcDbLine
 10
6.0
 20
46.849998474121094
 30
0.0
 11
6.0
 21
42.450004577636719
 31
0.0
  0
LINE
  5
2D2
100
AcDbEntity
  8
0
  6
CENTER
 62
               4
100
AcDbLine
 10
5.9999992530420059
 20
46.849995857045087
 30
0.0
 11
5.6999999882364136
 21
47.149995096562634
 31
0.0
  0
LINE
  5
2D3
100
AcDbEntity
  8
0
  6
CENTER
 62
               4
100
AcDbLine
 10
-5.9999965556432926
 20
46.85000394924009
 30
0.0
 11
-5.7000026856346722
 21
47.14999779396112
 31
0.0
  0
LINE
  5
2D4
100
AcDbEntity
  8
0
  6
CENTER
 62
               4
100
AcDbLine
 10
-6.0
 20
46.849998474121094
 30
0.0
 11
-6.0
 21
42.450004577636719
 31
0.0
  0
LINE
  5
2D5
100
AcDbEntity
  8
0
  6
CONTINUOUS
 62
               4
100
AcDbLine
 10
3.3235015869140625
 20
34.950000762939453
 30
0.0
 11
3.3235015869140625
 21
34.150001525878906
 31
0.0
  0
LINE
  5
2D6
100
AcDbEntity
  8
0
  6
CONTINUOUS
 62
               7
100
AcDbLine
 10
3.8000029550807994
 20
34.949997720538477
 30
0.0
 11
4.0000015489597445
 21
34.749999126659532
 31
0.0
  0
LINE
  5
2D7
100
AcDbEntity
  8
0
  6
CONTINUOUS
 62
               4
100
AcDbLine
 10
-3.3235015869140625
 20
34.950000762939453
 30
0.0
 11
-3.3235015869140625
 21
34.150001525878906
 31
0.0
  0
LINE
  5
2D8
100
AcDbEntity
  8
0
  6
CONTINUOUS
 62
               7
100
AcDbLine
 10
-5.6999969482421875
 20
34.950000762939453
 30
0.0
 11
5.6999969482421875
 21
34.950000762939453
 31
0.0
  0
LINE
  5
2D9
100
AcDbEntity
  8
0
  6
CONTINUOUS
 62
               7
100
AcDbLine
 10
-4.0000015489597445
 20
34.749999126659532
 30
0.0
 11
-3.8000029550807994
 21
34.949997720538477
 31
0.0
  0
LINE
  5
2DA
100
AcDbEntity
  8
0
  6
CONTINUOUS
 62
               7
100
AcDbLine
 10
-4.0
 20
34.750003814697266
 30
0.0
 11
4.0
 21
34.750003814697266
 31
0.0
  0
LINE
  5
2DB
100
AcDbEntity
  8
0
  6
CONTINUOUS
 62
               7
100
AcDbLine
 10
-4.0
 20
34.750003814697266
 30
0.0
 11
-4.0
 21
34.150001525878906
 31
0.0
  0
LINE
  5
2DC
100
AcDbEntity
  8
0
  6
CONTINUOUS
 62
               7
100
AcDbLine
 10
4.0
 20
34.750003814697266
 30
0.0
 11
4.0
 21
34.150001525878906
 31
0.0
  0
LINE
  5
2DD
100
AcDbEntity
  8
0
  6
CONTINUOUS
 62
               7
100
AcDbLine
 10
-5.6999969482421875
 20
39.950000762939453
 30
0.0
 11
5.6999969482421875
 21
39.950000762939453
 31
0.0
  0
LINE
  5
2DE
100
AcDbEntity
  8
0
  6
CONTINUOUS
 62
               7
100
AcDbLine
 10
6.0
 20
39.649997711181641
 30
0.0
 11
6.0
 21
35.250003814697266
 31
0.0
  0
LINE
  5
2DF
100
AcDbEntity
  8
0
  6
CONTINUOUS
 62
               7
100
AcDbLine
 10
5.9999968591009747
 20
39.649994923378699
 30
0.0
 11
5.6999975942953824
 21
39.949994162896246
 31
0.0
  0
LINE
  5
2E0
100
AcDbEntity
  8
0
  6
CONTINUOUS
 62
               7
100
AcDbLine
 10
-5.699993758931555
 20
34.950006177303521
 30
0.0
 11
-5.9999956958473604
 21
35.250008139507599
 31
0.0
  0
LINE
  5
2E1
100
AcDbEntity
  8
0
  6
CONTINUOUS
 62
               7
100
AcDbLine
 10
-6.0
 20
39.649997711181641
 30
0.0
 11
6.0
 21
39.649997711181641
 31
0.0
  0
LINE
  5
2E2
100
AcDbEntity
  8
0
  6
CONTINUOUS
 62
               7
100
AcDbLine
 10
6.0
 20
35.250003814697266
 30
0.0
 11
-6.0
 21
35.250003814697266
 31
0.0
  0
LINE
  5
2E3
100
AcDbEntity
  8
0
  6
CONTINUOUS
 62
               7
100
AcDbLine
 10
-5.9999941617022614
 20
39.650003015573702
 30
0.0
 11
-5.700000291693641
 21
39.949996860294732
 31
0.0
  0
LINE
  5
2E4
100
AcDbEntity
  8
0
  6
CONTINUOUS
 62
               7
100
AcDbLine
 10
5.7000018511270127
 20
34.949998085108746
 30
0.0
 11
6.0000010906445596
 21
35.249997349914338
 31
0.0
  0
LINE
  5
2E5
100
AcDbEntity
  8
0
  6
CONTINUOUS
 62
               7
100
AcDbLine
 10
-6.0
 20
39.649997711181641
 30
0.0
 11
-6.0
 21
35.250003814697266
 31
0.0
  0
LINE
  5
2E6
100
AcDbEntity
  8
0
  6
CONTINUOUS
 62
               7
100
AcDbLine
 10
7.5000056585961374
 20
30.150004731591366
 30
0.0
 11
7.0000050856544931
 21
30.650005262386117
 31
0.0
  0
LINE
  5
2E7
100
AcDbEntity
  8
0
  6
CONTINUOUS
 62
               7
100
AcDbLine
 10
-7.4999989151003774
 20
30.150000685493524
 30
0.0
 11
-6.9999983421587331
 21
30.650001216288274
 31
0.0
  0
LINE
  5
2E8
100
AcDbEntity
  8
0
  6
CONTINUOUS
 62
               7
100
AcDbLine
 10
-7.5
 20
30.149999618530273
 30
0.0
 11
-7.5
 21
28.350000381469727
 31
0.0
  0
LINE
  5
2E9
100
AcDbEntity
  8
0
  6
CONTINUOUS
 62
               7
100
AcDbLine
 10
7.5
 20
30.149999618530273
 30
0.0
 11
7.5
 21
28.350000381469727
 31
0.0
  0
LINE
  5
2EA
100
AcDbEntity
  8
0
  6
CONTINUOUS
 62
               7
100
AcDbLine
 10
-9.5
 20
23.350000381469727
 30
0.0
 11
-9.5
 21
23.149999618530273
 31
0.0
  0
LINE
  5
2EB
100
AcDbEntity
  8
0
  6
CONTINUOUS
 62
               7
100
AcDbLine
 10
9.5
 20
23.350000381469727
 30
0.0
 11
9.5
 21
23.149999618530273
 31
0.0
  0
LINE
  5
2EC
100
AcDbEntity
  8
0
  6
CONTINUOUS
 62
               7
100
AcDbLine
 10
-7.5
 20
30.149999618530273
 30
0.0
 11
7.5
 21
30.149999618530273
 31
0.0
  0
LINE
  5
2ED
100
AcDbEntity
  8
0
  6
CONTINUOUS
 62
               7
100
AcDbLine
 10
-9.25
 20
28.350000381469727
 30
0.0
 11
9.25
 21
28.350000381469727
 31
0.0
  0
LINE
  5
2EE
100
AcDbEntity
  8
0
  6
CONTINUOUS
 62
               7
100
AcDbLine
 10
7.9999966431294069
 20
30.849996488995657
 30
0.0
 11
7.8000007297903267
 21
30.650000592514971
 31
0.0
  0
LINE
  5
2EF
100
AcDbEntity
  8
0
  6
CONTINUOUS
 62
               7
100
AcDbLine
 10
-8.0000060840236529
 20
30.849995140296073
 30
0.0
 11
-7.8000047758876008
 21
30.64999384901887
 31
0.0
  0
LINE
  5
2F0
100
AcDbEntity
  8
0
  6
CONTINUOUS
 62
               7
100
AcDbLine
 10
-8.0000047016071676
 20
33.950003821806149
 30
0.0
 11
-7.8000087882680873
 21
34.149999718286836
 31
0.0
  0
LINE
  5
2F1
100
AcDbEntity
  8
0
  6
CONTINUOUS
 62
               7
100
AcDbLine
 10
-8.0
 20
33.950004577636719
 30
0.0
 11
8.0
 21
33.950004577636719
 31
0.0
  0
LINE
  5
2F2
100
AcDbEntity
  8
0
  6
CONTINUOUS
 62
               7
100
AcDbLine
 10
8.0000006555094387
 20
33.950007867903537
 30
0.0
 11
7.8000047421703584
 21
34.150003764384223
 31
0.0
  0
LINE
  5
2F3
100
AcDbEntity
  8
0
  6
CONTINUOUS
 62
               7
100
AcDbLine
 10
7.9999999999999725
 20
30.849996566772468
 30
0.0
 11
-8.0000000000000266
 21
30.849996566772454
 31
0.0
  0
LINE
  5
2F4
100
AcDbEntity
  8
0
  6
CONTINUOUS
 62
               7
100
AcDbLine
 10
8.0
 20
33.950004577636719
 30
0.0
 11
8.0
 21
30.849996566772461
 31
0.0
  0
LINE
  5
2F5
100
AcDbEntity
  8
0
  6
CONTINUOUS
 62
               7
100
AcDbLine
 10
-7.8000030517578125
 20
30.649999618530273
 30
0.0
 11
7.8000030517578125
 21
30.649999618530273
 31
0.0
  0
LINE
  5
2F6
100
AcDbEntity
  8
0
  6
CONTINUOUS
 62
               7
100
AcDbLine
 10
-7.8000030517578125
 20
34.150001525878906
 30
0.0
 11
7.8000030517578125
 21
34.150001525878906
 31
0.0
  0
LINE
  5
2F7
100
AcDbEntity
  8
0
  6
CONTINUOUS
 62
               7
100
AcDbLine
 10
-8.0
 20
33.950004577636719
 30
0.0
 11
-8.0
 21
30.849996566772461
 31
0.0
  0
LINE
  5
2F8
100
AcDbEntity
  8
0
  6
CONTINUOUS
 62
               7
100
AcDbLine
 10
-11.000002091034986
 20
9.0499999094809596
 30
0.0
 11
-10.19170970211897
 21
7.6499964496347843
 31
0.0
  0
LINE
  5
2F9
100
AcDbEntity
  8
0
  6
CENTER
 62
               4
100
AcDbLine
 10
-13.0
 20
15.149999618530273
 30
0.0
 11
31.349998474121094
 21
15.149999618530273
 31
0.0
  0
LINE
  5
2FA
100
AcDbEntity
  8
0
  6
CONTINUOUS
 62
               7
100
AcDbLine
 10
-11.000003544532433
 20
21.749996934514229
 30
0.0
 11
-10.191714970313683
 21
23.149993787111043
 31
0.0
  0
LINE
  5
2FB
100
AcDbEntity
  8
0
  6
CONTINUOUS
 62
               7
100
AcDbLine
 10
10.999996118039576
 20
9.0500000543668193
 30
0.0
 11
10.19170372912356
 21
7.6499965945206441
 31
0.0
  0
LINE
  5
2FC
100
AcDbEntity
  8
0
  6
CONTINUOUS
 62
               7
100
AcDbLine
 10
-11.0
 20
21.749998092651367
 30
0.0
 11
11.0
 21
21.749998092651367
 31
0.0
  0
LINE
  5
2FD
100
AcDbEntity
  8
0
  6
CONTINUOUS
 62
               7
100
AcDbLine
 10
-10.19171142578125
 20
23.149999618530273
 30
0.0
 11
10.19171142578125
 21
23.149999618530273
 31
0.0
  0
LINE
  5
2FE
100
AcDbEntity
  8
0
  6
CONTINUOUS
 62
               7
100
AcDbLine
 10
-11.0
 20
9.0499992370605469
 30
0.0
 11
11.0
 21
9.0499992370605469
 31
0.0
  0
LINE
  5
2FF
100
AcDbEntity
  8
0
  6
CONTINUOUS
 62
               7
100
AcDbLine
 10
-10.19171142578125
 20
7.6499991416931152
 30
0.0
 11
10.19171142578125
 21
7.6499991416931152
 31
0.0
  0
LINE
  5
300
100
AcDbEntity
  8
0
  6
CONTINUOUS
 62
               7
100
AcDbLine
 10
-11.0
 20
21.749998092651367
 30
0.0
 11
-11.0
 21
9.0499992370605469
 31
0.0
  0
LINE
  5
301
100
AcDbEntity
  8
0
  6
CENTER
 62
               4
100
AcDbLine
 10
0.0
 20
49.120002746582031
 30
0.0
 11
0.0
 21
-8.3500003814697266
 31
0.0
  0
LINE
  5
302
100
AcDbEntity
  8
0
  6
CONTINUOUS
 62
               7
100
AcDbLine
 10
14.5
 20
22.350000381469727
 30
0.0
 11
14.5
 21
15.899999618530273
 31
0.0
  0
LINE
  5
303
100
AcDbEntity
  8
0
  6
CONTINUOUS
 62
               7
100
AcDbLine
 10
24.199996948242188
 20
22.249998092651367
 30
0.0
 11
24.199996948242188
 21
8.0499992370605469
 31
0.0
  0
LINE
  5
304
100
AcDbEntity
  8
0
  6
CONTINUOUS
 62
               7
100
AcDbLine
 10
11.0
 20
21.749998092651367
 30
0.0
 11
11.0
 21
20.649999618530273
 31
0.0
  0
LINE
  5
305
100
AcDbEntity
  8
0
  6
CONTINUOUS
 62
               7
100
AcDbLine
 10
10.999998810396278
 20
21.749997504884107
 30
0.0
 11
10.191706421480262
 21
23.150000964730282
 31
0.0
  0
LINE
  5
306
100
AcDbEntity
  8
0
  6
CONTINUOUS
 62
               7
100
AcDbLine
 10
14.5
 20
22.350000381469727
 30
0.0
 11
22.199996948242188
 21
22.350000381469727
 31
0.0
  0
LINE
  5
307
100
AcDbEntity
  8
0
  6
CONTINUOUS
 62
               7
100
AcDbLine
 10
22.199996948242188
 20
22.350000381469727
 30
0.0
 11
22.199996948242188
 21
7.9499993324279785
 31
0.0
  0
LINE
  5
308
100
AcDbEntity
  8
0
  6
CONTINUOUS
 62
               7
100
AcDbLine
 10
14.5
 20
7.9499993324279785
 30
0.0
 11
22.199996948242188
 21
7.9499993324279785
 31
0.0
  0
LINE
  5
309
100
AcDbEntity
  8
0
  6
CONTINUOUS
 62
               7
100
AcDbLine
 10
12.5
 20
20.649999618530273
 30
0.0
 11
12.5
 21
15.899999618530273
 31
0.0
  0
LINE
  5
30A
100
AcDbEntity
  8
0
  6
CONTINUOUS
 62
               7
100
AcDbLine
 10
11.0
 20
20.649999618530273
 30
0.0
 11
12.5
 21
20.649999618530273
 31
0.0
  0
LINE
  5
30B
100
AcDbEntity
  8
0
  6
CONTINUOUS
 62
               7
100
AcDbLine
 10
24.200007625604428
 20
8.0500011547991761
 30
0.0
 11
22.200003595204123
 21
7.9500009547711414
 31
0.0
  0
LINE
  5
30C
100
AcDbEntity
  8
0
  6
CONTINUOUS
 62
               7
100
AcDbLine
 10
12.49999087082827
 20
9.6500102311226499
 30
0.0
 11
14.499999908929453
 21
7.9500026817240723
 31
0.0
  0
LINE
  5
30D
100
AcDbEntity
  8
0
  6
CONTINUOUS
 62
               7
100
AcDbLine
 10
12.499999597571502
 20
20.64999904819507
 30
0.0
 11
14.500008998993678
 21
22.350006906416468
 31
0.0
  0
LINE
  5
30E
100
AcDbEntity
  8
0
  6
CONTINUOUS
 62
               7
100
AcDbLine
 10
11.0
 20
9.6499996185302734
 30
0.0
 11
12.5
 21
9.6499996185302734
 31
0.0
  0
LINE
  5
30F
100
AcDbEntity
  8
0
  6
CONTINUOUS
 62
               7
100
AcDbLine
 10
24.199989029610173
 20
22.249998088395976
 30
0.0
 11
22.200000238961387
 21
22.349997526436447
 31
0.0
  0
LINE
  5
310
100
AcDbEntity
  8
0
  6
CONTINUOUS
 62
               7
100
AcDbLine
 10
14.5
 20
14.399999618530273
 30
0.0
 11
14.5
 21
7.9499993324279785
 31
0.0
  0
LINE
  5
311
100
AcDbEntity
  8
0
  6
CONTINUOUS
 62
               7
100
AcDbLine
 10
12.5
 20
14.399999618530273
 30
0.0
 11
12.5
 21
9.6499996185302734
 31
0.0
  0
LINE
  5
312
100
AcDbEntity
  8
0
  6
CONTINUOUS
 62
               7
100
AcDbLine
 10
8.316253662109375
 20
15.899999618530273
 30
0.0
 11
14.5
 21
15.899999618530273
 31
0.0
  0
LINE
  5
313
100
AcDbEntity
  8
0
  6
CONTINUOUS
 62
               7
100
AcDbLine
 10
11.0
 20
9.6499996185302734
 30
0.0
 11
11.0
 21
9.0499992370605469
 31
0.0
  0
LINE
  5
314
100
AcDbEntity
  8
0
  6
CONTINUOUS
 62
               7
100
AcDbLine
 10
8.316253662109375
 20
14.399999618530273
 30
0.0
 11
14.5
 21
14.399999618530273
 31
0.0
  0
ENDBLK
  5
315
100
AcDbEntity
  8
0
100
AcDbBlockEnd
  0
BLOCK
  5
316
100
AcDbEntity
  8
0
100
AcDbBlockBegin
  2
MS_8
 70
               0
 10
0.0
 20
0.0
 30
0.0
  3
MS_8
  1

  0
ARC
  5
317
100
AcDbEntity
  8
0
  6
CONTINUOUS
 62
               7
100
AcDbCircle
 10
28.649997711181641
 20
-5.5999999046325684
 30
0.0
 40
0.300000011920929
100
AcDbArc
 50
269.99999749552126
 51
0.0000025044780655
  0
ARC
  5
318
100
AcDbEntity
  8
0
  6
CONTINUOUS
 62
               7
100
AcDbCircle
 10
28.649997711181641
 20
5.5999999046325684
 30
0.0
 40
0.300000011920929
100
AcDbArc
 50
0.0000025044780655
 51
90.000002504477962
  0
ARC
  5
319
100
AcDbEntity
  8
0
  6
CONTINUOUS
 62
               7
100
AcDbCircle
 10
0.0
 20
0.0
 30
0.0
 40
10.5
100
AcDbArc
 50
355.20876530432099
 51
4.7912346956781873
  0
ARC
  5
31A
100
AcDbEntity
  8
0
  6
CONTINUOUS
 62
               7
100
AcDbCircle
 10
0.0
 20
0.0
 30
0.0
 40
10.191709518432617
100
AcDbArc
 50
308.76934309252368
 51
351.23065694537001
  0
ARC
  5
31B
100
AcDbEntity
  8
0
  6
CONTINUOUS
 62
               7
100
AcDbCircle
 10
0.0
 20
0.0
 30
0.0
 40
10.191709518432617
100
AcDbArc
 50
68.769343016733856
 51
111.2306551620329
  0
ARC
  5
31C
100
AcDbEntity
  8
0
  6
CONTINUOUS
 62
               7
100
AcDbCircle
 10
0.0
 20
0.0
 30
0.0
 40
10.5
100
AcDbArc
 50
55.208763985766026
 51
64.791235938443336
  0
ARC
  5
31D
100
AcDbEntity
  8
0
  6
CONTINUOUS
 62
               7
100
AcDbCircle
 10
0.0
 20
0.0
 30
0.0
 40
10.5
100
AcDbArc
 50
295.20876406155583
 51
304.79123601423316
  0
ARC
  5
31E
100
AcDbEntity
  8
0
  6
CONTINUOUS
 62
               7
100
AcDbCircle
 10
0.0
 20
0.0
 30
0.0
 40
10.5
100
AcDbArc
 50
115.20876224032342
 51
124.79123077790615
  0
ARC
  5
31F
100
AcDbEntity
  8
0
  6
CONTINUOUS
 62
               7
100
AcDbCircle
 10
0.0
 20
0.0
 30
0.0
 40
10.191709518432617
100
AcDbArc
 50
128.76933785619667
 51
171.23065683168488
  0
ARC
  5
320
100
AcDbEntity
  8
0
  6
CONTINUOUS
 62
               7
100
AcDbCircle
 10
0.0
 20
0.0
 30
0.0
 40
10.191709518432617
100
AcDbArc
 50
248.76934483796629
 51
291.23065698326536
  0
ARC
  5
321
100
AcDbEntity
  8
0
  6
CONTINUOUS
 62
               7
100
AcDbCircle
 10
0.0
 20
0.0
 30
0.0
 40
10.191709518432617
100
AcDbArc
 50
188.76934316831432
 51
231.23066214380253
  0
ARC
  5
322
100
AcDbEntity
  8
0
  6
CONTINUOUS
 62
               7
100
AcDbCircle
 10
0.0
 20
0.0
 30
0.0
 40
10.191709518432617
100
AcDbArc
 50
8.7693430546291733
 51
51.230656907475513
  0
ARC
  5
323
100
AcDbEntity
  8
0
  6
CONTINUOUS
 62
               7
100
AcDbCircle
 10
0.0
 20
0.0
 30
0.0
 40
10.5
100
AcDbArc
 50
175.2087639099754
 51
184.79123244755812
  0
CIRCLE
  5
324
100
AcDbEntity
  8
0
  6
CONTINUOUS
 62
               7
100
AcDbCircle
 10
0.0
 20
0.0
 30
0.0
 40
9.25
  0
ARC
  5
325
100
AcDbEntity
  8
0
  6
CONTINUOUS
 62
               7
100
AcDbCircle
 10
0.0
 20
0.0
 30
0.0
 40
10.5
100
AcDbArc
 50
235.20876922209305
 51
244.79123775967577
  0
CIRCLE
  5
326
100
AcDbEntity
  8
0
  6
CONTINUOUS
 62
               7
100
AcDbCircle
 10
0.0
 20
0.0
 30
0.0
 40
5.6999998092651367
  0
CIRCLE
  5
327
100
AcDbEntity
  8
0
  6
CONTINUOUS
 62
               7
100
AcDbCircle
 10
0.0
 20
0.0
 30
0.0
 40
6.0
  0
CIRCLE
  5
328
100
AcDbEntity
  8
0
  6
CONTINUOUS
 62
               7
100
AcDbCircle
 10
0.0
 20
0.0
 30
0.0
 40
7.8000001907348633
  0
CIRCLE
  5
329
100
AcDbEntity
  8
0
  6
CONTINUOUS
 62
               7
100
AcDbCircle
 10
0.0
 20
0.0
 30
0.0
 40
8.0
  0
CIRCLE
  5
32A
100
AcDbEntity
  8
0
  6
CONTINUOUS
 62
               7
100
AcDbCircle
 10
0.0
 20
0.0
 30
0.0
 40
11.0
  0
LINE
  5
32B
100
AcDbEntity
  8
0
  6
DASHED
 62
               4
100
AcDbLine
 10
28.949996948242188
 20
-3.0
 30
0.0
 11
11.999997138977051
 21
-3.0
 31
0.0
  0
LINE
  5
32C
100
AcDbEntity
  8
0
  6
DASHED
 62
               4
100
AcDbLine
 10
28.949996948242188
 20
3.0
 30
0.0
 11
11.999997138977051
 21
3.0
 31
0.0
  0
LINE
  5
32D
100
AcDbEntity
  8
0
  6
CONTINUOUS
 62
               7
100
AcDbLine
 10
25.024997711181641
 20
5.75
 30
0.0
 11
25.024997711181641
 21
-5.75
 31
0.0
  0
LINE
  5
32E
100
AcDbEntity
  8
0
  6
CONTINUOUS
 62
               7
100
AcDbLine
 10
25.199996738600021
 20
-5.5500000758624992
 30
0.0
 11
25.024996672963539
 21
-5.7500001554013807
 31
0.0
  0
LINE
  5
32F
100
AcDbEntity
  8
0
  6
CONTINUOUS
 62
               7
100
AcDbLine
 10
26.199997398372147
 20
-5.4500001063748869
 30
0.0
 11
25.899997459216934
 21
-5.7500000202419983
 31
0.0
  0
LINE
  5
330
100
AcDbEntity
  8
0
  6
CONTINUOUS
 62
               7
100
AcDbLine
 10
25.374997846041879
 20
-5.7500005411720849
 30
0.0
 11
25.199997152406468
 21
-5.5499997439201252
 31
0.0
  0
LINE
  5
331
100
AcDbEntity
  8
0
  6
CONTINUOUS
 62
               7
100
AcDbLine
 10
25.024997711181641
 20
-5.75
 30
0.0
 11
24.199996948242188
 21
-5.75
 31
0.0
  0
LINE
  5
332
100
AcDbEntity
  8
0
  6
CONTINUOUS
 62
               7
100
AcDbLine
 10
25.899997711181641
 20
-5.75
 30
0.0
 11
25.374996185302734
 21
-5.75
 31
0.0
  0
LINE
  5
333
100
AcDbEntity
  8
0
  6
CONTINUOUS
 62
               7
100
AcDbLine
 10
25.024997711181641
 20
5.75
 30
0.0
 11
24.199996948242188
 21
5.75
 31
0.0
  0
LINE
  5
334
100
AcDbEntity
  8
0
  6
CONTINUOUS
 62
               7
100
AcDbLine
 10
26.199997398372147
 20
5.4500001063748869
 30
0.0
 11
25.899997459216934
 21
5.7500000202419983
 31
0.0
  0
LINE
  5
335
100
AcDbEntity
  8
0
  6
CONTINUOUS
 62
               7
100
AcDbLine
 10
25.199996738600021
 20
5.5500000758624992
 30
0.0
 11
25.024996672963539
 21
5.7500001554013807
 31
0.0
  0
LINE
  5
336
100
AcDbEntity
  8
0
  6
CONTINUOUS
 62
               7
100
AcDbLine
 10
25.374997846041879
 20
5.7500005411720849
 30
0.0
 11
25.199997152406468
 21
5.5499997439201252
 31
0.0
  0
LINE
  5
337
100
AcDbEntity
  8
0
  6
CONTINUOUS
 62
               7
100
AcDbLine
 10
25.899997711181641
 20
5.75
 30
0.0
 11
25.374996185302734
 21
5.75
 31
0.0
  0
LINE
  5
338
100
AcDbEntity
  8
0
  6
CONTINUOUS
 62
               7
100
AcDbLine
 10
26.199996948242188
 20
5.4499998092651367
 30
0.0
 11
26.199996948242188
 21
-5.4499998092651367
 31
0.0
  0
LINE
  5
339
100
AcDbEntity
  8
0
  6
CONTINUOUS
 62
               7
100
AcDbLine
 10
25.899997711181641
 20
5.75
 30
0.0
 11
25.899997711181641
 21
-5.75
 31
0.0
  0
LINE
  5
33A
100
AcDbEntity
  8
0
  6
CONTINUOUS
 62
               7
100
AcDbLine
 10
28.649997711181641
 20
5.9000000953674316
 30
0.0
 11
27.149997711181641
 21
5.9000000953674316
 31
0.0
  0
LINE
  5
33B
100
AcDbEntity
  8
0
  6
CONTINUOUS
 62
               7
100
AcDbLine
 10
28.649997711181641
 20
-5.9000000953674316
 30
0.0
 11
27.149997711181641
 21
-5.9000000953674316
 31
0.0
  0
LINE
  5
33C
100
AcDbEntity
  8
0
  6
CONTINUOUS
 62
               7
100
AcDbLine
 10
28.949996948242188
 20
5.5999999046325684
 30
0.0
 11
28.949996948242188
 21
-5.5999999046325684
 31
0.0
  0
LINE
  5
33D
100
AcDbEntity
  8
0
  6
CONTINUOUS
 62
               7
100
AcDbLine
 10
27.149997711181641
 20
5.9000000953674316
 30
0.0
 11
27.149997711181641
 21
-5.9000000953674316
 31
0.0
  0
LINE
  5
33E
100
AcDbEntity
  8
0
  6
CONTINUOUS
 62
               7
100
AcDbLine
 10
25.374996185302734
 20
5.75
 30
0.0
 11
25.374996185302734
 21
-5.75
 31
0.0
  0
LINE
  5
33F
100
AcDbEntity
  8
0
  6
CONTINUOUS
 62
               7
100
AcDbLine
 10
27.149997711181641
 20
4.0500001907348633
 30
0.0
 11
26.199996948242188
 21
4.0500001907348633
 31
0.0
  0
LINE
  5
340
100
AcDbEntity
  8
0
  6
CONTINUOUS
 62
               7
100
AcDbLine
 10
27.149997711181641
 20
-4.0500001907348633
 30
0.0
 11
26.199996948242188
 21
-4.0500001907348633
 31
0.0
  0
LINE
  5
341
100
AcDbEntity
  8
0
  6
CONTINUOUS
 62
               7
100
AcDbLine
 10
25.199996948242187
 20
5.5500001907348633
 30
0.0
 11
25.199996948242187
 21
-5.5500001907348633
 31
0.0
  0
LINE
  5
342
100
AcDbEntity
  8
0
  6
CONTINUOUS
 62
               7
100
AcDbLine
 10
-4.4721360206604004
 20
-9.5
 30
0.0
 11
4.4721360206604004
 21
-9.5
 31
0.0
  0
LINE
  5
343
100
AcDbEntity
  8
0
  6
CONTINUOUS
 62
               7
100
AcDbLine
 10
-5.9911731779575348
 20
-8.6229833335581532
 30
0.0
 11
-10.463309198617935
 21
-0.8770166664418468
 31
0.0
  0
LINE
  5
344
100
AcDbEntity
  8
0
  6
CONTINUOUS
 62
               7
100
AcDbLine
 10
-10.463309198617935
 20
0.8770166664418468
 30
0.0
 11
-5.9911731779575348
 21
8.6229833335581532
 31
0.0
  0
LINE
  5
345
100
AcDbEntity
  8
0
  6
CONTINUOUS
 62
               7
100
AcDbLine
 10
5.9911731779575348
 20
-8.6229833335581532
 30
0.0
 11
10.463309198617935
 21
-0.8770166664418468
 31
0.0
  0
LINE
  5
346
100
AcDbEntity
  8
0
  6
CONTINUOUS
 62
               7
100
AcDbLine
 10
10.463309198617935
 20
0.8770166664418468
 30
0.0
 11
5.9911731779575348
 21
8.6229833335581532
 31
0.0
  0
LINE
  5
347
100
AcDbEntity
  8
0
  6
CONTINUOUS
 62
               7
100
AcDbLine
 10
-4.4721360206604004
 20
9.5
 30
0.0
 11
4.4721360206604004
 21
9.5
 31
0.0
  0
LINE
  5
348
100
AcDbEntity
  8
0
  6
DASHED
 62
               4
100
AcDbLine
 10
11.999997138977051
 20
3.0
 30
0.0
 11
11.999997138977051
 21
-3.0
 31
0.0
  0
LINE
  5
349
100
AcDbEntity
  8
0
  6
CENTER
 62
               4
100
AcDbLine
 10
31.349998474121094
 20
0.0
 30
0.0
 11
-13.539993286132813
 21
0.0
 31
0.0
  0
LINE
  5
34A
100
AcDbEntity
  8
0
  6
CONTINUOUS
 62
               7
100
AcDbLine
 10
24.199999375340216
 20
7.1000003241431173
 30
0.0
 11
22.199995344939911
 21
7.200000524171152
 31
0.0
  0
LINE
  5
34B
100
AcDbEntity
  8
0
  6
CONTINUOUS
 62
               7
100
AcDbLine
 10
9.526275634765625
 20
-5.5
 30
0.0
 11
12.5
 21
-5.5
 31
0.0
  0
LINE
  5
34C
100
AcDbEntity
  8
0
  6
CONTINUOUS
 62
               7
100
AcDbLine
 10
12.500010720757146
 20
5.5000060075579285
 30
0.0
 11
14.500008495907551
 21
7.2000039834490934
 31
0.0
  0
LINE
  5
34D
100
AcDbEntity
  8
0
  6
CONTINUOUS
 62
               7
100
AcDbLine
 10
12.499996369577687
 20
-5.4999875508526515
 30
0.0
 11
14.500005770999863
 21
-7.1999954090740488
 31
0.0
  0
LINE
  5
34E
100
AcDbEntity
  8
0
  6
CONTINUOUS
 62
               7
100
AcDbLine
 10
24.199995327281222
 20
-7.0999957522176587
 30
0.0
 11
22.199991296880917
 21
-7.1999959522456933
 31
0.0
  0
LINE
  5
34F
100
AcDbEntity
  8
0
  6
CONTINUOUS
 62
               7
100
AcDbLine
 10
9.526275634765625
 20
5.5
 30
0.0
 11
12.5
 21
5.5
 31
0.0
  0
LINE
  5
350
100
AcDbEntity
  8
0
  6
CONTINUOUS
 62
               7
100
AcDbLine
 10
12.5
 20
5.5
 30
0.0
 11
12.5
 21
-5.5
 31
0.0
  0
LINE
  5
351
100
AcDbEntity
  8
0
  6
CONTINUOUS
 62
               7
100
AcDbLine
 10
8.316253662109375
 20
-7.1999969482421875
 30
0.0
 11
22.199996948242188
 21
-7.1999969482421875
 31
0.0
  0
LINE
  5
352
100
AcDbEntity
  8
0
  6
CONTINUOUS
 62
               7
100
AcDbLine
 10
22.199996948242188
 20
7.2000007629394531
 30
0.0
 11
22.199996948242188
 21
-7.1999969482421875
 31
0.0
  0
LINE
  5
353
100
AcDbEntity
  8
0
  6
CONTINUOUS
 62
               7
100
AcDbLine
 10
8.316253662109375
 20
7.2000007629394531
 30
0.0
 11
22.199996948242188
 21
7.2000007629394531
 31
0.0
  0
LINE
  5
354
100
AcDbEntity
  8
0
  6
CONTINUOUS
 62
               7
100
AcDbLine
 10
24.199996948242188
 20
7.1000022888183594
 30
0.0
 11
24.199996948242188
 21
-7.0999984741210938
 31
0.0
  0
LINE
  5
355
100
AcDbEntity
  8
0
  6
CONTINUOUS
 62
               7
100
AcDbLine
 10
14.5
 20
7.2000007629394531
 30
0.0
 11
14.5
 21
-7.1999969482421875
 31
0.0
  0
LINE
  5
356
100
AcDbEntity
  8
0
  6
CENTER
 62
               4
100
AcDbLine
 10
0.0
 20
13.540000915527344
 30
0.0
 11
0.0
 21
-13.540000915527344
 31
0.0
  0
ENDBLK
  5
357
100
AcDbEntity
  8
0
100
AcDbBlockEnd
  0
BLOCK
  5
358
100
AcDbEntity
  8
0
100
AcDbBlockBegin
  2
MS_9
 70
               0
 10
0.0
 20
0.0
 30
0.0
  3
MS_9
  1

  0
CIRCLE
  5
359
100
AcDbEntity
  8
0
  6
CONTINUOUS
 62
               7
100
AcDbCircle
 10
0.0
 20
15.149999618530273
 30
0.0
 40
5.9000000953674316
  0
CIRCLE
  5
35A
100
AcDbEntity
  8
0
  6
CONTINUOUS
 62
               7
100
AcDbCircle
 10
0.0
 20
15.149999618530273
 30
0.0
 40
3.0999999046325684
  0
ARC
  5
35B
100
AcDbEntity
  8
0
  6
CONTINUOUS
 62
               7
100
AcDbCircle
 10
-4.75
 20
0.1586540937423706
 30
0.0
 40
28.124355316162109
100
AcDbArc
 50
82.084687520646966
 51
97.915310658119793
  0
ARC
  5
35C
100
AcDbEntity
  8
0
  6
CONTINUOUS
 62
               7
100
AcDbCircle
 10
8.3500003814697266
 20
7.5121393203735352
 30
0.0
 40
0.5
100
AcDbArc
 50
329.99999916517322
 51
0.0000000000001018
  0
ARC
  5
35D
100
AcDbEntity
  8
0
  6
CONTINUOUS
 62
               7
100
AcDbCircle
 10
4.75
 20
0.1586540937423706
 30
0.0
 40
28.124355316162109
100
AcDbArc
 50
82.084687520646966
 51
97.915310658119793
  0
ARC
  5
35E
100
AcDbEntity
  8
0
  6
CONTINUOUS
 62
               7
100
AcDbCircle
 10
-8.3500003814697266
 20
7.5121393203735352
 30
0.0
 40
0.5
100
AcDbArc
 50
179.99999499104325
 51
210.00000265605843
  0
CIRCLE
  5
35F
100
AcDbEntity
  8
0
  6
CONTINUOUS
 62
               7
100
AcDbCircle
 10
0.0
 20
15.149999618530273
 30
0.0
 40
7.1999998092651367
  0
CIRCLE
  5
360
100
AcDbEntity
  8
0
  6
CONTINUOUS
 62
               7
100
AcDbCircle
 10
0.0
 20
15.149999618530273
 30
0.0
 40
7.0999999046325684
  0
LINE
  5
361
100
AcDbEntity
  8
0
  6
CONTINUOUS
 62
               7
100
AcDbLine
 10
9.5
 20
28.283010482788086
 30
0.0
 11
9.5
 21
23.349996566772461
 31
0.0
  0
LINE
  5
362
100
AcDbEntity
  8
0
  6
CONTINUOUS
 62
               7
100
AcDbLine
 10
8.7830126103604016
 20
7.2621387961762025
 30
0.0
 11
8.5450622853481946
 21
6.8499967509747535
 31
0.0
  0
LINE
  5
363
100
AcDbEntity
  8
0
  6
CONTINUOUS
 62
               4
100
AcDbLine
 10
-7.4750002885405706
 20
0.0000000297877811
 30
0.0
 11
-7.2806454475065241
 21
-6.2193548833017065
 31
0.0
  0
LINE
  5
364
100
AcDbEntity
  8
0
  6
CONTINUOUS
 62
               7
100
AcDbLine
 10
-9.5
 20
28.015060424804688
 30
0.0
 11
-8.6229829788208008
 21
28.015060424804688
 31
0.0
  0
LINE
  5
365
100
AcDbEntity
  8
0
  6
CONTINUOUS
 62
               7
100
AcDbLine
 10
-8.5450620651245117
 20
6.8499970436096191
 30
0.0
 11
8.5450620651245117
 21
6.8499970436096191
 31
0.0
  0
LINE
  5
366
100
AcDbEntity
  8
0
  6
CONTINUOUS
 62
               7
100
AcDbLine
 10
-8.6229829788208008
 20
28.015060424804688
 30
0.0
 11
-8.6229829788208008
 21
23.349996566772461
 31
0.0
  0
LINE
  5
367
100
AcDbEntity
  8
0
  6
CONTINUOUS
 62
               7
100
AcDbLine
 10
-8.8500003814697266
 20
7.6500000953674316
 30
0.0
 11
-8.8500003814697266
 21
7.5121393203735352
 31
0.0
  0
LINE
  5
368
100
AcDbEntity
  8
0
  6
CONTINUOUS
 62
               7
100
AcDbLine
 10
8.6229829788208008
 20
28.015060424804688
 30
0.0
 11
9.5
 21
28.015060424804688
 31
0.0
  0
LINE
  5
369
100
AcDbEntity
  8
0
  6
CONTINUOUS
 62
               7
100
AcDbLine
 10
8.8500003814697266
 20
7.6500000953674316
 30
0.0
 11
8.8500003814697266
 21
7.5121393203735352
 31
0.0
  0
LINE
  5
36A
100
AcDbEntity
  8
0
  6
CONTINUOUS
 62
               7
100
AcDbLine
 10
-8.5450621232152102
 20
6.8499971955856154
 30
0.0
 11
-8.330999705267951
 21
-0.0000001787266868
 31
0.0
  0
LINE
  5
36B
100
AcDbEntity
  8
0
  6
CONTINUOUS
 62
               4
100
AcDbLine
 10
-7.6400790234000393
 20
5.2825195452907803
 30
0.0
 11
-7.4750002885405706
 21
0.0000000297877811
 31
0.0
  0
LINE
  5
36C
100
AcDbEntity
  8
0
  6
CONTINUOUS
 62
               4
100
AcDbLine
 10
7.6400790234000393
 20
5.2825195452907803
 30
0.0
 11
7.4750002885405706
 21
0.0000000297877811
 31
0.0
  0
LINE
  5
36D
100
AcDbEntity
  8
0
  6
CONTINUOUS
 62
               7
100
AcDbLine
 10
-0.8770166635513306
 20
28.015060424804688
 30
0.0
 11
0.8770166635513306
 21
28.015060424804688
 31
0.0
  0
LINE
  5
36E
100
AcDbEntity
  8
0
  6
CONTINUOUS
 62
               7
100
AcDbLine
 10
-9.4999999376844784
 20
28.283009304134531
 30
0.0
 11
-9.2499998850386618
 21
28.349996616910168
 31
0.0
  0
LINE
  5
36F
100
AcDbEntity
  8
0
  6
CONTINUOUS
 62
               7
100
AcDbLine
 10
9.2499998850386618
 20
28.349996616910168
 30
0.0
 11
9.4999999376844784
 21
28.283009304134531
 31
0.0
  0
LINE
  5
370
100
AcDbEntity
  8
0
  6
CONTINUOUS
 62
               7
100
AcDbLine
 10
-9.5
 20
28.283010482788086
 30
0.0
 11
-9.5
 21
23.349996566772461
 31
0.0
  0
LINE
  5
371
100
AcDbEntity
  8
0
  6
CONTINUOUS
 62
               7
100
AcDbLine
 10
-0.8770166635513306
 20
28.015060424804688
 30
0.0
 11
-0.8770166635513306
 21
23.349996566772461
 31
0.0
  0
LINE
  5
372
100
AcDbEntity
  8
0
  6
CONTINUOUS
 62
               7
100
AcDbLine
 10
0.8770166635513306
 20
28.015060424804688
 30
0.0
 11
0.8770166635513306
 21
23.349996566772461
 31
0.0
  0
LINE
  5
373
100
AcDbEntity
  8
0
  6
CONTINUOUS
 62
               7
100
AcDbLine
 10
-9.25
 20
28.349996566772461
 30
0.0
 11
9.25
 21
28.349996566772461
 31
0.0
  0
LINE
  5
374
100
AcDbEntity
  8
0
  6
CONTINUOUS
 62
               7
100
AcDbLine
 10
-9.5
 20
23.349996566772461
 30
0.0
 11
9.5
 21
23.349996566772461
 31
0.0
  0
LINE
  5
375
100
AcDbEntity
  8
0
  6
CONTINUOUS
 62
               7
100
AcDbLine
 10
8.6229829788208008
 20
28.015060424804688
 30
0.0
 11
8.6229829788208008
 21
23.349996566772461
 31
0.0
  0
LINE
  5
376
100
AcDbEntity
  8
0
  6
CENTER
 62
               4
100
AcDbLine
 10
-12.00794506072998
 20
0.0
 30
0.0
 11
11.561882972717285
 21
0.0
 31
0.0
  0
LINE
  5
377
100
AcDbEntity
  8
0
  6
CONTINUOUS
 62
               7
100
AcDbLine
 10
8.5450621232152102
 20
6.8499971955856154
 30
0.0
 11
8.330999705267951
 21
-0.0000001787266868
 31
0.0
  0
LINE
  5
378
100
AcDbEntity
  8
0
  6
CONTINUOUS
 62
               7
100
AcDbLine
 10
-7.1499996751869155
 20
-6.3499998205809227
 30
0.0
 11
-8.1642577931250457
 21
-5.3357417026427925
 31
0.0
  0
LINE
  5
379
100
AcDbEntity
  8
0
  6
CONTINUOUS
 62
               7
100
AcDbLine
 10
7.1499996751869155
 20
-6.3499998205809227
 30
0.0
 11
8.1642577931250457
 21
-5.3357417026427925
 31
0.0
  0
LINE
  5
37A
100
AcDbEntity
  8
0
  6
CONTINUOUS
 62
               7
100
AcDbLine
 10
-8.1642580032348633
 20
-5.3357419967651367
 30
0.0
 11
8.1642580032348633
 21
-5.3357419967651367
 31
0.0
  0
LINE
  5
37B
100
AcDbEntity
  8
0
  6
CONTINUOUS
 62
               7
100
AcDbLine
 10
-8.330999705267951
 20
-0.0000001787266868
 30
0.0
 11
-8.1642577803540384
 21
-5.3357417759718828
 31
0.0
  0
LINE
  5
37C
100
AcDbEntity
  8
0
  6
CONTINUOUS
 62
               7
100
AcDbLine
 10
8.330999705267951
 20
-0.0000001787266868
 30
0.0
 11
8.1642577803540384
 21
-5.3357417759718828
 31
0.0
  0
LINE
  5
37D
100
AcDbEntity
  8
0
  6
CONTINUOUS
 62
               4
100
AcDbLine
 10
7.4750002885405706
 20
0.0000000297877811
 30
0.0
 11
7.2806454475065241
 21
-6.2193548833017065
 31
0.0
  0
LINE
  5
37E
100
AcDbEntity
  8
0
  6
CONTINUOUS
 62
               7
100
AcDbLine
 10
-8.7830126103604016
 20
7.2621387961762025
 30
0.0
 11
-8.5450622853481946
 21
6.8499967509747535
 31
0.0
  0
LINE
  5
37F
100
AcDbEntity
  8
0
  6
CONTINUOUS
 62
               7
100
AcDbLine
 10
-8.563812255859375
 20
7.4500031471252441
 30
0.0
 11
8.563812255859375
 21
7.4500031471252441
 31
0.0
  0
LINE
  5
380
100
AcDbEntity
  8
0
  6
CONTINUOUS
 62
               7
100
AcDbLine
 10
-8.4960784912109375
 20
5.2825193405151367
 30
0.0
 11
8.4960784912109375
 21
5.2825193405151367
 31
0.0
  0
LINE
  5
381
100
AcDbEntity
  8
0
  6
CONTINUOUS
 62
               4
100
AcDbLine
 10
8.5450622853481946
 20
6.8499967509747535
 30
0.0
 11
7.6400787648403821
 21
5.2825193415761191
 31
0.0
  0
LINE
  5
382
100
AcDbEntity
  8
0
  6
CONTINUOUS
 62
               4
100
AcDbLine
 10
-8.5450622853481946
 20
6.8499967509747535
 30
0.0
 11
-7.6400787648403821
 21
5.2825193415761191
 31
0.0
  0
LINE
  5
383
100
AcDbEntity
  8
0
  6
CENTER
 62
               4
100
AcDbLine
 10
-5.9999965556432926
 20
46.85000394924009
 30
0.0
 11
-5.7000026856346722
 21
47.14999779396112
 31
0.0
  0
LINE
  5
384
100
AcDbEntity
  8
0
  6
CENTER
 62
               4
100
AcDbLine
 10
-5.6999969482421875
 20
47.150001525878906
 30
0.0
 11
5.6999969482421875
 21
47.150001525878906
 31
0.0
  0
LINE
  5
385
100
AcDbEntity
  8
0
  6
CENTER
 62
               4
100
AcDbLine
 10
6.0
 20
46.849998474121094
 30
0.0
 11
6.0
 21
42.450004577636719
 31
0.0
  0
LINE
  5
386
100
AcDbEntity
  8
0
  6
CENTER
 62
               4
100
AcDbLine
 10
5.9999992530420059
 20
46.849995857045087
 30
0.0
 11
5.6999999882364136
 21
47.149995096562634
 31
0.0
  0
LINE
  5
387
100
AcDbEntity
  8
0
  6
CONTINUOUS
 62
               4
100
AcDbLine
 10
3.3235015869140625
 20
34.950000762939453
 30
0.0
 11
3.3235015869140625
 21
34.150001525878906
 31
0.0
  0
LINE
  5
388
100
AcDbEntity
  8
0
  6
CONTINUOUS
 62
               7
100
AcDbLine
 10
3.8000029550807994
 20
34.949997720538477
 30
0.0
 11
4.0000015489597445
 21
34.749999126659532
 31
0.0
  0
LINE
  5
389
100
AcDbEntity
  8
0
  6
CONTINUOUS
 62
               4
100
AcDbLine
 10
-3.3235015869140625
 20
34.950000762939453
 30
0.0
 11
-3.3235015869140625
 21
34.150001525878906
 31
0.0
  0
LINE
  5
38A
100
AcDbEntity
  8
0
  6
CONTINUOUS
 62
               7
100
AcDbLine
 10
-5.6999969482421875
 20
34.950000762939453
 30
0.0
 11
5.6999969482421875
 21
34.950000762939453
 31
0.0
  0
LINE
  5
38B
100
AcDbEntity
  8
0
  6
CONTINUOUS
 62
               7
100
AcDbLine
 10
-4.0000015489597445
 20
34.749999126659532
 30
0.0
 11
-3.8000029550807994
 21
34.949997720538477
 31
0.0
  0
LINE
  5
38C
100
AcDbEntity
  8
0
  6
CONTINUOUS
 62
               7
100
AcDbLine
 10
-4.0
 20
34.750003814697266
 30
0.0
 11
4.0
 21
34.750003814697266
 31
0.0
  0
LINE
  5
38D
100
AcDbEntity
  8
0
  6
CONTINUOUS
 62
               7
100
AcDbLine
 10
-4.0
 20
34.750003814697266
 30
0.0
 11
-4.0
 21
34.150001525878906
 31
0.0
  0
LINE
  5
38E
100
AcDbEntity
  8
0
  6
CONTINUOUS
 62
               7
100
AcDbLine
 10
4.0
 20
34.750003814697266
 30
0.0
 11
4.0
 21
34.150001525878906
 31
0.0
  0
LINE
  5
38F
100
AcDbEntity
  8
0
  6
CENTER
 62
               4
100
AcDbLine
 10
-6.0
 20
46.849998474121094
 30
0.0
 11
-6.0
 21
42.450004577636719
 31
0.0
  0
LINE
  5
390
100
AcDbEntity
  8
0
  6
CONTINUOUS
 62
               7
100
AcDbLine
 10
-5.6999969482421875
 20
39.950000762939453
 30
0.0
 11
5.6999969482421875
 21
39.950000762939453
 31
0.0
  0
LINE
  5
391
100
AcDbEntity
  8
0
  6
CONTINUOUS
 62
               7
100
AcDbLine
 10
6.0
 20
39.649997711181641
 30
0.0
 11
6.0
 21
35.250003814697266
 31
0.0
  0
LINE
  5
392
100
AcDbEntity
  8
0
  6
CONTINUOUS
 62
               7
100
AcDbLine
 10
5.9999968591009747
 20
39.649994923378699
 30
0.0
 11
5.6999975942953824
 21
39.949994162896246
 31
0.0
  0
LINE
  5
393
100
AcDbEntity
  8
0
  6
CONTINUOUS
 62
               7
100
AcDbLine
 10
-5.699993758931555
 20
34.950006177303521
 30
0.0
 11
-5.9999956958473604
 21
35.250008139507599
 31
0.0
  0
LINE
  5
394
100
AcDbEntity
  8
0
  6
CONTINUOUS
 62
               7
100
AcDbLine
 10
-6.0
 20
39.649997711181641
 30
0.0
 11
6.0
 21
39.649997711181641
 31
0.0
  0
LINE
  5
395
100
AcDbEntity
  8
0
  6
CONTINUOUS
 62
               7
100
AcDbLine
 10
6.0
 20
35.250003814697266
 30
0.0
 11
-6.0
 21
35.250003814697266
 31
0.0
  0
LINE
  5
396
100
AcDbEntity
  8
0
  6
CONTINUOUS
 62
               7
100
AcDbLine
 10
-5.9999941617022614
 20
39.650003015573702
 30
0.0
 11
-5.700000291693641
 21
39.949996860294732
 31
0.0
  0
LINE
  5
397
100
AcDbEntity
  8
0
  6
CONTINUOUS
 62
               7
100
AcDbLine
 10
5.7000018511270127
 20
34.949998085108746
 30
0.0
 11
6.0000010906445596
 21
35.249997349914338
 31
0.0
  0
LINE
  5
398
100
AcDbEntity
  8
0
  6
CONTINUOUS
 62
               7
100
AcDbLine
 10
-6.0
 20
39.649997711181641
 30
0.0
 11
-6.0
 21
35.250003814697266
 31
0.0
  0
LINE
  5
399
100
AcDbEntity
  8
0
  6
CENTER
 62
               4
100
AcDbLine
 10
0.0
 20
49.120002746582031
 30
0.0
 11
0.0
 21
-8.3500003814697266
 31
0.0
  0
LINE
  5
39A
100
AcDbEntity
  8
0
  6
CONTINUOUS
 62
               7
100
AcDbLine
 10
-7.9999993068105368
 20
33.950001124407549
 30
0.0
 11
-7.8000033934714565
 21
34.149997020888236
 31
0.0
  0
LINE
  5
39B
100
AcDbEntity
  8
0
  6
CONTINUOUS
 62
               7
100
AcDbLine
 10
-8.0000006892270221
 20
30.849997837694673
 30
0.0
 11
-7.8000047758879418
 21
30.650001941213986
 31
0.0
  0
LINE
  5
39C
100
AcDbEntity
  8
0
  6
CONTINUOUS
 62
               7
100
AcDbLine
 10
7.9999966431295206
 20
30.849999186394029
 30
0.0
 11
7.8000007297904403
 21
30.650003289913343
 31
0.0
  0
LINE
  5
39D
100
AcDbEntity
  8
0
  6
CONTINUOUS
 62
               7
100
AcDbLine
 10
7.4999948690027622
 20
30.150002034192539
 30
0.0
 11
6.9999942960611179
 21
30.65000256498729
 31
0.0
  0
LINE
  5
39E
100
AcDbEntity
  8
0
  6
CONTINUOUS
 62
               7
100
AcDbLine
 10
-7.5000097046942074
 20
30.149992593298862
 30
0.0
 11
-7.000009131752563
 21
30.649993124093612
 31
0.0
  0
LINE
  5
39F
100
AcDbEntity
  8
0
  6
CONTINUOUS
 62
               7
100
AcDbLine
 10
-7.5
 20
30.149999618530273
 30
0.0
 11
-7.5
 21
28.350000381469727
 31
0.0
  0
LINE
  5
3A0
100
AcDbEntity
  8
0
  6
CONTINUOUS
 62
               7
100
AcDbLine
 10
7.5
 20
30.149999618530273
 30
0.0
 11
7.5
 21
28.350000381469727
 31
0.0
  0
LINE
  5
3A1
100
AcDbEntity
  8
0
  6
CONTINUOUS
 62
               7
100
AcDbLine
 10
-9.5
 20
23.350000381469727
 30
0.0
 11
-9.5
 21
23.149999618530273
 31
0.0
  0
LINE
  5
3A2
100
AcDbEntity
  8
0
  6
CONTINUOUS
 62
               7
100
AcDbLine
 10
9.5
 20
23.350000381469727
 30
0.0
 11
9.5
 21
23.149999618530273
 31
0.0
  0
LINE
  5
3A3
100
AcDbEntity
  8
0
  6
CONTINUOUS
 62
               7
100
AcDbLine
 10
-7.149993896484375
 20
-6.3499999046325684
 30
0.0
 11
7.149993896484375
 21
-6.3499999046325684
 31
0.0
  0
LINE
  5
3A4
100
AcDbEntity
  8
0
  6
CONTINUOUS
 62
               7
100
AcDbLine
 10
-7.5
 20
30.149999618530273
 30
0.0
 11
7.5
 21
30.149999618530273
 31
0.0
  0
LINE
  5
3A5
100
AcDbEntity
  8
0
  6
CONTINUOUS
 62
               7
100
AcDbLine
 10
-8.0
 20
33.950004577636719
 30
0.0
 11
-8.0
 21
30.849996566772461
 31
0.0
  0
LINE
  5
3A6
100
AcDbEntity
  8
0
  6
CONTINUOUS
 62
               7
100
AcDbLine
 10
-7.8000030517578125
 20
34.150001525878906
 30
0.0
 11
7.8000030517578125
 21
34.150001525878906
 31
0.0
  0
LINE
  5
3A7
100
AcDbEntity
  8
0
  6
CONTINUOUS
 62
               7
100
AcDbLine
 10
-7.8000030517578125
 20
30.649999618530273
 30
0.0
 11
7.8000030517578125
 21
30.649999618530273
 31
0.0
  0
LINE
  5
3A8
100
AcDbEntity
  8
0
  6
CONTINUOUS
 62
               7
100
AcDbLine
 10
8.0
 20
33.950004577636719
 30
0.0
 11
8.0
 21
30.849996566772461
 31
0.0
  0
LINE
  5
3A9
100
AcDbEntity
  8
0
  6
CONTINUOUS
 62
               7
100
AcDbLine
 10
7.9999999999999725
 20
30.849996566772468
 30
0.0
 11
-8.0000000000000266
 21
30.849996566772454
 31
0.0
  0
LINE
  5
3AA
100
AcDbEntity
  8
0
  6
CONTINUOUS
 62
               7
100
AcDbLine
 10
7.9999952607130353
 20
33.949999775708193
 30
0.0
 11
7.7999993473739551
 21
34.149995672188879
 31
0.0
  0
LINE
  5
3AB
100
AcDbEntity
  8
0
  6
CONTINUOUS
 62
               7
100
AcDbLine
 10
-8.0
 20
33.950004577636719
 30
0.0
 11
8.0
 21
33.950004577636719
 31
0.0
  0
LINE
  5
3AC
100
AcDbEntity
  8
0
  6
CONTINUOUS
 62
               7
100
AcDbLine
 10
3.824920654296875
 20
9.0499992370605469
 30
0.0
 11
11.0
 21
9.0499992370605469
 31
0.0
  0
LINE
  5
3AD
100
AcDbEntity
  8
0
  6
CONTINUOUS
 62
               7
100
AcDbLine
 10
10.999986736637311
 20
21.749999343761885
 30
0.0
 11
10.191698162418561
 21
23.1499961963587
 31
0.0
  0
LINE
  5
3AE
100
AcDbEntity
  8
0
  6
CONTINUOUS
 62
               7
100
AcDbLine
 10
11.0
 20
21.749998092651367
 30
0.0
 11
11.0
 21
9.0499992370605469
 31
0.0
  0
LINE
  5
3AF
100
AcDbEntity
  8
0
  6
CONTINUOUS
 62
               7
100
AcDbLine
 10
-11.0
 20
21.749998092651367
 30
0.0
 11
-11.0
 21
9.0499992370605469
 31
0.0
  0
LINE
  5
3B0
100
AcDbEntity
  8
0
  6
CONTINUOUS
 62
               7
100
AcDbLine
 10
-10.19171142578125
 20
7.6499991416931152
 30
0.0
 11
10.19171142578125
 21
7.6499991416931152
 31
0.0
  0
LINE
  5
3B1
100
AcDbEntity
  8
0
  6
CONTINUOUS
 62
               7
100
AcDbLine
 10
-11.0
 20
9.0499992370605469
 30
0.0
 11
-3.824920654296875
 21
9.0499992370605469
 31
0.0
  0
LINE
  5
3B2
100
AcDbEntity
  8
0
  6
CONTINUOUS
 62
               7
100
AcDbLine
 10
-10.19171142578125
 20
23.149999618530273
 30
0.0
 11
10.19171142578125
 21
23.149999618530273
 31
0.0
  0
LINE
  5
3B3
100
AcDbEntity
  8
0
  6
CONTINUOUS
 62
               7
100
AcDbLine
 10
-11.0
 20
21.749998092651367
 30
0.0
 11
-2.87750244140625
 21
21.749998092651367
 31
0.0
  0
LINE
  5
3B4
100
AcDbEntity
  8
0
  6
CONTINUOUS
 62
               7
100
AcDbLine
 10
10.999997258779331
 20
9.0499905860945091
 30
0.0
 11
10.191708684560581
 21
7.6499937334976948
 31
0.0
  0
LINE
  5
3B5
100
AcDbEntity
  8
0
  6
CONTINUOUS
 62
               7
100
AcDbLine
 10
2.61724853515625
 20
21.749998092651367
 30
0.0
 11
11.0
 21
21.749998092651367
 31
0.0
  0
LINE
  5
3B6
100
AcDbEntity
  8
0
  6
CONTINUOUS
 62
               7
100
AcDbLine
 10
-11.000010763049772
 20
9.0499949026907984
 30
0.0
 11
-10.191722188831022
 21
7.6499980500939841
 31
0.0
  0
LINE
  5
3B7
100
AcDbEntity
  8
0
  6
CONTINUOUS
 62
               7
100
AcDbLine
 10
-11.000004055605018
 20
21.749988419916235
 30
0.0
 11
-10.191711666689002
 21
23.14999187976241
 31
0.0
  0
LINE
  5
3B8
100
AcDbEntity
  8
0
  6
CENTER
 62
               4
100
AcDbLine
 10
9.6399993896484375
 20
15.149999618530273
 30
0.0
 11
-9.6399993896484375
 21
15.149999618530273
 31
0.0
  0
ENDBLK
  5
3B9
100
AcDbEntity
  8
0
100
AcDbBlockEnd
  0
ENDSEC
  0
SECTION
  2
ENTITIES
  0
MTEXT
  5
3BA
100
AcDbEntity
  8
0
  6
CONTINUOUS
 62
               7
100
AcDbMText
 10
117.32516466302543
 20
-14.331243219401387
 30
0.0
 40
3.2000000476837158
 41
0.0
 71
               1
 72
               1
  1
\W0.931;\A1;R1/2
  7
MX_NOTE_STANDARD
  0
MTEXT
  5
3BB
100
AcDbEntity
  8
0
  6
CONTINUOUS
 62
               7
100
AcDbMText
 10
-73.341507089904255
 20
-14.331243219401387
 30
0.0
 40
3.2000000476837158
 41
0.0
 71
               1
 72
               1
  1
\W0.931;\A1;R1/2
  7
MX_NOTE_STANDARD
  0
MTEXT
  5
3BC
100
AcDbEntity
  8
0
  6
CONTINUOUS
 62
               7
100
AcDbMText
 10
182.44848593956183
 20
-170.5
 30
0.0
 40
3.2000000476837158
 41
0.0
 71
               4
 72
               1
  1
\W1.091;\A1;SC10-04*
  7
MX_NOTE_STANDARD
  0
MTEXT
  5
3BD
100
AcDbEntity
  8
0
  6
CONTINUOUS
 62
               7
100
AcDbMText
 10
-0.6536586937487373
 20
-170.5
 30
0.0
 40
3.2000000476837158
 41
0.0
 71
               4
 72
               1
  1
\W1.024;\A1;SC8-04*
  7
MX_NOTE_STANDARD
  0
INSERT
  5
3BE
100
AcDbEntity
  8
0
100
AcDbBlockReference
  2
MS_6
 10
228.06832432432441
 20
-16.75
 30
0.0
  0
INSERT
  5
3BF
100
AcDbEntity
  8
0
100
AcDbBlockReference
  2
MS_5
 10
148.13261261261266
 20
78.25
 30
0.0
  0
INSERT
  5
3C0
100
AcDbEntity
  8
0
100
AcDbBlockReference
  2
MS_4
 10
148.13261261261266
 20
-16.75
 30
0.0
  0
INSERT
  5
3C1
100
AcDbEntity
  8
0
100
AcDbBlockReference
  2
MS_3
 10
40.247351351351369
 20
-16.75
 30
0.0
  0
INSERT
  5
3C2
100
AcDbEntity
  8
0
100
AcDbBlockReference
  2
MS_2
 10
-44.160288288288257
 20
78.25
 30
0.0
  0
INSERT
  5
3C3
100
AcDbEntity
  8
0
100
AcDbBlockReference
  2
MS_1
 10
-44.160288288288257
 20
-16.75
 30
0.0
  0
MTEXT
  5
3C4
100
AcDbEntity
  8
0
  6
CONTINUOUS
 62
               7
100
AcDbMText
 10
234.95769876622512
 20
-186.06000986099244
 30
0.0
 40
3.1999998092651367
 41
0.0
 71
               1
 72
               1
  1
\W1.121;\A1;KOGANEI CORP.
  7
MX_NOTE_STANDARD
  0
MTEXT
  5
3C5
100
AcDbEntity
  8
0
  6
CONTINUOUS
 62
               7
100
AcDbMText
 10
187.13333368301392
 20
-179.5
 30
0.0
 40
3.1999998092651367
 41
0.0
 71
               4
 72
               1
  1
\A1;SC-2
  7
MX_NOTE_STANDARD
  0
MTEXT
  5
3C6
100
AcDbEntity
  8
0
  6
CONTINUOUS
 62
               7
100
AcDbMText
 10
236.89945427316135
 20
-179.5
 30
0.0
 40
3.1999998092651367
 41
0.0
 71
               4
 72
               1
  1
\W1.311;\A1;Rev. 2.0
  7
MX_NOTE_STANDARD
  0
MTEXT
  5
3C7
100
AcDbEntity
  8
0
  6
CONTINUOUS
 62
               7
100
AcDbMText
 10
43.373646903267975
 20
-179.5
 30
0.0
 40
3.1999998092651367
 41
0.0
 71
               4
 72
               1
  1
\W1.076;\A1;SPEED CONTROLLERS WITH QUICK FITTINGS
  7
MX_NOTE_STANDARD
  0
LINE
  5
3C8
100
AcDbEntity
  8
0
  6
CONTINUOUS
 62
               7
100
AcDbLine
 10
39.0
 20
-175.5
 30
0.0
 11
39.0
 21
-183.5
 31
0.0
  0
LINE
  5
3C9
100
AcDbEntity
  8
0
  6
CONTINUOUS
 62
               7
100
AcDbLine
 10
165.0
 20
-175.5
 30
0.0
 11
165.0
 21
-183.5
 31
0.0
  0
LINE
  5
3CA
100
AcDbEntity
  8
0
  6
CONTINUOUS
 62
               7
100
AcDbLine
 10
221.0
 20
-175.5
 30
0.0
 11
221.0
 21
-191.5
 31
0.0
  0
LINE
  5
3CB
100
AcDbEntity
  8
0
  6
CONTINUOUS
 62
               7
100
AcDbLine
 10
39.0
 20
-183.5
 30
0.0
 11
277.0
 21
-183.5
 31
0.0
  0
INSERT
  5
3CC
100
AcDbEntity
  8
0
100
AcDbBlockReference
  2
MS_9
 10
-139.33332061767578
 20
-16.75
 30
0.0
  0
INSERT
  5
3CD
100
AcDbEntity
  8
0
100
AcDbBlockReference
  2
MS_8
 10
-219.33333587646484
 20
78.25
 30
0.0
  0
INSERT
  5
3CE
100
AcDbEntity
  8
0
100
AcDbBlockReference
  2
MS_7
 10
-219.33332061767578
 20
-16.75
 30
0.0
  0
MTEXT
  5
3CF
100
AcDbEntity
  8
0
  6
CONTINUOUS
 62
               7
100
AcDbMText
 10
-247.04954681167945
 20
-14.331243219401387
 30
0.0
 40
3.2000000476837158
 41
0.0
 71
               1
 72
               1
  1
\W0.853;\A1;R3/8
  7
MX_NOTE_STANDARD
  0
MTEXT
  5
3D0
100
AcDbEntity
  8
0
  6
CONTINUOUS
 62
               7
100
AcDbMText
 10
-174.66667175292969
 20
-168.89999997615814
 30
0.0
 40
3.2000000476837158
 41
0.0
 71
               2
 72
               1
  1
\W0.874;\A1;SC6-03*
  7
MX_NOTE_STANDARD
  0
MTEXT
  5
3D1
100
AcDbEntity
  8
0
  6
CONTINUOUS
 62
               7
100
AcDbMText
 10
102.33333587646484
 20
-170.5
 30
0.0
 40
3.2000000476837158
 41
0.0
 71
               5
 72
               1
  1
\W0.853;\A1;MODEL
  7
MX_NOTE_STANDARD
  0
MTEXT
  5
3D2
100
AcDbEntity
  8
0
  6
CONTINUOUS
 62
               7
100
AcDbMText
 10
-82.333335876464844
 20
-170.5
 30
0.0
 40
3.2000000476837158
 41
0.0
 71
               5
 72
               1
  1
\W0.853;\A1;MODEL
  7
MX_NOTE_STANDARD
  0
MTEXT
  5
3D3
100
AcDbEntity
  8
0
  6
CONTINUOUS
 62
               7
100
AcDbMText
 10
-267.0
 20
-170.5
 30
0.0
 40
3.2000000476837158
 41
0.0
 71
               5
 72
               1
  1
\W0.853;\A1;MODEL
  7
MX_NOTE_STANDARD
  0
LINE
  5
3D4
100
AcDbEntity
  8
0
  6
CONTINUOUS
 62
               7
100
AcDbLine
 10
112.33333587646484
 20
-166.5
 30
0.0
 11
112.33333587646484
 21
-174.5
 31
0.0
  0
LINE
  5
3D5
100
AcDbEntity
  8
0
  6
CONTINUOUS
 62
               7
100
AcDbLine
 10
-72.333335876464844
 20
-166.5
 30
0.0
 11
-72.333335876464844
 21
-174.5
 31
0.0
  0
LINE
  5
3D6
100
AcDbEntity
  8
0
  6
CONTINUOUS
 62
               7
100
AcDbLine
 10
-277.0
 20
-166.5
 30
0.0
 11
277.0
 21
-166.5
 31
0.0
  0
LINE
  5
3D7
100
AcDbEntity
  8
0
  6
CONTINUOUS
 62
               7
100
AcDbLine
 10
-257.0
 20
-166.5
 30
0.0
 11
-257.0
 21
-174.5
 31
0.0
  0
LINE
  5
3D8
100
AcDbEntity
  8
0
  6
CONTINUOUS
 62
               7
100
AcDbLine
 10
92.333335876464844
 20
191.5
 30
0.0
 11
92.333335876464844
 21
-174.5
 31
0.0
  0
LINE
  5
3D9
100
AcDbEntity
  8
0
  6
CONTINUOUS
 62
               7
100
AcDbLine
 10
-92.333335876464844
 20
191.5
 30
0.0
 11
-92.333335876464844
 21
-174.5
 31
0.0
  0
LINE
  5
3DA
100
AcDbEntity
  8
0
  6
CONTINUOUS
 62
               7
100
AcDbLine
 10
-277.0
 20
-175.5
 30
0.0
 11
277.0
 21
-175.5
 31
0.0
  0
LINE
  5
3DB
100
AcDbEntity
  8
0
  6
CONTINUOUS
 62
               7
100
AcDbLine
 10
-277.0
 20
-174.5
 30
0.0
 11
277.0
 21
-174.5
 31
0.0
  0
LINE
  5
3DC
100
AcDbEntity
  8
0
  6
CONTINUOUS
 62
               7
100
AcDbLine
 10
-277.0
 20
191.5
 30
0.0
 11
-277.0
 21
-191.5
 31
0.0
  0
LINE
  5
3DD
100
AcDbEntity
  8
0
  6
CONTINUOUS
 62
               7
100
AcDbLine
 10
277.0
 20
191.5
 30
0.0
 11
277.0
 21
-191.5
 31
0.0
  0
LINE
  5
3DE
100
AcDbEntity
  8
0
  6
CONTINUOUS
 62
               7
100
AcDbLine
 10
-277.0
 20
191.5
 30
0.0
 11
277.0
 21
191.5
 31
0.0
  0
LINE
  5
3DF
100
AcDbEntity
  8
0
  6
CONTINUOUS
 62
               7
100
AcDbLine
 10
-277.0
 20
-191.5
 30
0.0
 11
277.0
 21
-191.5
 31
0.0
  0
ENDSEC
  0
SECTION
  2
OBJECTS
  0
DICTIONARY
  5
19
100
AcDbDictionary
  3
ACAD_GROUP
350
1A
  3
ACAD_MLINESTYLE
350
1B
  0
DICTIONARY
  5
1A
102
{ACAD_REACTORS
330
19
102
}
100
AcDbDictionary
  0
DICTIONARY
  5
1B
102
{ACAD_REACTORS
330
19
102
}
100
AcDbDictionary
  3
STANDARD
350
1C
  0
MLINESTYLE
  5
1C
102
{ACAD_REACTORS
330
1B
102
}
100
AcDbMlineStyle
  2
Standard
 70
               0
  3

 62
               0
 51
90.0
 52
90.0
 71
               2
 49
0.5
 62
             256
  6
ByLayer
 49
-0.5
 62
             256
  6
ByLayer
  0
ENDSEC
  0
EOF
