  0
SECTION
  2
HEADER
  9
$ACADVER
  1
AC1002
  9
$INSBASE
 10
0.0
 20
0.0
  9
$EXTMIN
 10
-370.8736
 20
-254.5585
  9
$EXTMAX
 10
370.8736
 20
254.5585
  9
$LIMMIN
 10
0.0
 20
0.0
  9
$LIMMAX
 10
12.0
 20
9.0
  9
$VIEWCTR
 10
28.6093211
 20
0.0
  9
$VIEWSIZE
 40
509.117
  9
$SNAPMODE
 70
     0
  9
$SNAPUNIT
 10
1.0
 20
1.0
  9
$SNAPBASE
 10
0.0
 20
0.0
  9
$SNAPANG
 50
0.0
  9
$SNAPSTYLE
 70
     0
  9
$SNAPISOPAIR
 70
     0
  9
$GRIDMODE
 70
     0
  9
$GRIDUNIT
 10
0.0
 20
0.0
  9
$ORTHOMODE
 70
     0
  9
$REGENMODE
 70
     1
  9
$FILLMODE
 70
     1
  9
$QTEXTMODE
 70
     0
  9
$DRAGMODE
 70
     2
  9
$LTSCALE
 40
1.0
  9
$OSMODE
 70
     0
  9
$ATTMODE
 70
     1
  9
$TEXTSIZE
 40
0.2
  9
$TRACEWID
 40
0.05
  9
$TEXTSTYLE
  7
AAA
  9
$CLAYER
  8
0
  9
$CELTYPE
  6
BYLAYER
  9
$CECOLOR
 62
   256
  9
$DIMSCALE
 40
1.0
  9
$DIMASZ
 40
0.18
  9
$DIMEXO
 40
0.0625
  9
$DIMDLI
 40
0.38
  9
$DIMRND
 40
0.0
  9
$DIMDLE
 40
0.0
  9
$DIMEXE
 40
0.18
  9
$DIMTP
 40
0.0
  9
$DIMTM
 40
0.0
  9
$DIMTXT
 40
0.18
  9
$DIMCEN
 40
0.09
  9
$DIMTSZ
 40
0.0
  9
$DIMTOL
 70
     0
  9
$DIMLIM
 70
     0
  9
$DIMTIH
 70
     1
  9
$DIMTOH
 70
     1
  9
$DIMSE1
 70
     0
  9
$DIMSE2
 70
     0
  9
$DIMTAD
 70
     0
  9
$DIMZIN
 70
     0
  9
$DIMBLK
  1

  9
$LUNITS
 70
     2
  9
$LUPREC
 70
     4
  9
$AXISMODE
 70
     0
  9
$AXISUNIT
 10
0.0
 20
0.0
  9
$SKETCHINC
 40
0.1
  9
$FILLETRAD
 40
0.0
  9
$AUNITS
 70
     0
  9
$AUPREC
 70
     0
  9
$MENU
  1
ACAD
  9
$ELEVATION
 40
0.0
  9
$THICKNESS
 40
0.0
  9
$VIEWDIR
 10
0.0
 20
0.0
 30
1.0
  9
$LIMCHECK
 70
     0
  9
$BLIPMODE
 70
     1
  9
$CHAMFERA
 40
0.0
  9
$CHAMFERB
 40
0.0
  9
$FASTZOOM
 70
     1
  9
$SKPOLY
 70
     0
  9
$TDCREATE
 40
2447820.6402894016
  9
$TDUPDATE
 40
2447820.6402894016
  9
$TDINDWG
 40
0.0028935185
  9
$TDUSRTIMER
 40
0.0028935185
  9
$USRTIMER
 70
     1
  9
$ANGBASE
 50
0.0
  9
$ANGDIR
 70
     0
  9
$PDMODE
 70
     0
  9
$PDSIZE
 40
0.0
  9
$PLINEWID
 40
0.0
  9
$COORDS
 70
     0
  9
$USERI1
 70
     0
  9
$USERI2
 70
     0
  9
$USERI3
 70
     0
  9
$USERI4
 70
     0
  9
$USERI5
 70
     0
  9
$USERR1
 40
0.0
  9
$USERR2
 40
0.0
  9
$USERR3
 40
0.0
  9
$USERR4
 40
0.0
  9
$USERR5
 40
0.0
  0
ENDSEC
  0
SECTION
  2
TABLES
  0
TABLE
  2
LTYPE
 70
     2
  0
LTYPE
  2
CONTINUOUS
 70
    64
  3
SOLID
 72
    65
 73
     0
 40
0.0
  0
LTYPE
  2
CENTER
 70
    64
  3
CENTER
 72
    65
 73
     4
 40
2.0
 49
1.25
 49
-0.25
 49
0.25
 49
-0.25
  0
ENDTAB
  0
TABLE
  2
LAYER
 70
     1
  0
LAYER
  2
0
 70
    64
 62
     7
  6
CONTINUOUS
  0
ENDTAB
  0
TABLE
  2
STYLE
 70
     2
  0
STYLE
  2
AAA
 70
     0
 40
0.0
 41
1.0
 50
0.0
 71
     0
 42
0.2
  3
TXT
  4

  0
STYLE
  2
STANDARD
 70
    64
 40
0.0
 41
1.0
 50
0.0
 71
     0
 42
0.2
  3
TXT
  4
BIGFONT
  0
ENDTAB
  0
TABLE
  2
VIEW
 70
     0
  0
ENDTAB
  0
ENDSEC
  0
SECTION
  2
BLOCKS
  0
ENDSEC
  0
SECTION
  2
ENTITIES
  0
POINT
  8
0
  6
CONTINUOUS
 62
     7
 10
-89.95
 20
-3.0
  0
POINT
  8
0
  6
CONTINUOUS
 62
     7
 10
-278.1552
 20
116.7057
  0
POINT
  8
0
  6
CONTINUOUS
 62
     7
 10
-228.1552
 20
116.7057
  0
POINT
  8
0
  6
CONTINUOUS
 62
     7
 10
-328.1552
 20
116.7057
  0
POINT
  8
0
  6
CONTINUOUS
 62
     7
 10
-278.1552
 20
187.2057
  0
POINT
  8
0
  6
CONTINUOUS
 62
     7
 10
-278.1552
 20
-43.0
  0
POINT
  8
0
  6
CONTINUOUS
 62
     7
 10
-328.1552
 20
-43.0
  0
POINT
  8
0
  6
CONTINUOUS
 62
     7
 10
-228.1552
 20
-43.0
  0
POINT
  8
0
  6
CONTINUOUS
 62
     7
 10
-278.1552
 20
27.0
  0
POINT
  8
0
  6
CONTINUOUS
 62
     7
 10
-278.1552
 20
-202.7057
  0
POINT
  8
0
  6
CONTINUOUS
 62
     7
 10
-228.1552
 20
-202.7057
  0
POINT
  8
0
  6
CONTINUOUS
 62
     7
 10
-328.1552
 20
-202.7057
  0
POINT
  8
0
  6
CONTINUOUS
 62
     7
 10
-278.1552
 20
-127.2057
  0
POINT
  8
0
  6
CONTINUOUS
 62
     7
 10
-142.7184
 20
116.7057
  0
POINT
  8
0
  6
CONTINUOUS
 62
     7
 10
-42.7184
 20
116.7057
  0
POINT
  8
0
  6
CONTINUOUS
 62
     7
 10
-92.7184
 20
186.7057
  0
POINT
  8
0
  6
CONTINUOUS
 62
     7
 10
-42.7184
 20
-43.0
  0
POINT
  8
0
  6
CONTINUOUS
 62
     7
 10
-92.7184
 20
27.0
  0
POINT
  8
0
  6
CONTINUOUS
 62
     7
 10
-42.7184
 20
-43.0
  0
POINT
  8
0
  6
CONTINUOUS
 62
     7
 10
-42.7184
 20
-43.0
  0
POINT
  8
0
  6
CONTINUOUS
 62
     7
 10
-92.7184
 20
-43.0
  0
POINT
  8
0
  6
CONTINUOUS
 62
     7
 10
-142.7184
 20
-43.0
  0
POINT
  8
0
  6
CONTINUOUS
 62
     7
 10
-142.7184
 20
-43.0
  0
POINT
  8
0
  6
CONTINUOUS
 62
     7
 10
-92.7184
 20
-202.7057
  0
POINT
  8
0
  6
CONTINUOUS
 62
     7
 10
-142.7184
 20
-202.7057
  0
POINT
  8
0
  6
CONTINUOUS
 62
     7
 10
-92.7184
 20
-127.7057
  0
POINT
  8
0
  6
CONTINUOUS
 62
     7
 10
152.7184
 20
116.7057
  0
POINT
  8
0
  6
CONTINUOUS
 62
     7
 10
92.71838
 20
186.7057
  0
POINT
  8
0
  6
CONTINUOUS
 62
     7
 10
152.7184
 20
116.7057
  0
POINT
  8
0
  6
CONTINUOUS
 62
     7
 10
152.7184
 20
116.7057
  0
POINT
  8
0
  6
CONTINUOUS
 62
     7
 10
92.71838
 20
116.7057
  0
POINT
  8
0
  6
CONTINUOUS
 62
     7
 10
42.71838
 20
116.7057
  0
POINT
  8
0
  6
CONTINUOUS
 62
     7
 10
42.71838
 20
116.7057
  0
POINT
  8
0
  6
CONTINUOUS
 62
     7
 10
92.71838
 20
-43.0
  0
POINT
  8
0
  6
CONTINUOUS
 62
     7
 10
92.71838
 20
27.0
  0
POINT
  8
0
  6
CONTINUOUS
 62
     7
 10
152.7184
 20
-43.0
  0
POINT
  8
0
  6
CONTINUOUS
 62
     7
 10
42.71838
 20
-43.0
  0
POINT
  8
0
  6
CONTINUOUS
 62
     7
 10
92.71838
 20
-127.7057
  0
POINT
  8
0
  6
CONTINUOUS
 62
     7
 10
42.71838
 20
-202.7057
  0
POINT
  8
0
  6
CONTINUOUS
 62
     7
 10
273.1552
 20
116.7057
  0
POINT
  8
0
  6
CONTINUOUS
 62
     7
 10
343.1552
 20
116.7057
  0
POINT
  8
0
  6
CONTINUOUS
 62
     7
 10
223.1552
 20
116.7057
  0
POINT
  8
0
  6
CONTINUOUS
 62
     7
 10
273.1552
 20
186.7057
  0
POINT
  8
0
  6
CONTINUOUS
 62
     7
 10
273.1552
 20
-43.0
  0
POINT
  8
0
  6
CONTINUOUS
 62
     7
 10
273.1552
 20
-197.7057
  0
POINT
  8
0
  6
CONTINUOUS
 62
     7
 10
-274.2552
 20
116.7057
  0
POINT
  8
0
  6
CONTINUOUS
 62
     7
 10
-224.2552
 20
116.7057
  0
POINT
  8
0
  6
CONTINUOUS
 62
     7
 10
-324.2552
 20
116.7057
  0
POINT
  8
0
  6
CONTINUOUS
 62
     7
 10
-274.2552
 20
-202.7057
  0
POINT
  8
0
  6
CONTINUOUS
 62
     7
 10
-224.2552
 20
-202.7057
  0
POINT
  8
0
  6
CONTINUOUS
 62
     7
 10
-324.2552
 20
-202.7057
  0
POINT
  8
0
  6
CONTINUOUS
 62
     7
 10
-262.6552
 20
187.2057
  0
POINT
  8
0
  6
CONTINUOUS
 62
     7
 10
-260.1552
 20
27.0
  0
POINT
  8
0
  6
CONTINUOUS
 62
     7
 10
-259.7052
 20
-127.2057
  0
POINT
  8
0
  6
CONTINUOUS
 62
     7
 10
-72.2684
 20
186.7057
  0
POINT
  8
0
  6
CONTINUOUS
 62
     7
 10
-92.7184
 20
116.7057
  0
POINT
  8
0
  6
CONTINUOUS
 62
     7
 10
-69.2684
 20
27.0
  0
POINT
  8
0
  6
CONTINUOUS
 62
     7
 10
-137.8544
 20
-202.7057
  0
POINT
  8
0
  6
CONTINUOUS
 62
     7
 10
-87.8544
 20
-202.7057
  0
POINT
  8
0
  6
CONTINUOUS
 62
     7
 10
49.29688
 20
116.7057
  0
POINT
  8
0
  6
CONTINUOUS
 62
     7
 10
99.29688
 20
116.7057
  0
POINT
  8
0
  6
CONTINUOUS
 62
     7
 10
159.2969
 20
116.7057
  0
POINT
  8
0
  6
CONTINUOUS
 62
     7
 10
-42.7184
 20
-202.7057
  0
POINT
  8
0
  6
CONTINUOUS
 62
     7
 10
-37.8544
 20
-202.7057
  0
POINT
  8
0
  6
CONTINUOUS
 62
     7
 10
118.1684
 20
186.7057
  0
POINT
  8
0
  6
CONTINUOUS
 62
     7
 10
119.1684
 20
27.0
  0
POINT
  8
0
  6
CONTINUOUS
 62
     7
 10
51.04939
 20
-43.0
  0
POINT
  8
0
  6
CONTINUOUS
 62
     7
 10
101.0494
 20
-43.0
  0
POINT
  8
0
  6
CONTINUOUS
 62
     7
 10
161.0494
 20
-43.0
  0
POINT
  8
0
  6
CONTINUOUS
 62
     7
 10
49.29688
 20
-202.7057
  0
POINT
  8
0
  6
CONTINUOUS
 62
     7
 10
121.2684
 20
-127.7057
  0
POINT
  8
0
  6
CONTINUOUS
 62
     7
 10
92.71838
 20
-202.7057
  0
POINT
  8
0
  6
CONTINUOUS
 62
     7
 10
152.7184
 20
-202.7057
  0
POINT
  8
0
  6
CONTINUOUS
 62
     7
 10
99.29688
 20
-202.7057
  0
POINT
  8
0
  6
CONTINUOUS
 62
     7
 10
159.2969
 20
-202.7057
  0
POINT
  8
0
  6
CONTINUOUS
 62
     7
 10
231.4862
 20
116.7057
  0
POINT
  8
0
  6
CONTINUOUS
 62
     7
 10
281.4862
 20
116.7057
  0
POINT
  8
0
  6
CONTINUOUS
 62
     7
 10
351.4861
 20
116.7057
  0
POINT
  8
0
  6
CONTINUOUS
 62
     7
 10
302.7051
 20
186.7057
  0
POINT
  8
0
  6
CONTINUOUS
 62
     7
 10
273.1552
 20
-43.0
  0
POINT
  8
0
  6
CONTINUOUS
 62
     7
 10
223.1552
 20
-43.0
  0
POINT
  8
0
  6
CONTINUOUS
 62
     7
 10
333.0186
 20
-43.0
  0
POINT
  8
0
  6
CONTINUOUS
 62
     7
 10
273.1552
 20
27.0
  0
POINT
  8
0
  6
CONTINUOUS
 62
     7
 10
306.3552
 20
27.0
  0
POINT
  8
0
  6
CONTINUOUS
 62
     7
 10
231.4862
 20
-43.0
  0
POINT
  8
0
  6
CONTINUOUS
 62
     7
 10
281.4861
 20
-43.0
  0
POINT
  8
0
  6
CONTINUOUS
 62
     7
 10
341.3496
 20
-43.0
  0
POINT
  8
0
  6
CONTINUOUS
 62
     7
 10
273.1552
 20
-197.7057
  0
POINT
  8
0
  6
CONTINUOUS
 62
     7
 10
223.1552
 20
-197.7057
  0
POINT
  8
0
  6
CONTINUOUS
 62
     7
 10
233.6326
 20
-197.7057
  0
POINT
  8
0
  6
CONTINUOUS
 62
     7
 10
283.6326
 20
-197.7057
  0
POINT
  8
0
  6
CONTINUOUS
 62
     7
 10
340.2438
 20
-197.7057
  0
POINT
  8
0
  6
CONTINUOUS
 62
     7
 10
350.7213
 20
-197.7057
  0
POINT
  8
0
  6
CONTINUOUS
 62
     7
 10
273.1552
 20
-117.7057
  0
POINT
  8
0
  6
CONTINUOUS
 62
     7
 10
309.3552
 20
-117.7057
  0
POINT
  8
0
  6
CONTINUOUS
 62
     7
 10
-323.2912
 20
-43.0
  0
POINT
  8
0
  6
CONTINUOUS
 62
     7
 10
-273.2912
 20
-43.0
  0
POINT
  8
0
  6
CONTINUOUS
 62
     7
 10
-223.2912
 20
-43.0
  0
POINT
  8
0
  6
CONTINUOUS
 62
     7
 10
-137.8544
 20
116.7057
  0
POINT
  8
0
  6
CONTINUOUS
 62
     7
 10
-87.8544
 20
116.7057
  0
POINT
  8
0
  6
CONTINUOUS
 62
     7
 10
-37.8544
 20
116.7057
  0
POINT
  8
0
  6
CONTINUOUS
 62
     7
 10
-136.1399
 20
-43.0
  0
POINT
  8
0
  6
CONTINUOUS
 62
     7
 10
-86.1399
 20
-43.0
  0
POINT
  8
0
  6
CONTINUOUS
 62
     7
 10
-36.1399
 20
-43.0
  0
LINE
  8
0
  6
CONTINUOUS
 62
     7
 10
218.3292
 20
-225.9564
 11
370.8736
 21
-225.9564
  0
LINE
  8
0
  6
CONTINUOUS
 62
     7
 10
-218.3292
 20
225.9564
 11
-218.3292
 21
254.5585
  0
LINE
  8
0
  6
CONTINUOUS
 62
     7
 10
-370.8736
 20
225.9564
 11
-218.3292
 21
225.9564
  0
LINE
  8
0
  6
CONTINUOUS
 62
     7
 10
-370.8736
 20
254.5585
 11
370.8736
 21
254.5585
  0
LINE
  8
0
  6
CONTINUOUS
 62
     7
 10
-370.8736
 20
-254.5585
 11
370.8736
 21
-254.5585
  0
LINE
  8
0
  6
CONTINUOUS
 62
     7
 10
370.8736
 20
254.5585
 11
370.8736
 21
-254.5585
  0
LINE
  8
0
  6
CONTINUOUS
 62
     7
 10
-370.8736
 20
-254.5585
 11
-370.8736
 21
254.5585
  0
LINE
  8
0
  6
CONTINUOUS
 62
     7
 10
218.3292
 20
-225.9564
 11
218.3292
 21
-254.5585
  0
LINE
  8
0
  6
CONTINUOUS
 62
     7
 10
218.3292
 20
254.5585
 11
218.3292
 21
225.9564
  0
LINE
  8
0
  6
CONTINUOUS
 62
     7
 10
218.3292
 20
225.9564
 11
370.8736
 21
225.9564
  0
LINE
  8
0
  6
CONTINUOUS
 62
     7
 10
258.3816
 20
-232.8337
 11
258.3816
 21
-236.1516
  0
LINE
  8
0
  6
CONTINUOUS
 62
     7
 10
258.3816
 20
-236.1516
 11
270.8235
 21
-236.1516
  0
LINE
  8
0
  6
CONTINUOUS
 62
     7
 10
258.3816
 20
-249.1465
 11
275.2473
 21
-249.1465
  0
LINE
  8
0
  6
CONTINUOUS
 62
     7
 10
258.3816
 20
-245.8286
 11
270.8235
 21
-245.8286
  0
LINE
  8
0
  6
CONTINUOUS
 62
     7
 10
258.3816
 20
-232.8337
 11
273.0354
 21
-232.8337
  0
LINE
  8
0
  6
CONTINUOUS
 62
     7
 10
270.8235
 20
-236.1516
 11
270.8235
 21
-245.8286
  0
LINE
  8
0
  6
CONTINUOUS
 62
     7
 10
275.2473
 20
-235.0457
 11
275.2473
 21
-249.1465
  0
LINE
  8
0
  6
CONTINUOUS
 62
     7
 10
258.3816
 20
-245.8286
 11
258.3816
 21
-249.1465
  0
LINE
  8
0
  6
CONTINUOUS
 62
     7
 10
293.4954
 20
-236.1516
 11
293.4954
 21
-246.9346
  0
LINE
  8
0
  6
CONTINUOUS
 62
     7
 10
277.7357
 20
-232.8337
 11
277.7357
 21
-236.1516
  0
LINE
  8
0
  6
CONTINUOUS
 62
     7
 10
293.9378
 20
-232.585
 11
295.5138
 21
-232.585
  0
LINE
  8
0
  6
CONTINUOUS
 62
     7
 10
293.9378
 20
-230.373
 11
295.5138
 21
-230.373
  0
LINE
  8
0
  6
CONTINUOUS
 62
     7
 10
295.5138
 20
-230.373
 11
295.5138
 21
-232.585
  0
LINE
  8
0
  6
CONTINUOUS
 62
     7
 10
293.9378
 20
-230.373
 11
293.9378
 21
-232.585
  0
LINE
  8
0
  6
CONTINUOUS
 62
     7
 10
293.1083
 20
-230.373
 11
293.1083
 21
-232.585
  0
LINE
  8
0
  6
CONTINUOUS
 62
     7
 10
282.7661
 20
-230.373
 11
286.2009
 21
-230.373
  0
LINE
  8
0
  6
CONTINUOUS
 62
     7
 10
285.5413
 20
-232.8335
 11
286.2006
 21
-230.3727
  0
LINE
  8
0
  6
CONTINUOUS
 62
     7
 10
282.1067
 20
-232.8337
 11
282.766
 21
-230.373
  0
LINE
  8
0
  6
CONTINUOUS
 62
     7
 10
285.5416
 20
-232.8337
 11
290.1776
 21
-232.8337
  0
LINE
  8
0
  6
CONTINUOUS
 62
     7
 10
284.6526
 20
-236.1516
 11
289.0716
 21
-236.1516
  0
LINE
  8
0
  6
CONTINUOUS
 62
     7
 10
286.6429
 20
-249.1465
 11
291.2836
 21
-249.1465
  0
LINE
  8
0
  6
CONTINUOUS
 62
     7
 10
285.7537
 20
-245.8286
 11
286.6427
 21
-249.1463
  0
LINE
  8
0
  6
CONTINUOUS
 62
     7
 10
285.7538
 20
-245.8286
 11
289.0716
 21
-245.8286
  0
LINE
  8
0
  6
CONTINUOUS
 62
     7
 10
281.1707
 20
-249.1466
 11
284.6527
 21
-236.1517
  0
LINE
  8
0
  6
CONTINUOUS
 62
     7
 10
277.7357
 20
-236.1516
 11
281.2177
 21
-236.1516
  0
LINE
  8
0
  6
CONTINUOUS
 62
     7
 10
277.7354
 20
-249.1462
 11
281.2175
 21
-236.1513
  0
LINE
  8
0
  6
CONTINUOUS
 62
     7
 10
277.7357
 20
-249.1465
 11
281.1706
 21
-249.1465
  0
LINE
  8
0
  6
CONTINUOUS
 62
     7
 10
277.7357
 20
-232.8337
 11
282.1067
 21
-232.8337
  0
LINE
  8
0
  6
CONTINUOUS
 62
     7
 10
289.0716
 20
-236.1516
 11
289.0716
 21
-245.8286
  0
LINE
  8
0
  6
CONTINUOUS
 62
     7
 10
291.5323
 20
-230.373
 11
293.1083
 21
-230.373
  0
LINE
  8
0
  6
CONTINUOUS
 62
     7
 10
291.5323
 20
-232.585
 11
293.1083
 21
-232.585
  0
LINE
  8
0
  6
CONTINUOUS
 62
     7
 10
291.5323
 20
-230.373
 11
291.5323
 21
-232.585
  0
LINE
  8
0
  6
CONTINUOUS
 62
     7
 10
301.5135
 20
-230.373
 11
305.9373
 21
-230.373
  0
LINE
  8
0
  6
CONTINUOUS
 62
     7
 10
308.3423
 20
-240.1951
 11
311.2962
 21
-238.8176
  0
LINE
  8
0
  6
CONTINUOUS
 62
     7
 10
305.9373
 20
-242.7344
 11
305.9373
 21
-249.1465
  0
LINE
  8
0
  6
CONTINUOUS
 62
     7
 10
301.5135
 20
-243.379
 11
301.5135
 21
-249.1465
  0
LINE
  8
0
  6
CONTINUOUS
 62
     7
 10
305.9373
 20
-232.8337
 11
310.3611
 21
-232.8337
  0
LINE
  8
0
  6
CONTINUOUS
 62
     7
 10
305.9373
 20
-230.373
 11
305.9373
 21
-232.8337
  0
LINE
  8
0
  6
CONTINUOUS
 62
     7
 10
301.5135
 20
-230.373
 11
301.5135
 21
-232.8337
  0
LINE
  8
0
  6
CONTINUOUS
 62
     7
 10
312.573
 20
-235.0457
 11
312.573
 21
-236.8128
  0
LINE
  8
0
  6
CONTINUOUS
 62
     7
 10
308.3424
 20
-240.195
 11
312.5734
 21
-242.168
  0
LINE
  8
0
  6
CONTINUOUS
 62
     7
 10
305.9373
 20
-242.7343
 11
312.5731
 21
-245.8286
  0
LINE
  8
0
  6
CONTINUOUS
 62
     7
 10
296.2603
 20
-242.1678
 11
296.2603
 21
-245.8286
  0
LINE
  8
0
  6
CONTINUOUS
 62
     7
 10
296.2607
 20
-242.1682
 11
309.1626
 21
-236.1519
  0
LINE
  8
0
  6
CONTINUOUS
 62
     7
 10
296.2603
 20
-245.8286
 11
301.5136
 21
-243.3789
  0
LINE
  8
0
  6
CONTINUOUS
 62
     7
 10
312.573
 20
-242.1678
 11
312.573
 21
-245.8286
  0
LINE
  8
0
  6
CONTINUOUS
 62
     7
 10
296.2603
 20
-232.8337
 11
296.2603
 21
-236.1516
  0
LINE
  8
0
  6
CONTINUOUS
 62
     7
 10
301.5135
 20
-249.1465
 11
305.9373
 21
-249.1465
  0
LINE
  8
0
  6
CONTINUOUS
 62
     7
 10
296.2603
 20
-236.1516
 11
309.1621
 21
-236.1516
  0
LINE
  8
0
  6
CONTINUOUS
 62
     7
 10
296.2603
 20
-232.8337
 11
301.5135
 21
-232.8337
  0
LINE
  8
0
  6
CONTINUOUS
 62
     7
 10
327.504
 20
-236.4047
 11
328.73
 21
-235.9171
  0
LINE
  8
0
  6
CONTINUOUS
 62
     7
 10
327.5034
 20
-236.4044
 11
327.5034
 21
-249.1465
  0
LINE
  8
0
  6
CONTINUOUS
 62
     7
 10
323.0795
 20
-249.1465
 11
327.5034
 21
-249.1465
  0
LINE
  8
0
  6
CONTINUOUS
 62
     7
 10
313.9553
 20
-241.7925
 11
323.0794
 21
-238.1637
  0
LINE
  8
0
  6
CONTINUOUS
 62
     7
 10
313.9555
 20
-238.222
 11
326.8062
 21
-233.1111
  0
LINE
  8
0
  6
CONTINUOUS
 62
     7
 10
323.0795
 20
-238.1638
 11
323.0795
 21
-249.1465
  0
LINE
  8
0
  6
CONTINUOUS
 62
     7
 10
327.5034
 20
-231.3684
 11
327.5034
 21
-232.0834
  0
LINE
  8
0
  6
CONTINUOUS
 62
     7
 10
330.8211
 20
-231.3684
 11
330.8211
 21
-232.8338
  0
LINE
  8
0
  6
CONTINUOUS
 62
     7
 10
313.9554
 20
-238.2219
 11
313.9554
 21
-241.7925
  0
LINE
  8
0
  6
CONTINUOUS
 62
     7
 10
327.5034
 20
-231.3684
 11
330.8211
 21
-231.3684
  0
LINE
  8
0
  6
CONTINUOUS
 62
     7
 10
-185.4368
 20
254.5585
 11
-185.4368
 21
-254.5585
  0
LINE
  8
0
  6
CONTINUOUS
 62
     7
 10
0.0
 20
254.5585
 11
0.0
 21
-254.5585
  0
LINE
  8
0
  6
CONTINUOUS
 62
     7
 10
185.4368
 20
254.5585
 11
185.4368
 21
-254.5585
  0
LINE
  8
0
  6
CONTINUOUS
 62
     7
 10
-370.8736
 20
75.3188
 11
370.8736
 21
75.3188
  0
LINE
  8
0
  6
CONTINUOUS
 62
     7
 10
-370.8736
 20
-75.31882
 11
370.8736
 21
-75.31882
  0
LINE
  8
0
  6
CONTINUOUS
 62
     7
 10
-273.2552
 20
127.8057
 11
-273.2552
 21
126.0557
  0
LINE
  8
0
  6
CONTINUOUS
 62
     7
 10
-283.0552
 20
127.8057
 11
-283.0552
 21
118.8057
  0
LINE
  8
0
  6
CONTINUOUS
 62
     7
 10
-330.1552
 20
144.3057
 11
-326.1552
 21
144.3057
  0
LINE
  8
0
  6
CONTINUOUS
 62
     7
 10
-325.6552
 20
143.8057
 11
-325.6552
 21
140.8057
  0
LINE
  8
0
  6
CONTINUOUS
 62
     7
 10
-330.6552
 20
143.8057
 11
-330.6552
 21
140.8057
  0
LINE
  8
0
  6
CONTINUOUS
 62
     7
 10
-325.6552
 20
143.8057
 11
-326.1552
 21
144.3057
  0
LINE
  8
0
  6
CONTINUOUS
 62
     7
 10
-330.1552
 20
144.3057
 11
-330.6552
 21
143.8057
  0
LINE
  8
0
  6
CONTINUOUS
 62
     7
 10
-330.1552
 20
140.3057
 11
-326.1552
 21
140.3057
  0
LINE
  8
0
  6
CONTINUOUS
 62
     7
 10
-330.6551
 20
140.8056
 11
-330.1551
 21
140.3056
  0
LINE
  8
0
  6
CONTINUOUS
 62
     7
 10
-326.1552
 20
140.3056
 11
-325.6552
 21
140.8057
  0
LINE
  8
0
  6
CONTINUOUS
 62
     7
 10
-330.6552
 20
143.8057
 11
-325.6552
 21
143.8057
  0
LINE
  8
0
  6
CONTINUOUS
 62
     7
 10
-330.6552
 20
140.8057
 11
-325.6552
 21
140.8057
  0
LINE
  8
0
  6
CONTINUOUS
 62
     7
 10
-328.6552
 20
143.8057
 11
-328.6552
 21
140.8057
  0
LINE
  8
0
  6
CONTINUOUS
 62
     7
 10
-330.6552
 20
113.8057
 11
-325.6552
 21
113.8057
  0
LINE
  8
0
  6
CONTINUOUS
 62
     7
 10
-332.0552
 20
117.3057
 11
-324.2552
 21
117.3057
  0
LINE
  8
0
  6
CONTINUOUS
 62
     7
 10
-332.1552
 20
131.8057
 11
-324.1552
 21
131.8057
  0
LINE
  8
0
  6
CONTINUOUS
 62
     7
 10
-331.6552
 20
132.6057
 11
-324.6552
 21
132.6057
  0
LINE
  8
0
  6
CONTINUOUS
 62
     7
 10
-331.6552
 20
135.1057
 11
-324.6552
 21
135.1057
  0
LINE
  8
0
  6
CENTER
 62
     2
 10
-284.8653
 20
123.8057
 11
-260.1382
 21
123.8057
  0
LINE
  8
0
  6
CONTINUOUS
 62
     7
 10
-283.0552
 20
118.8057
 11
-262.6552
 21
118.8057
  0
LINE
  8
0
  6
CONTINUOUS
 62
     7
 10
-283.0552
 20
127.8057
 11
-272.6552
 21
127.8057
  0
LINE
  8
0
  6
CONTINUOUS
 62
     7
 10
-324.1552
 20
134.6057
 11
-324.1552
 21
133.1057
  0
LINE
  8
0
  6
CONTINUOUS
 62
     7
 10
-332.1552
 20
134.6057
 11
-332.1552
 21
133.1057
  0
LINE
  8
0
  6
CONTINUOUS
 62
     7
 10
-324.1552
 20
134.6057
 11
-324.6551
 21
135.1056
  0
LINE
  8
0
  6
CONTINUOUS
 62
     7
 10
-331.6552
 20
135.1056
 11
-332.1552
 21
134.6056
  0
LINE
  8
0
  6
CONTINUOUS
 62
     7
 10
-332.1552
 20
133.1057
 11
-331.6552
 21
132.6057
  0
LINE
  8
0
  6
CONTINUOUS
 62
     7
 10
-324.6552
 20
132.6057
 11
-324.1552
 21
133.1056
  0
LINE
  8
0
  6
CONTINUOUS
 62
     7
 10
-331.1552
 20
134.6057
 11
-331.1552
 21
133.1057
  0
LINE
  8
0
  6
CONTINUOUS
 62
     7
 10
-330.1552
 20
134.6057
 11
-330.1552
 21
133.1057
  0
LINE
  8
0
  6
CONTINUOUS
 62
     7
 10
-329.1552
 20
134.6057
 11
-329.1552
 21
133.1057
  0
LINE
  8
0
  6
CENTER
 62
     2
 10
-278.1552
 20
193.6013
 11
-278.1552
 21
180.9786
  0
LINE
  8
0
  6
CENTER
 62
     2
 10
-284.7016
 20
187.2057
 11
-260.4264
 21
187.2057
  0
LINE
  8
0
  6
CENTER
 62
     2
 10
-278.1552
 20
145.2823
 11
-278.1552
 21
111.4896
  0
LINE
  8
0
  6
CONTINUOUS
 62
     7
 10
-332.1552
 20
134.6057
 11
-324.1552
 21
134.6057
  0
LINE
  8
0
  6
CONTINUOUS
 62
     7
 10
-332.1552
 20
133.1057
 11
-324.1552
 21
133.1057
  0
LINE
  8
0
  6
CONTINUOUS
 62
     7
 10
-280.4646
 20
183.2057
 11
-282.774
 21
187.2057
  0
LINE
  8
0
  6
CONTINUOUS
 62
     7
 10
-273.5364
 20
187.2057
 11
-275.8458
 21
191.2057
  0
LINE
  8
0
  6
CONTINUOUS
 62
     7
 10
-280.4646
 20
191.2057
 11
-275.8458
 21
191.2057
  0
LINE
  8
0
  6
CONTINUOUS
 62
     7
 10
-280.4646
 20
183.2057
 11
-275.8458
 21
183.2057
  0
LINE
  8
0
  6
CONTINUOUS
 62
     7
 10
-282.774
 20
187.2057
 11
-280.4646
 21
191.2057
  0
LINE
  8
0
  6
CONTINUOUS
 62
     7
 10
-275.8458
 20
183.2057
 11
-273.5364
 21
187.2057
  0
LINE
  8
0
  6
CONTINUOUS
 62
     7
 10
-325.6552
 20
132.6057
 11
-325.6552
 21
131.8057
  0
LINE
  8
0
  6
CONTINUOUS
 62
     7
 10
-330.6552
 20
132.6057
 11
-330.6552
 21
131.8057
  0
LINE
  8
0
  6
CONTINUOUS
 62
     7
 10
-329.6552
 20
140.3057
 11
-329.6552
 21
135.1057
  0
LINE
  8
0
  6
CONTINUOUS
 62
     7
 10
-326.6552
 20
140.3057
 11
-326.6552
 21
135.1057
  0
LINE
  8
0
  6
CONTINUOUS
 62
     7
 10
-326.9257
 20
140.3057
 11
-326.9257
 21
135.1057
  0
LINE
  8
0
  6
CONTINUOUS
 62
     7
 10
-329.3847
 20
140.3057
 11
-329.3847
 21
135.1057
  0
LINE
  8
0
  6
CONTINUOUS
 62
     7
 10
-329.6552
 20
143.8057
 11
-329.6552
 21
140.8057
  0
LINE
  8
0
  6
CONTINUOUS
 62
     7
 10
-324.9052
 20
118.8057
 11
-324.9052
 21
117.3057
  0
LINE
  8
0
  6
CONTINUOUS
 62
     7
 10
-331.4052
 20
118.8057
 11
-331.4052
 21
117.3057
  0
LINE
  8
0
  6
CONTINUOUS
 62
     7
 10
-325.6552
 20
116.7057
 11
-325.6552
 21
113.8057
  0
LINE
  8
0
  6
CONTINUOUS
 62
     7
 10
-330.6552
 20
116.7057
 11
-330.6552
 21
113.8057
  0
LINE
  8
0
  6
CONTINUOUS
 62
     7
 10
-326.0882
 20
116.7057
 11
-326.0882
 21
113.8057
  0
LINE
  8
0
  6
CONTINUOUS
 62
     7
 10
-330.2222
 20
116.7057
 11
-330.2222
 21
113.8057
  0
LINE
  8
0
  6
CONTINUOUS
 62
     7
 10
-324.2552
 20
117.3057
 11
-324.2552
 21
116.7057
  0
LINE
  8
0
  6
CONTINUOUS
 62
     7
 10
-332.0552
 20
117.3057
 11
-332.0552
 21
116.7057
  0
LINE
  8
0
  6
CONTINUOUS
 62
     7
 10
-332.0552
 20
116.7057
 11
-324.2552
 21
116.7057
  0
LINE
  8
0
  6
CENTER
 62
     2
 10
-328.1552
 20
145.7949
 11
-328.1552
 21
112.0881
  0
LINE
  8
0
  6
CONTINUOUS
 62
     7
 10
-333.0552
 20
127.8057
 11
-323.2552
 21
127.8057
  0
LINE
  8
0
  6
CONTINUOUS
 62
     7
 10
-333.0552
 20
118.8057
 11
-323.2552
 21
118.8057
  0
LINE
  8
0
  6
CONTINUOUS
 62
     7
 10
-280.6552
 20
113.8057
 11
-275.6552
 21
113.8057
  0
LINE
  8
0
  6
CONTINUOUS
 62
     7
 10
-282.0552
 20
117.3057
 11
-274.2552
 21
117.3057
  0
LINE
  8
0
  6
CONTINUOUS
 62
     7
 10
-282.0552
 20
116.7057
 11
-274.2552
 21
116.7057
  0
LINE
  8
0
  6
CONTINUOUS
 62
     7
 10
-274.9052
 20
118.8057
 11
-274.9052
 21
117.3057
  0
LINE
  8
0
  6
CONTINUOUS
 62
     7
 10
-281.4052
 20
118.8057
 11
-281.4052
 21
117.3057
  0
LINE
  8
0
  6
CONTINUOUS
 62
     7
 10
-275.6552
 20
116.7057
 11
-275.6552
 21
113.8057
  0
LINE
  8
0
  6
CONTINUOUS
 62
     7
 10
-280.6552
 20
116.7057
 11
-280.6552
 21
113.8057
  0
LINE
  8
0
  6
CONTINUOUS
 62
     7
 10
-276.0882
 20
116.7057
 11
-276.0882
 21
113.8057
  0
LINE
  8
0
  6
CONTINUOUS
 62
     7
 10
-280.2222
 20
116.7057
 11
-280.2222
 21
113.8057
  0
LINE
  8
0
  6
CONTINUOUS
 62
     7
 10
-274.2552
 20
117.3057
 11
-274.2552
 21
116.7057
  0
LINE
  8
0
  6
CONTINUOUS
 62
     7
 10
-282.0552
 20
117.3057
 11
-282.0552
 21
116.7057
  0
LINE
  8
0
  6
CONTINUOUS
 62
     7
 10
-280.1552
 20
144.3057
 11
-276.1552
 21
144.3057
  0
LINE
  8
0
  6
CONTINUOUS
 62
     7
 10
-275.6552
 20
143.8057
 11
-275.6552
 21
140.8057
  0
LINE
  8
0
  6
CONTINUOUS
 62
     7
 10
-280.6552
 20
143.8057
 11
-280.6552
 21
140.8057
  0
LINE
  8
0
  6
CONTINUOUS
 62
     7
 10
-275.6552
 20
143.8057
 11
-276.1552
 21
144.3057
  0
LINE
  8
0
  6
CONTINUOUS
 62
     7
 10
-280.1552
 20
144.3057
 11
-280.6552
 21
143.8057
  0
LINE
  8
0
  6
CONTINUOUS
 62
     7
 10
-280.1552
 20
140.3057
 11
-276.1552
 21
140.3057
  0
LINE
  8
0
  6
CONTINUOUS
 62
     7
 10
-280.6552
 20
140.8056
 11
-280.1552
 21
140.3056
  0
LINE
  8
0
  6
CONTINUOUS
 62
     7
 10
-276.1552
 20
140.3056
 11
-275.6552
 21
140.8056
  0
LINE
  8
0
  6
CONTINUOUS
 62
     7
 10
-280.6552
 20
143.8057
 11
-275.6552
 21
143.8057
  0
LINE
  8
0
  6
CONTINUOUS
 62
     7
 10
-280.6552
 20
140.8057
 11
-275.6552
 21
140.8057
  0
LINE
  8
0
  6
CONTINUOUS
 62
     7
 10
-278.6552
 20
143.8057
 11
-278.6552
 21
140.8057
  0
LINE
  8
0
  6
CONTINUOUS
 62
     7
 10
-281.6193
 20
131.8057
 11
-274.6911
 21
131.8057
  0
LINE
  8
0
  6
CONTINUOUS
 62
     7
 10
-281.6552
 20
132.6057
 11
-274.6552
 21
132.6057
  0
LINE
  8
0
  6
CONTINUOUS
 62
     7
 10
-281.6552
 20
135.1057
 11
-274.6552
 21
135.1057
  0
LINE
  8
0
  6
CONTINUOUS
 62
     7
 10
-274.1552
 20
134.6057
 11
-274.1552
 21
133.1057
  0
LINE
  8
0
  6
CONTINUOUS
 62
     7
 10
-282.1552
 20
134.6057
 11
-282.1552
 21
133.1057
  0
LINE
  8
0
  6
CONTINUOUS
 62
     7
 10
-274.1552
 20
134.6056
 11
-274.6552
 21
135.1056
  0
LINE
  8
0
  6
CONTINUOUS
 62
     7
 10
-281.6552
 20
135.1057
 11
-282.1552
 21
134.6057
  0
LINE
  8
0
  6
CONTINUOUS
 62
     7
 10
-282.1552
 20
133.1057
 11
-281.6552
 21
132.6057
  0
LINE
  8
0
  6
CONTINUOUS
 62
     7
 10
-274.6552
 20
132.6057
 11
-274.1552
 21
133.1057
  0
LINE
  8
0
  6
CONTINUOUS
 62
     7
 10
-281.1552
 20
134.6057
 11
-281.1552
 21
133.1057
  0
LINE
  8
0
  6
CONTINUOUS
 62
     7
 10
-280.1552
 20
134.6057
 11
-280.1552
 21
133.1057
  0
LINE
  8
0
  6
CONTINUOUS
 62
     7
 10
-279.1552
 20
134.6057
 11
-279.1552
 21
133.1057
  0
LINE
  8
0
  6
CONTINUOUS
 62
     7
 10
-282.1552
 20
134.6057
 11
-274.1552
 21
134.6057
  0
LINE
  8
0
  6
CONTINUOUS
 62
     7
 10
-282.1552
 20
133.1057
 11
-274.1552
 21
133.1057
  0
LINE
  8
0
  6
CONTINUOUS
 62
     7
 10
-273.5364
 20
131.4484
 11
-273.5364
 21
127.8057
  0
LINE
  8
0
  6
CONTINUOUS
 62
     7
 10
-275.8458
 20
131.4484
 11
-275.8458
 21
127.8057
  0
LINE
  8
0
  6
CONTINUOUS
 62
     7
 10
-280.4646
 20
131.4484
 11
-280.4646
 21
127.8057
  0
LINE
  8
0
  6
CONTINUOUS
 62
     7
 10
-282.774
 20
131.4484
 11
-282.774
 21
127.8057
  0
LINE
  8
0
  6
CONTINUOUS
 62
     7
 10
-275.6552
 20
132.6057
 11
-275.6552
 21
131.8057
  0
LINE
  8
0
  6
CONTINUOUS
 62
     7
 10
-280.6552
 20
132.6057
 11
-280.6552
 21
131.8057
  0
LINE
  8
0
  6
CONTINUOUS
 62
     7
 10
-279.6552
 20
140.3057
 11
-279.6552
 21
135.1057
  0
LINE
  8
0
  6
CONTINUOUS
 62
     7
 10
-276.6552
 20
140.3057
 11
-276.6552
 21
135.1057
  0
LINE
  8
0
  6
CONTINUOUS
 62
     7
 10
-276.9257
 20
140.3057
 11
-276.9257
 21
135.1057
  0
LINE
  8
0
  6
CONTINUOUS
 62
     7
 10
-279.3847
 20
140.3057
 11
-279.3847
 21
135.1057
  0
LINE
  8
0
  6
CONTINUOUS
 62
     7
 10
-279.6552
 20
143.8057
 11
-279.6552
 21
140.8057
  0
LINE
  8
0
  6
CONTINUOUS
 62
     7
 10
-324.1552
 20
131.8057
 11
-324.1552
 21
127.8057
  0
LINE
  8
0
  6
CONTINUOUS
 62
     7
 10
-332.1552
 20
131.8057
 11
-332.1552
 21
127.8057
  0
LINE
  8
0
  6
CONTINUOUS
 62
     7
 10
-328.1552
 20
131.4484
 11
-328.1552
 21
127.8057
  0
LINE
  8
0
  6
CENTER
 62
     2
 10
-334.7253
 20
123.8057
 11
-321.5571
 21
123.8057
  0
LINE
  8
0
  6
CONTINUOUS
 62
     7
 10
-323.2552
 20
127.8057
 11
-323.2552
 21
118.8057
  0
LINE
  8
0
  6
CONTINUOUS
 62
     7
 10
-333.0552
 20
127.8057
 11
-333.0552
 21
118.8057
  0
LINE
  8
0
  6
CONTINUOUS
 62
     7
 10
-230.1552
 20
144.3057
 11
-226.1552
 21
144.3057
  0
LINE
  8
0
  6
CONTINUOUS
 62
     7
 10
-225.6552
 20
143.8057
 11
-225.6552
 21
141.3057
  0
LINE
  8
0
  6
CONTINUOUS
 62
     7
 10
-230.6552
 20
143.8057
 11
-230.6552
 21
141.3057
  0
LINE
  8
0
  6
CONTINUOUS
 62
     7
 10
-225.6552
 20
143.8057
 11
-226.1552
 21
144.3057
  0
LINE
  8
0
  6
CONTINUOUS
 62
     7
 10
-230.1552
 20
144.3056
 11
-230.6552
 21
143.8056
  0
LINE
  8
0
  6
CONTINUOUS
 62
     7
 10
-230.6552
 20
143.8057
 11
-225.6552
 21
143.8057
  0
LINE
  8
0
  6
CONTINUOUS
 62
     7
 10
-228.6552
 20
143.8057
 11
-228.6552
 21
141.3057
  0
LINE
  8
0
  6
CONTINUOUS
 62
     7
 10
-230.6552
 20
113.8057
 11
-225.6552
 21
113.8057
  0
LINE
  8
0
  6
CONTINUOUS
 62
     7
 10
-232.0552
 20
117.3057
 11
-224.2552
 21
117.3057
  0
LINE
  8
0
  6
CONTINUOUS
 62
     7
 10
-229.6552
 20
143.8057
 11
-229.6552
 21
141.3057
  0
LINE
  8
0
  6
CONTINUOUS
 62
     7
 10
-224.9052
 20
118.8057
 11
-224.9052
 21
117.3057
  0
LINE
  8
0
  6
CONTINUOUS
 62
     7
 10
-231.4052
 20
118.8057
 11
-231.4052
 21
117.3057
  0
LINE
  8
0
  6
CONTINUOUS
 62
     7
 10
-225.6552
 20
116.7057
 11
-225.6552
 21
113.8057
  0
LINE
  8
0
  6
CONTINUOUS
 62
     7
 10
-230.6552
 20
116.7057
 11
-230.6552
 21
113.8057
  0
LINE
  8
0
  6
CONTINUOUS
 62
     7
 10
-226.0882
 20
116.7057
 11
-226.0882
 21
113.8057
  0
LINE
  8
0
  6
CONTINUOUS
 62
     7
 10
-230.2222
 20
116.7057
 11
-230.2222
 21
113.8057
  0
LINE
  8
0
  6
CONTINUOUS
 62
     7
 10
-224.2552
 20
117.3057
 11
-224.2552
 21
116.7057
  0
LINE
  8
0
  6
CONTINUOUS
 62
     7
 10
-232.0552
 20
117.3057
 11
-232.0552
 21
116.7057
  0
LINE
  8
0
  6
CONTINUOUS
 62
     7
 10
-232.0552
 20
116.7057
 11
-224.2552
 21
116.7057
  0
LINE
  8
0
  6
CENTER
 62
     2
 10
-228.1552
 20
145.4169
 11
-228.1552
 21
112.2724
  0
LINE
  8
0
  6
CONTINUOUS
 62
     7
 10
-233.0552
 20
127.8057
 11
-232.6552
 21
127.8057
  0
LINE
  8
0
  6
CONTINUOUS
 62
     7
 10
-233.0552
 20
118.8057
 11
-223.2552
 21
118.8057
  0
LINE
  8
0
  6
CENTER
 62
     2
 10
-234.7253
 20
123.8057
 11
-221.5571
 21
123.8057
  0
LINE
  8
0
  6
CONTINUOUS
 62
     7
 10
-223.2552
 20
127.8057
 11
-223.2552
 21
118.8057
  0
LINE
  8
0
  6
CONTINUOUS
 62
     7
 10
-233.0552
 20
127.8057
 11
-233.0552
 21
118.8057
  0
LINE
  8
0
  6
CONTINUOUS
 62
     7
 10
-223.6551
 20
127.8057
 11
-223.2552
 21
127.8057
  0
LINE
  8
0
  6
CENTER
 62
     2
 10
-287.6552
 20
27.0
 11
-258.4613
 21
27.0
  0
LINE
  8
0
  6
CENTER
 62
     2
 10
-337.1589
 20
-32.0
 11
-318.9814
 21
-32.0
  0
LINE
  8
0
  6
CONTINUOUS
 62
     7
 10
-331.6552
 20
-7.0
 11
-324.6552
 21
-7.0
  0
LINE
  8
0
  6
CONTINUOUS
 62
     7
 10
-332.8942
 20
-47.0
 11
-323.4162
 21
-47.0
  0
LINE
  8
0
  6
CENTER
 62
     2
 10
-328.1552
 20
-5.09931
 11
-328.1552
 21
-49.54151
  0
LINE
  8
0
  6
CONTINUOUS
 62
     7
 10
-335.3552
 20
-27.7
 11
-335.3552
 21
-37.3
  0
LINE
  8
0
  6
CONTINUOUS
 62
     7
 10
-331.6552
 20
-11.0
 11
-324.6552
 21
-11.0
  0
LINE
  8
0
  6
CONTINUOUS
 62
     7
 10
-334.6624
 20
-26.5
 11
-321.648
 21
-26.5
  0
LINE
  8
0
  6
CONTINUOUS
 62
     7
 10
-335.3552
 20
-37.3
 11
-320.9552
 21
-37.3
  0
LINE
  8
0
  6
CONTINUOUS
 62
     7
 10
-335.3552
 20
-27.7
 11
-320.9552
 21
-27.7
  0
LINE
  8
0
  6
CONTINUOUS
 62
     7
 10
-320.9552
 20
-27.69999
 11
-321.648
 21
-26.5
  0
LINE
  8
0
  6
CONTINUOUS
 62
     7
 10
-335.3552
 20
-37.3
 11
-334.6624
 21
-38.50002
  0
LINE
  8
0
  6
CONTINUOUS
 62
     7
 10
-335.3552
 20
-27.7
 11
-334.6624
 21
-26.5
  0
LINE
  8
0
  6
CONTINUOUS
 62
     7
 10
-320.9552
 20
-37.3
 11
-321.648
 21
-38.50001
  0
LINE
  8
0
  6
CONTINUOUS
 62
     7
 10
-333.1552
 20
-22.5
 11
-323.1552
 21
-22.5
  0
LINE
  8
0
  6
CONTINUOUS
 62
     7
 10
-281.042
 20
22.00001
 11
-283.9287
 21
27.00001
  0
LINE
  8
0
  6
CONTINUOUS
 62
     7
 10
-272.3817
 20
27.0
 11
-275.2685
 21
32.00001
  0
LINE
  8
0
  6
CONTINUOUS
 62
     7
 10
-281.0419
 20
32.0
 11
-275.2684
 21
32.0
  0
LINE
  8
0
  6
CONTINUOUS
 62
     7
 10
-281.0419
 20
22.0
 11
-275.2684
 21
22.0
  0
LINE
  8
0
  6
CONTINUOUS
 62
     7
 10
-283.9287
 20
27.0
 11
-281.042
 21
32.0
  0
LINE
  8
0
  6
CONTINUOUS
 62
     7
 10
-275.2684
 20
21.99999
 11
-272.3817
 21
26.99999
  0
LINE
  8
0
  6
CONTINUOUS
 62
     7
 10
-320.9552
 20
-27.7
 11
-320.9552
 21
-37.3
  0
LINE
  8
0
  6
CONTINUOUS
 62
     7
 10
-322.3817
 20
-22.94658
 11
-322.3817
 21
-26.5
  0
LINE
  8
0
  6
CONTINUOUS
 62
     7
 10
-333.9287
 20
-22.94658
 11
-333.9287
 21
-26.5
  0
LINE
  8
0
  6
CONTINUOUS
 62
     7
 10
-331.0419
 20
-22.94658
 11
-331.0419
 21
-26.5
  0
LINE
  8
0
  6
CONTINUOUS
 62
     7
 10
-325.2684
 20
-22.94658
 11
-325.2684
 21
-26.5
  0
LINE
  8
0
  6
CONTINUOUS
 62
     7
 10
-323.1552
 20
-22.5
 11
-322.3817
 21
-22.94658
  0
LINE
  8
0
  6
CONTINUOUS
 62
     7
 10
-333.1552
 20
-22.50001
 11
-333.9287
 21
-22.94658
  0
LINE
  8
0
  6
CONTINUOUS
 62
     7
 10
-332.6552
 20
-21.4
 11
-323.6552
 21
-21.4
  0
LINE
  8
0
  6
CONTINUOUS
 62
     7
 10
-332.6552
 20
-17.9
 11
-323.6552
 21
-17.9
  0
LINE
  8
0
  6
CONTINUOUS
 62
     7
 10
-323.1552
 20
-18.4
 11
-323.1552
 21
-20.9
  0
LINE
  8
0
  6
CONTINUOUS
 62
     7
 10
-333.1552
 20
-18.4
 11
-333.1552
 21
-20.9
  0
LINE
  8
0
  6
CONTINUOUS
 62
     7
 10
-332.1552
 20
-7.5
 11
-332.1552
 21
-10.5
  0
LINE
  8
0
  6
CONTINUOUS
 62
     7
 10
-324.1552
 20
-7.5
 11
-324.1552
 21
-10.5
  0
LINE
  8
0
  6
CONTINUOUS
 62
     7
 10
-323.1552
 20
-18.4
 11
-323.6552
 21
-17.9
  0
LINE
  8
0
  6
CONTINUOUS
 62
     7
 10
-332.6552
 20
-17.9
 11
-333.1552
 21
-18.4
  0
LINE
  8
0
  6
CONTINUOUS
 62
     7
 10
-333.1552
 20
-20.9
 11
-332.6552
 21
-21.4
  0
LINE
  8
0
  6
CONTINUOUS
 62
     7
 10
-323.6552
 20
-21.4
 11
-323.1552
 21
-20.9
  0
LINE
  8
0
  6
CONTINUOUS
 62
     7
 10
-324.1552
 20
-7.5
 11
-324.6552
 21
-7.0
  0
LINE
  8
0
  6
CONTINUOUS
 62
     7
 10
-331.6552
 20
-7.0
 11
-332.1552
 21
-7.50001
  0
LINE
  8
0
  6
CONTINUOUS
 62
     7
 10
-332.1552
 20
-10.50001
 11
-331.6552
 21
-11.00001
  0
LINE
  8
0
  6
CONTINUOUS
 62
     7
 10
-324.6552
 20
-11.0
 11
-324.1552
 21
-10.5
  0
LINE
  8
0
  6
CONTINUOUS
 62
     7
 10
-332.1552
 20
-7.5
 11
-324.1552
 21
-7.5
  0
LINE
  8
0
  6
CONTINUOUS
 62
     7
 10
-332.1552
 20
-10.5
 11
-324.1552
 21
-10.5
  0
LINE
  8
0
  6
CONTINUOUS
 62
     7
 10
-333.1552
 20
-18.4
 11
-323.1552
 21
-18.4
  0
LINE
  8
0
  6
CONTINUOUS
 62
     7
 10
-333.1552
 20
-20.9
 11
-323.1552
 21
-20.9
  0
LINE
  8
0
  6
CONTINUOUS
 62
     7
 10
-331.1552
 20
-7.5
 11
-331.1552
 21
-10.5
  0
LINE
  8
0
  6
CONTINUOUS
 62
     7
 10
-330.1552
 20
-7.5
 11
-330.1552
 21
-10.5
  0
LINE
  8
0
  6
CONTINUOUS
 62
     7
 10
-329.1552
 20
-7.5
 11
-329.1552
 21
-10.5
  0
LINE
  8
0
  6
CONTINUOUS
 62
     7
 10
-332.1552
 20
-18.4
 11
-332.1552
 21
-20.9
  0
LINE
  8
0
  6
CONTINUOUS
 62
     7
 10
-331.1552
 20
-18.4
 11
-331.1552
 21
-20.9
  0
LINE
  8
0
  6
CONTINUOUS
 62
     7
 10
-330.1552
 20
-18.4
 11
-330.1552
 21
-20.9
  0
LINE
  8
0
  6
CONTINUOUS
 62
     7
 10
-329.1552
 20
-18.4
 11
-329.1552
 21
-20.9
  0
LINE
  8
0
  6
CONTINUOUS
 62
     7
 10
-330.6552
 20
-11.0
 11
-330.6552
 21
-17.9
  0
LINE
  8
0
  6
CONTINUOUS
 62
     7
 10
-325.6552
 20
-11.0
 11
-325.6552
 21
-17.9
  0
LINE
  8
0
  6
CONTINUOUS
 62
     7
 10
-326.0882
 20
-11.0
 11
-326.0882
 21
-17.9
  0
LINE
  8
0
  6
CONTINUOUS
 62
     7
 10
-330.2222
 20
-11.0
 11
-330.2222
 21
-17.9
  0
LINE
  8
0
  6
CONTINUOUS
 62
     7
 10
-324.1552
 20
-21.4
 11
-324.1552
 21
-22.5
  0
LINE
  8
0
  6
CONTINUOUS
 62
     7
 10
-332.1552
 20
-21.4
 11
-332.1552
 21
-22.5
  0
LINE
  8
0
  6
CONTINUOUS
 62
     7
 10
-323.1505
 20
-38.5
 11
-323.4162
 21
-47.0
  0
LINE
  8
0
  6
CONTINUOUS
 62
     7
 10
-323.7316
 20
-38.5
 11
-323.9972
 21
-47.0
  0
LINE
  8
0
  6
CONTINUOUS
 62
     7
 10
-332.5788
 20
-38.5
 11
-332.3132
 21
-47.0
  0
LINE
  8
0
  6
CONTINUOUS
 62
     7
 10
-333.1598
 20
-38.5
 11
-332.8942
 21
-47.0
  0
LINE
  8
0
  6
CENTER
 62
     2
 10
-278.1552
 20
36.0
 11
-278.1552
 21
18.0
  0
LINE
  8
0
  6
CENTER
 62
     2
 10
-287.1589
 20
-32.0
 11
-258.4613
 21
-32.0
  0
LINE
  8
0
  6
CONTINUOUS
 62
     7
 10
-281.6552
 20
-7.0
 11
-274.6552
 21
-7.0
  0
LINE
  8
0
  6
CONTINUOUS
 62
     7
 10
-282.8942
 20
-47.0
 11
-273.4162
 21
-47.0
  0
LINE
  8
0
  6
CENTER
 62
     2
 10
-278.1552
 20
-4.26667
 11
-278.1552
 21
-49.18063
  0
LINE
  8
0
  6
CONTINUOUS
 62
     7
 10
-285.3552
 20
-27.7
 11
-285.3552
 21
-37.3
  0
LINE
  8
0
  6
CONTINUOUS
 62
     7
 10
-281.6552
 20
-11.0
 11
-274.6552
 21
-11.0
  0
LINE
  8
0
  6
CONTINUOUS
 62
     7
 10
-284.6624
 20
-38.5
 11
-261.6552
 21
-38.5
  0
LINE
  8
0
  6
CONTINUOUS
 62
     7
 10
-284.6624
 20
-26.5
 11
-270.1552
 21
-26.5
  0
LINE
  8
0
  6
CONTINUOUS
 62
     7
 10
-285.3552
 20
-37.3
 11
-270.9552
 21
-37.3
  0
LINE
  8
0
  6
CONTINUOUS
 62
     7
 10
-285.3552
 20
-27.7
 11
-270.9552
 21
-27.7
  0
LINE
  8
0
  6
CONTINUOUS
 62
     7
 10
-270.9552
 20
-27.7
 11
-271.648
 21
-26.5
  0
LINE
  8
0
  6
CONTINUOUS
 62
     7
 10
-285.3552
 20
-37.3
 11
-284.6624
 21
-38.5
  0
LINE
  8
0
  6
CONTINUOUS
 62
     7
 10
-285.3552
 20
-27.7
 11
-284.6624
 21
-26.5
  0
LINE
  8
0
  6
CONTINUOUS
 62
     7
 10
-270.9552
 20
-37.29999
 11
-271.648
 21
-38.49999
  0
LINE
  8
0
  6
CONTINUOUS
 62
     7
 10
-283.1552
 20
-22.5
 11
-273.1552
 21
-22.5
  0
LINE
  8
0
  6
CONTINUOUS
 62
     7
 10
-272.3817
 20
-22.94658
 11
-272.3817
 21
-26.5
  0
LINE
  8
0
  6
CONTINUOUS
 62
     7
 10
-283.9287
 20
-22.94658
 11
-283.9287
 21
-26.5
  0
LINE
  8
0
  6
CONTINUOUS
 62
     7
 10
-281.0419
 20
-22.94658
 11
-281.0419
 21
-26.5
  0
LINE
  8
0
  6
CONTINUOUS
 62
     7
 10
-275.2684
 20
-22.94658
 11
-275.2684
 21
-26.5
  0
LINE
  8
0
  6
CONTINUOUS
 62
     7
 10
-273.1552
 20
-22.49999
 11
-272.3817
 21
-22.94658
  0
LINE
  8
0
  6
CONTINUOUS
 62
     7
 10
-283.1552
 20
-22.5
 11
-283.9287
 21
-22.9466
  0
LINE
  8
0
  6
CONTINUOUS
 62
     7
 10
-282.6552
 20
-21.4
 11
-273.6552
 21
-21.4
  0
LINE
  8
0
  6
CONTINUOUS
 62
     7
 10
-282.6552
 20
-17.9
 11
-273.6552
 21
-17.9
  0
LINE
  8
0
  6
CONTINUOUS
 62
     7
 10
-273.1552
 20
-18.4
 11
-273.1552
 21
-20.9
  0
LINE
  8
0
  6
CONTINUOUS
 62
     7
 10
-283.1552
 20
-18.4
 11
-283.1552
 21
-20.9
  0
LINE
  8
0
  6
CONTINUOUS
 62
     7
 10
-282.1552
 20
-7.5
 11
-282.1552
 21
-10.5
  0
LINE
  8
0
  6
CONTINUOUS
 62
     7
 10
-274.1552
 20
-7.5
 11
-274.1552
 21
-10.5
  0
LINE
  8
0
  6
CONTINUOUS
 62
     7
 10
-273.1552
 20
-18.4
 11
-273.6552
 21
-17.89999
  0
LINE
  8
0
  6
CONTINUOUS
 62
     7
 10
-282.6552
 20
-17.89999
 11
-283.1552
 21
-18.39999
  0
LINE
  8
0
  6
CONTINUOUS
 62
     7
 10
-283.1552
 20
-20.9
 11
-282.6552
 21
-21.4
  0
LINE
  8
0
  6
CONTINUOUS
 62
     7
 10
-273.6552
 20
-21.39999
 11
-273.1552
 21
-20.89999
  0
LINE
  8
0
  6
CONTINUOUS
 62
     7
 10
-274.1552
 20
-7.49999
 11
-274.6552
 21
-6.99999
  0
LINE
  8
0
  6
CONTINUOUS
 62
     7
 10
-281.6552
 20
-7.0
 11
-282.1552
 21
-7.5
  0
LINE
  8
0
  6
CONTINUOUS
 62
     7
 10
-282.1552
 20
-10.5
 11
-281.6552
 21
-11.0
  0
LINE
  8
0
  6
CONTINUOUS
 62
     7
 10
-274.6552
 20
-11.0
 11
-274.1552
 21
-10.5
  0
LINE
  8
0
  6
CONTINUOUS
 62
     7
 10
-282.1552
 20
-7.5
 11
-274.1552
 21
-7.5
  0
LINE
  8
0
  6
CONTINUOUS
 62
     7
 10
-282.1552
 20
-10.5
 11
-274.1552
 21
-10.5
  0
LINE
  8
0
  6
CONTINUOUS
 62
     7
 10
-283.1552
 20
-18.4
 11
-273.1552
 21
-18.4
  0
LINE
  8
0
  6
CONTINUOUS
 62
     7
 10
-283.1552
 20
-20.9
 11
-273.1552
 21
-20.9
  0
LINE
  8
0
  6
CONTINUOUS
 62
     7
 10
-281.1552
 20
-7.5
 11
-281.1552
 21
-10.5
  0
LINE
  8
0
  6
CONTINUOUS
 62
     7
 10
-280.1552
 20
-7.5
 11
-280.1552
 21
-10.5
  0
LINE
  8
0
  6
CONTINUOUS
 62
     7
 10
-279.1552
 20
-7.5
 11
-279.1552
 21
-10.5
  0
LINE
  8
0
  6
CONTINUOUS
 62
     7
 10
-282.1552
 20
-18.4
 11
-282.1552
 21
-20.9
  0
LINE
  8
0
  6
CONTINUOUS
 62
     7
 10
-281.1552
 20
-18.4
 11
-281.1552
 21
-20.9
  0
LINE
  8
0
  6
CONTINUOUS
 62
     7
 10
-280.1552
 20
-18.4
 11
-280.1552
 21
-20.9
  0
LINE
  8
0
  6
CONTINUOUS
 62
     7
 10
-279.1552
 20
-18.4
 11
-279.1552
 21
-20.9
  0
LINE
  8
0
  6
CONTINUOUS
 62
     7
 10
-280.6552
 20
-11.0
 11
-280.6552
 21
-17.9
  0
LINE
  8
0
  6
CONTINUOUS
 62
     7
 10
-275.6552
 20
-11.0
 11
-275.6552
 21
-17.9
  0
LINE
  8
0
  6
CONTINUOUS
 62
     7
 10
-276.0882
 20
-11.0
 11
-276.0882
 21
-17.9
  0
LINE
  8
0
  6
CONTINUOUS
 62
     7
 10
-280.2222
 20
-11.0
 11
-280.2222
 21
-17.9
  0
LINE
  8
0
  6
CONTINUOUS
 62
     7
 10
-274.1552
 20
-21.4
 11
-274.1552
 21
-22.5
  0
LINE
  8
0
  6
CONTINUOUS
 62
     7
 10
-282.1552
 20
-21.4
 11
-282.1552
 21
-22.5
  0
LINE
  8
0
  6
CONTINUOUS
 62
     7
 10
-273.1506
 20
-38.5
 11
-273.4162
 21
-47.0
  0
LINE
  8
0
  6
CONTINUOUS
 62
     7
 10
-273.7316
 20
-38.5
 11
-273.9972
 21
-47.0
  0
LINE
  8
0
  6
CONTINUOUS
 62
     7
 10
-282.5788
 20
-38.5
 11
-282.3132
 21
-47.0
  0
LINE
  8
0
  6
CONTINUOUS
 62
     7
 10
-283.1598
 20
-38.5
 11
-282.8942
 21
-47.0
  0
LINE
  8
0
  6
CENTER
 62
     2
 10
-237.1589
 20
-32.0
 11
-218.9814
 21
-32.0
  0
LINE
  8
0
  6
CONTINUOUS
 62
     7
 10
-231.6552
 20
-7.0
 11
-224.6552
 21
-7.0
  0
LINE
  8
0
  6
CONTINUOUS
 62
     7
 10
-232.8942
 20
-47.0
 11
-223.4162
 21
-47.0
  0
LINE
  8
0
  6
CENTER
 62
     2
 10
-228.1552
 20
-5.09931
 11
-228.1552
 21
-49.54151
  0
LINE
  8
0
  6
CONTINUOUS
 62
     7
 10
-235.3552
 20
-27.7
 11
-235.3552
 21
-37.3
  0
LINE
  8
0
  6
CONTINUOUS
 62
     7
 10
-231.6552
 20
-11.0
 11
-224.6552
 21
-11.0
  0
LINE
  8
0
  6
CONTINUOUS
 62
     7
 10
-234.6624
 20
-26.5
 11
-233.1552
 21
-26.5
  0
LINE
  8
0
  6
CONTINUOUS
 62
     7
 10
-235.3552
 20
-37.3
 11
-228.9052
 21
-37.3
  0
LINE
  8
0
  6
CONTINUOUS
 62
     7
 10
-235.3552
 20
-27.7
 11
-232.4552
 21
-27.7
  0
LINE
  8
0
  6
CONTINUOUS
 62
     7
 10
-220.9552
 20
-27.7
 11
-221.648
 21
-26.50001
  0
LINE
  8
0
  6
CONTINUOUS
 62
     7
 10
-235.3552
 20
-37.3
 11
-234.6624
 21
-38.5
  0
LINE
  8
0
  6
CONTINUOUS
 62
     7
 10
-235.3552
 20
-27.7
 11
-234.6624
 21
-26.5
  0
LINE
  8
0
  6
CONTINUOUS
 62
     7
 10
-220.9552
 20
-37.3
 11
-221.648
 21
-38.5
  0
LINE
  8
0
  6
CONTINUOUS
 62
     7
 10
-220.9552
 20
-27.7
 11
-220.9552
 21
-37.3
  0
LINE
  8
0
  6
CONTINUOUS
 62
     7
 10
-222.3817
 20
-22.94658
 11
-222.3817
 21
-26.5
  0
LINE
  8
0
  6
CONTINUOUS
 62
     7
 10
-233.9287
 20
-22.94658
 11
-233.9287
 21
-26.5
  0
LINE
  8
0
  6
CONTINUOUS
 62
     7
 10
-223.1552
 20
-22.5
 11
-222.3817
 21
-22.94658
  0
LINE
  8
0
  6
CONTINUOUS
 62
     7
 10
-233.1552
 20
-22.5
 11
-233.9287
 21
-22.94658
  0
LINE
  8
0
  6
CONTINUOUS
 62
     7
 10
-223.1552
 20
-18.4
 11
-223.1552
 21
-20.9
  0
LINE
  8
0
  6
CONTINUOUS
 62
     7
 10
-233.1552
 20
-18.4
 11
-233.1552
 21
-20.9
  0
LINE
  8
0
  6
CONTINUOUS
 62
     7
 10
-232.1552
 20
-7.5
 11
-232.1552
 21
-10.5
  0
LINE
  8
0
  6
CONTINUOUS
 62
     7
 10
-224.1552
 20
-7.5
 11
-224.1552
 21
-10.5
  0
LINE
  8
0
  6
CONTINUOUS
 62
     7
 10
-224.1552
 20
-7.5
 11
-224.6552
 21
-7.0
  0
LINE
  8
0
  6
CONTINUOUS
 62
     7
 10
-231.6552
 20
-7.00001
 11
-232.1552
 21
-7.5
  0
LINE
  8
0
  6
CONTINUOUS
 62
     7
 10
-232.1552
 20
-10.50002
 11
-231.6552
 21
-11.00002
  0
LINE
  8
0
  6
CONTINUOUS
 62
     7
 10
-224.6552
 20
-11.0
 11
-224.1552
 21
-10.5
  0
LINE
  8
0
  6
CONTINUOUS
 62
     7
 10
-232.1552
 20
-7.5
 11
-224.1552
 21
-7.5
  0
LINE
  8
0
  6
CONTINUOUS
 62
     7
 10
-232.1552
 20
-10.5
 11
-224.1552
 21
-10.5
  0
LINE
  8
0
  6
CONTINUOUS
 62
     7
 10
-231.1552
 20
-7.5
 11
-231.1552
 21
-10.5
  0
LINE
  8
0
  6
CONTINUOUS
 62
     7
 10
-230.1552
 20
-7.5
 11
-230.1552
 21
-10.5
  0
LINE
  8
0
  6
CONTINUOUS
 62
     7
 10
-229.1552
 20
-7.5
 11
-229.1552
 21
-10.5
  0
LINE
  8
0
  6
CONTINUOUS
 62
     7
 10
-230.6552
 20
-11.0
 11
-230.6552
 21
-14.0
  0
LINE
  8
0
  6
CONTINUOUS
 62
     7
 10
-225.6552
 20
-11.0
 11
-225.6552
 21
-14.0
  0
LINE
  8
0
  6
CONTINUOUS
 62
     7
 10
-226.0882
 20
-11.0
 11
-226.0882
 21
-14.0
  0
LINE
  8
0
  6
CONTINUOUS
 62
     7
 10
-230.2222
 20
-11.0
 11
-230.2222
 21
-14.0
  0
LINE
  8
0
  6
CONTINUOUS
 62
     7
 10
-223.1506
 20
-38.5
 11
-223.4162
 21
-47.0
  0
LINE
  8
0
  6
CONTINUOUS
 62
     7
 10
-223.7316
 20
-38.5
 11
-223.9972
 21
-47.0
  0
LINE
  8
0
  6
CONTINUOUS
 62
     7
 10
-232.5788
 20
-38.5
 11
-232.3132
 21
-47.0
  0
LINE
  8
0
  6
CONTINUOUS
 62
     7
 10
-233.1598
 20
-38.5
 11
-232.8942
 21
-47.0
  0
LINE
  8
0
  6
CONTINUOUS
 62
     7
 10
-223.8551
 20
-27.7
 11
-220.9552
 21
-27.7
  0
LINE
  8
0
  6
CONTINUOUS
 62
     7
 10
-283.0552
 20
-191.6057
 11
-283.0552
 21
-200.6057
  0
LINE
  8
0
  6
CONTINUOUS
 62
     7
 10
-330.1552
 20
-175.1057
 11
-326.1552
 21
-175.1057
  0
LINE
  8
0
  6
CONTINUOUS
 62
     7
 10
-325.6552
 20
-175.6057
 11
-325.6552
 21
-178.6057
  0
LINE
  8
0
  6
CONTINUOUS
 62
     7
 10
-330.6552
 20
-175.6057
 11
-330.6552
 21
-178.6057
  0
LINE
  8
0
  6
CONTINUOUS
 62
     7
 10
-325.6552
 20
-175.6057
 11
-326.1552
 21
-175.1057
  0
LINE
  8
0
  6
CONTINUOUS
 62
     7
 10
-330.1552
 20
-175.1057
 11
-330.6552
 21
-175.6056
  0
LINE
  8
0
  6
CONTINUOUS
 62
     7
 10
-330.1552
 20
-179.1057
 11
-326.1552
 21
-179.1057
  0
LINE
  8
0
  6
CONTINUOUS
 62
     7
 10
-330.6551
 20
-178.6056
 11
-330.1551
 21
-179.1056
  0
LINE
  8
0
  6
CONTINUOUS
 62
     7
 10
-326.1552
 20
-179.1057
 11
-325.6552
 21
-178.6056
  0
LINE
  8
0
  6
CONTINUOUS
 62
     7
 10
-330.6552
 20
-175.6057
 11
-325.6552
 21
-175.6057
  0
LINE
  8
0
  6
CONTINUOUS
 62
     7
 10
-330.6552
 20
-178.6057
 11
-325.6552
 21
-178.6057
  0
LINE
  8
0
  6
CONTINUOUS
 62
     7
 10
-328.6552
 20
-175.6057
 11
-328.6552
 21
-178.6057
  0
LINE
  8
0
  6
CONTINUOUS
 62
     7
 10
-330.6552
 20
-205.6057
 11
-325.6552
 21
-205.6057
  0
LINE
  8
0
  6
CONTINUOUS
 62
     7
 10
-332.0552
 20
-202.1057
 11
-324.2552
 21
-202.1057
  0
LINE
  8
0
  6
CONTINUOUS
 62
     7
 10
-332.1552
 20
-187.6057
 11
-324.1552
 21
-187.6057
  0
LINE
  8
0
  6
CONTINUOUS
 62
     7
 10
-331.6552
 20
-186.8057
 11
-324.6552
 21
-186.8057
  0
LINE
  8
0
  6
CONTINUOUS
 62
     7
 10
-331.6552
 20
-184.3057
 11
-324.6552
 21
-184.3057
  0
LINE
  8
0
  6
CENTER
 62
     2
 10
-284.5956
 20
-196.1057
 11
-257.6967
 21
-196.1057
  0
LINE
  8
0
  6
CONTINUOUS
 62
     7
 10
-283.0552
 20
-200.6057
 11
-259.7052
 21
-200.6057
  0
LINE
  8
0
  6
CONTINUOUS
 62
     7
 10
-283.0552
 20
-191.6057
 11
-272.2052
 21
-191.6057
  0
LINE
  8
0
  6
CONTINUOUS
 62
     7
 10
-324.1552
 20
-184.8057
 11
-324.1552
 21
-186.3057
  0
LINE
  8
0
  6
CONTINUOUS
 62
     7
 10
-332.1552
 20
-184.8057
 11
-332.1552
 21
-186.3057
  0
LINE
  8
0
  6
CONTINUOUS
 62
     7
 10
-324.1551
 20
-184.8056
 11
-324.6551
 21
-184.3056
  0
LINE
  8
0
  6
CONTINUOUS
 62
     7
 10
-331.6552
 20
-184.3057
 11
-332.1552
 21
-184.8057
  0
LINE
  8
0
  6
CONTINUOUS
 62
     7
 10
-332.1551
 20
-186.3056
 11
-331.6551
 21
-186.8056
  0
LINE
  8
0
  6
CONTINUOUS
 62
     7
 10
-324.6551
 20
-186.8056
 11
-324.1552
 21
-186.3056
  0
LINE
  8
0
  6
CONTINUOUS
 62
     7
 10
-331.1552
 20
-184.8057
 11
-331.1552
 21
-186.3057
  0
LINE
  8
0
  6
CONTINUOUS
 62
     7
 10
-330.1552
 20
-184.8057
 11
-330.1552
 21
-186.3057
  0
LINE
  8
0
  6
CONTINUOUS
 62
     7
 10
-329.1552
 20
-184.8057
 11
-329.1552
 21
-186.3057
  0
LINE
  8
0
  6
CENTER
 62
     2
 10
-278.1552
 20
-120.81
 11
-278.1552
 21
-133.4327
  0
LINE
  8
0
  6
CENTER
 62
     2
 10
-284.5956
 20
-127.2057
 11
-258.1262
 21
-127.2057
  0
LINE
  8
0
  6
CENTER
 62
     2
 10
-278.1552
 20
-173.629
 11
-278.1552
 21
-207.4218
  0
LINE
  8
0
  6
CONTINUOUS
 62
     7
 10
-332.1552
 20
-184.8057
 11
-324.1552
 21
-184.8057
  0
LINE
  8
0
  6
CONTINUOUS
 62
     7
 10
-332.1552
 20
-186.3057
 11
-324.1552
 21
-186.3057
  0
LINE
  8
0
  6
CONTINUOUS
 62
     7
 10
-280.4646
 20
-131.2057
 11
-282.774
 21
-127.2057
  0
LINE
  8
0
  6
CONTINUOUS
 62
     7
 10
-273.5364
 20
-127.2057
 11
-275.8458
 21
-123.2057
  0
LINE
  8
0
  6
CONTINUOUS
 62
     7
 10
-280.4646
 20
-123.2057
 11
-275.8458
 21
-123.2057
  0
LINE
  8
0
  6
CONTINUOUS
 62
     7
 10
-280.4646
 20
-131.2057
 11
-275.8458
 21
-131.2057
  0
LINE
  8
0
  6
CONTINUOUS
 62
     7
 10
-282.774
 20
-127.2056
 11
-280.4646
 21
-123.2056
  0
LINE
  8
0
  6
CONTINUOUS
 62
     7
 10
-275.8458
 20
-131.2056
 11
-273.5364
 21
-127.2056
  0
LINE
  8
0
  6
CONTINUOUS
 62
     7
 10
-325.6552
 20
-186.8057
 11
-325.6552
 21
-187.6057
  0
LINE
  8
0
  6
CONTINUOUS
 62
     7
 10
-330.6552
 20
-186.8057
 11
-330.6552
 21
-187.6057
  0
LINE
  8
0
  6
CONTINUOUS
 62
     7
 10
-329.6552
 20
-179.1057
 11
-329.6552
 21
-184.3057
  0
LINE
  8
0
  6
CONTINUOUS
 62
     7
 10
-326.6552
 20
-179.1057
 11
-326.6552
 21
-184.3057
  0
LINE
  8
0
  6
CONTINUOUS
 62
     7
 10
-326.9257
 20
-179.1057
 11
-326.9257
 21
-184.3057
  0
LINE
  8
0
  6
CONTINUOUS
 62
     7
 10
-329.3847
 20
-179.1057
 11
-329.3847
 21
-184.3057
  0
LINE
  8
0
  6
CONTINUOUS
 62
     7
 10
-329.6552
 20
-175.6057
 11
-329.6552
 21
-178.6057
  0
LINE
  8
0
  6
CONTINUOUS
 62
     7
 10
-324.9052
 20
-200.6057
 11
-324.9052
 21
-202.1057
  0
LINE
  8
0
  6
CONTINUOUS
 62
     7
 10
-331.4052
 20
-200.6057
 11
-331.4052
 21
-202.1057
  0
LINE
  8
0
  6
CONTINUOUS
 62
     7
 10
-325.6552
 20
-202.7057
 11
-325.6552
 21
-205.6057
  0
LINE
  8
0
  6
CONTINUOUS
 62
     7
 10
-330.6552
 20
-202.7057
 11
-330.6552
 21
-205.6057
  0
LINE
  8
0
  6
CONTINUOUS
 62
     7
 10
-326.0882
 20
-202.7057
 11
-326.0882
 21
-205.6057
  0
LINE
  8
0
  6
CONTINUOUS
 62
     7
 10
-330.2222
 20
-202.7057
 11
-330.2222
 21
-205.6057
  0
LINE
  8
0
  6
CONTINUOUS
 62
     7
 10
-324.2552
 20
-202.1057
 11
-324.2552
 21
-202.7057
  0
LINE
  8
0
  6
CONTINUOUS
 62
     7
 10
-332.0552
 20
-202.1057
 11
-332.0552
 21
-202.7057
  0
LINE
  8
0
  6
CONTINUOUS
 62
     7
 10
-332.0552
 20
-202.7057
 11
-324.2552
 21
-202.7057
  0
LINE
  8
0
  6
CENTER
 62
     2
 10
-328.1552
 20
-173.6164
 11
-328.1552
 21
-207.3232
  0
LINE
  8
0
  6
CONTINUOUS
 62
     7
 10
-334.4052
 20
-191.6057
 11
-321.9052
 21
-191.6057
  0
LINE
  8
0
  6
CONTINUOUS
 62
     7
 10
-280.6552
 20
-205.6057
 11
-275.6552
 21
-205.6057
  0
LINE
  8
0
  6
CONTINUOUS
 62
     7
 10
-282.0552
 20
-202.1057
 11
-274.2552
 21
-202.1057
  0
LINE
  8
0
  6
CONTINUOUS
 62
     7
 10
-282.0552
 20
-202.7057
 11
-274.2552
 21
-202.7057
  0
LINE
  8
0
  6
CONTINUOUS
 62
     7
 10
-274.9052
 20
-200.6057
 11
-274.9052
 21
-202.1057
  0
LINE
  8
0
  6
CONTINUOUS
 62
     7
 10
-281.4052
 20
-200.6057
 11
-281.4052
 21
-202.1057
  0
LINE
  8
0
  6
CONTINUOUS
 62
     7
 10
-275.6552
 20
-202.7057
 11
-275.6552
 21
-205.6057
  0
LINE
  8
0
  6
CONTINUOUS
 62
     7
 10
-280.6552
 20
-202.7057
 11
-280.6552
 21
-205.6057
  0
LINE
  8
0
  6
CONTINUOUS
 62
     7
 10
-276.0882
 20
-202.7057
 11
-276.0882
 21
-205.6057
  0
LINE
  8
0
  6
CONTINUOUS
 62
     7
 10
-280.2222
 20
-202.7057
 11
-280.2222
 21
-205.6057
  0
LINE
  8
0
  6
CONTINUOUS
 62
     7
 10
-274.2552
 20
-202.1057
 11
-274.2552
 21
-202.7057
  0
LINE
  8
0
  6
CONTINUOUS
 62
     7
 10
-282.0552
 20
-202.1057
 11
-282.0552
 21
-202.7057
  0
LINE
  8
0
  6
CONTINUOUS
 62
     7
 10
-280.1552
 20
-175.1057
 11
-276.1552
 21
-175.1057
  0
LINE
  8
0
  6
CONTINUOUS
 62
     7
 10
-275.6552
 20
-175.6057
 11
-275.6552
 21
-178.6057
  0
LINE
  8
0
  6
CONTINUOUS
 62
     7
 10
-280.6552
 20
-175.6057
 11
-280.6552
 21
-178.6057
  0
LINE
  8
0
  6
CONTINUOUS
 62
     7
 10
-275.6552
 20
-175.6057
 11
-276.1552
 21
-175.1057
  0
LINE
  8
0
  6
CONTINUOUS
 62
     7
 10
-280.1552
 20
-175.1056
 11
-280.6552
 21
-175.6056
  0
LINE
  8
0
  6
CONTINUOUS
 62
     7
 10
-280.1552
 20
-179.1057
 11
-276.1552
 21
-179.1057
  0
LINE
  8
0
  6
CONTINUOUS
 62
     7
 10
-280.6551
 20
-178.6056
 11
-280.1551
 21
-179.1056
  0
LINE
  8
0
  6
CONTINUOUS
 62
     7
 10
-276.1552
 20
-179.1056
 11
-275.6552
 21
-178.6056
  0
LINE
  8
0
  6
CONTINUOUS
 62
     7
 10
-280.6552
 20
-175.6057
 11
-275.6552
 21
-175.6057
  0
LINE
  8
0
  6
CONTINUOUS
 62
     7
 10
-280.6552
 20
-178.6057
 11
-275.6552
 21
-178.6057
  0
LINE
  8
0
  6
CONTINUOUS
 62
     7
 10
-278.6552
 20
-175.6057
 11
-278.6552
 21
-178.6057
  0
LINE
  8
0
  6
CONTINUOUS
 62
     7
 10
-281.6193
 20
-187.6057
 11
-274.6911
 21
-187.6057
  0
LINE
  8
0
  6
CONTINUOUS
 62
     7
 10
-281.6552
 20
-186.8057
 11
-274.6552
 21
-186.8057
  0
LINE
  8
0
  6
CONTINUOUS
 62
     7
 10
-281.6552
 20
-184.3057
 11
-274.6552
 21
-184.3057
  0
LINE
  8
0
  6
CONTINUOUS
 62
     7
 10
-274.1552
 20
-184.8057
 11
-274.1552
 21
-186.3057
  0
LINE
  8
0
  6
CONTINUOUS
 62
     7
 10
-282.1552
 20
-184.8057
 11
-282.1552
 21
-186.3057
  0
LINE
  8
0
  6
CONTINUOUS
 62
     7
 10
-274.1551
 20
-184.8056
 11
-274.6551
 21
-184.3056
  0
LINE
  8
0
  6
CONTINUOUS
 62
     7
 10
-281.6551
 20
-184.3056
 11
-282.1551
 21
-184.8056
  0
LINE
  8
0
  6
CONTINUOUS
 62
     7
 10
-282.1552
 20
-186.3056
 11
-281.6552
 21
-186.8056
  0
LINE
  8
0
  6
CONTINUOUS
 62
     7
 10
-274.6552
 20
-186.8056
 11
-274.1552
 21
-186.3056
  0
LINE
  8
0
  6
CONTINUOUS
 62
     7
 10
-281.1552
 20
-184.8057
 11
-281.1552
 21
-186.3057
  0
LINE
  8
0
  6
CONTINUOUS
 62
     7
 10
-280.1552
 20
-184.8057
 11
-280.1552
 21
-186.3057
  0
LINE
  8
0
  6
CONTINUOUS
 62
     7
 10
-279.1552
 20
-184.8057
 11
-279.1552
 21
-186.3057
  0
LINE
  8
0
  6
CONTINUOUS
 62
     7
 10
-282.1552
 20
-184.8057
 11
-274.1552
 21
-184.8057
  0
LINE
  8
0
  6
CONTINUOUS
 62
     7
 10
-282.1552
 20
-186.3057
 11
-274.1552
 21
-186.3057
  0
LINE
  8
0
  6
CONTINUOUS
 62
     7
 10
-273.5364
 20
-187.9629
 11
-273.5364
 21
-191.6057
  0
LINE
  8
0
  6
CONTINUOUS
 62
     7
 10
-275.8458
 20
-187.9629
 11
-275.8458
 21
-191.6057
  0
LINE
  8
0
  6
CONTINUOUS
 62
     7
 10
-280.4646
 20
-187.9629
 11
-280.4646
 21
-191.6057
  0
LINE
  8
0
  6
CONTINUOUS
 62
     7
 10
-282.774
 20
-187.9629
 11
-282.774
 21
-191.6057
  0
LINE
  8
0
  6
CONTINUOUS
 62
     7
 10
-275.6552
 20
-186.8057
 11
-275.6552
 21
-187.6057
  0
LINE
  8
0
  6
CONTINUOUS
 62
     7
 10
-280.6552
 20
-186.8057
 11
-280.6552
 21
-187.6057
  0
LINE
  8
0
  6
CONTINUOUS
 62
     7
 10
-279.6552
 20
-179.1057
 11
-279.6552
 21
-184.3057
  0
LINE
  8
0
  6
CONTINUOUS
 62
     7
 10
-276.6552
 20
-179.1057
 11
-276.6552
 21
-184.3057
  0
LINE
  8
0
  6
CONTINUOUS
 62
     7
 10
-276.9257
 20
-179.1057
 11
-276.9257
 21
-184.3057
  0
LINE
  8
0
  6
CONTINUOUS
 62
     7
 10
-279.3847
 20
-179.1057
 11
-279.3847
 21
-184.3057
  0
LINE
  8
0
  6
CONTINUOUS
 62
     7
 10
-279.6552
 20
-175.6057
 11
-279.6552
 21
-178.6057
  0
LINE
  8
0
  6
CONTINUOUS
 62
     7
 10
-324.1552
 20
-187.6057
 11
-324.1552
 21
-191.6057
  0
LINE
  8
0
  6
CONTINUOUS
 62
     7
 10
-332.1552
 20
-187.6057
 11
-332.1552
 21
-191.6057
  0
LINE
  8
0
  6
CONTINUOUS
 62
     7
 10
-328.1552
 20
-187.9629
 11
-328.1552
 21
-191.6057
  0
LINE
  8
0
  6
CENTER
 62
     2
 10
-335.4523
 20
-196.1057
 11
-320.9494
 21
-196.1057
  0
LINE
  8
0
  6
CONTINUOUS
 62
     7
 10
-323.2552
 20
-191.6057
 11
-323.2552
 21
-200.6057
  0
LINE
  8
0
  6
CONTINUOUS
 62
     7
 10
-333.0552
 20
-191.6057
 11
-333.0552
 21
-200.6057
  0
LINE
  8
0
  6
CONTINUOUS
 62
     7
 10
-230.1552
 20
-175.1057
 11
-226.1552
 21
-175.1057
  0
LINE
  8
0
  6
CONTINUOUS
 62
     7
 10
-225.6552
 20
-175.6057
 11
-225.6552
 21
-177.1057
  0
LINE
  8
0
  6
CONTINUOUS
 62
     7
 10
-230.6552
 20
-175.6057
 11
-230.6552
 21
-177.1057
  0
LINE
  8
0
  6
CONTINUOUS
 62
     7
 10
-225.6552
 20
-175.6057
 11
-226.1552
 21
-175.1057
  0
LINE
  8
0
  6
CONTINUOUS
 62
     7
 10
-230.1552
 20
-175.1056
 11
-230.6552
 21
-175.6057
  0
LINE
  8
0
  6
CONTINUOUS
 62
     7
 10
-230.6552
 20
-175.6057
 11
-225.6552
 21
-175.6057
  0
LINE
  8
0
  6
CONTINUOUS
 62
     7
 10
-228.6552
 20
-175.6057
 11
-228.6552
 21
-177.1057
  0
LINE
  8
0
  6
CONTINUOUS
 62
     7
 10
-230.6552
 20
-205.6057
 11
-225.6552
 21
-205.6057
  0
LINE
  8
0
  6
CONTINUOUS
 62
     7
 10
-232.0552
 20
-202.1057
 11
-224.2552
 21
-202.1057
  0
LINE
  8
0
  6
CONTINUOUS
 62
     7
 10
-229.6552
 20
-175.6057
 11
-229.6552
 21
-177.1057
  0
LINE
  8
0
  6
CONTINUOUS
 62
     7
 10
-224.9052
 20
-200.6057
 11
-224.9052
 21
-202.1057
  0
LINE
  8
0
  6
CONTINUOUS
 62
     7
 10
-231.4052
 20
-200.6057
 11
-231.4052
 21
-202.1057
  0
LINE
  8
0
  6
CONTINUOUS
 62
     7
 10
-225.6552
 20
-202.7057
 11
-225.6552
 21
-205.6057
  0
LINE
  8
0
  6
CONTINUOUS
 62
     7
 10
-230.6552
 20
-202.7057
 11
-230.6552
 21
-205.6057
  0
LINE
  8
0
  6
CONTINUOUS
 62
     7
 10
-226.0882
 20
-202.7057
 11
-226.0882
 21
-205.6057
  0
LINE
  8
0
  6
CONTINUOUS
 62
     7
 10
-230.2222
 20
-202.7057
 11
-230.2222
 21
-205.6057
  0
LINE
  8
0
  6
CONTINUOUS
 62
     7
 10
-224.2552
 20
-202.1057
 11
-224.2552
 21
-202.7057
  0
LINE
  8
0
  6
CONTINUOUS
 62
     7
 10
-232.0552
 20
-202.1057
 11
-232.0552
 21
-202.7057
  0
LINE
  8
0
  6
CONTINUOUS
 62
     7
 10
-232.0552
 20
-202.7057
 11
-224.2552
 21
-202.7057
  0
LINE
  8
0
  6
CENTER
 62
     2
 10
-228.1552
 20
-173.9944
 11
-228.1552
 21
-207.1389
  0
LINE
  8
0
  6
CENTER
 62
     2
 10
-235.432
 20
-196.1057
 11
-220.8041
 21
-196.1057
  0
LINE
  8
0
  6
CONTINUOUS
 62
     7
 10
-223.2552
 20
-192.9557
 11
-223.2552
 21
-200.6057
  0
LINE
  8
0
  6
CONTINUOUS
 62
     7
 10
-233.0552
 20
-192.9556
 11
-233.0552
 21
-200.6057
  0
LINE
  8
0
  6
CENTER
 62
     2
 10
-101.7038
 20
186.7057
 11
-70.23662
 21
186.7057
  0
LINE
  8
0
  6
CENTER
 62
     2
 10
-151.7222
 20
127.7057
 11
-133.5446
 21
127.7057
  0
LINE
  8
0
  6
CONTINUOUS
 62
     7
 10
-146.2184
 20
152.7057
 11
-139.2184
 21
152.7057
  0
LINE
  8
0
  6
CONTINUOUS
 62
     7
 10
-147.4574
 20
112.7057
 11
-137.9794
 21
112.7057
  0
LINE
  8
0
  6
CENTER
 62
     2
 10
-142.7184
 20
155.4452
 11
-142.7184
 21
110.1641
  0
LINE
  8
0
  6
CONTINUOUS
 62
     7
 10
-149.9184
 20
132.3057
 11
-149.9184
 21
122.7057
  0
LINE
  8
0
  6
CONTINUOUS
 62
     7
 10
-146.2184
 20
148.7057
 11
-139.2184
 21
148.7057
  0
LINE
  8
0
  6
CONTINUOUS
 62
     7
 10
-149.2256
 20
121.5057
 11
-136.2112
 21
121.5057
  0
LINE
  8
0
  6
CONTINUOUS
 62
     7
 10
-149.2256
 20
133.5057
 11
-136.2112
 21
133.5057
  0
LINE
  8
0
  6
CONTINUOUS
 62
     7
 10
-149.9184
 20
122.7057
 11
-135.5184
 21
122.7057
  0
LINE
  8
0
  6
CONTINUOUS
 62
     7
 10
-149.9184
 20
132.3057
 11
-135.5184
 21
132.3057
  0
LINE
  8
0
  6
CONTINUOUS
 62
     7
 10
-135.5184
 20
132.3057
 11
-136.2112
 21
133.5057
  0
LINE
  8
0
  6
CONTINUOUS
 62
     7
 10
-149.9184
 20
122.7057
 11
-149.2256
 21
121.5056
  0
LINE
  8
0
  6
CONTINUOUS
 62
     7
 10
-149.9184
 20
132.3056
 11
-149.2256
 21
133.5056
  0
LINE
  8
0
  6
CONTINUOUS
 62
     7
 10
-135.5184
 20
122.7057
 11
-136.2112
 21
121.5057
  0
LINE
  8
0
  6
CONTINUOUS
 62
     7
 10
-147.7184
 20
137.5057
 11
-137.7184
 21
137.5057
  0
LINE
  8
0
  6
CONTINUOUS
 62
     7
 10
-95.60515
 20
181.7057
 11
-98.4919
 21
186.7057
  0
LINE
  8
0
  6
CONTINUOUS
 62
     7
 10
-86.94488
 20
186.7057
 11
-89.83163
 21
191.7057
  0
LINE
  8
0
  6
CONTINUOUS
 62
     7
 10
-95.60515
 20
191.7057
 11
-89.83165
 21
191.7057
  0
LINE
  8
0
  6
CONTINUOUS
 62
     7
 10
-95.60516
 20
181.7057
 11
-89.83165
 21
181.7057
  0
LINE
  8
0
  6
CONTINUOUS
 62
     7
 10
-98.49191
 20
186.7057
 11
-95.60515
 21
191.7057
  0
LINE
  8
0
  6
CONTINUOUS
 62
     7
 10
-89.83167
 20
181.7057
 11
-86.94492
 21
186.7057
  0
LINE
  8
0
  6
CONTINUOUS
 62
     7
 10
-135.5184
 20
132.3057
 11
-135.5184
 21
122.7057
  0
LINE
  8
0
  6
CONTINUOUS
 62
     7
 10
-147.2184
 20
138.6057
 11
-138.2184
 21
138.6057
  0
LINE
  8
0
  6
CONTINUOUS
 62
     7
 10
-147.2184
 20
142.1057
 11
-138.2184
 21
142.1057
  0
LINE
  8
0
  6
CONTINUOUS
 62
     7
 10
-137.7184
 20
141.6057
 11
-137.7184
 21
139.1057
  0
LINE
  8
0
  6
CONTINUOUS
 62
     7
 10
-147.7184
 20
141.6057
 11
-147.7184
 21
139.1057
  0
LINE
  8
0
  6
CONTINUOUS
 62
     7
 10
-146.7184
 20
152.2057
 11
-146.7184
 21
149.2057
  0
LINE
  8
0
  6
CONTINUOUS
 62
     7
 10
-138.7184
 20
152.2057
 11
-138.7184
 21
149.2057
  0
LINE
  8
0
  6
CONTINUOUS
 62
     7
 10
-137.7184
 20
141.6056
 11
-138.2184
 21
142.1056
  0
LINE
  8
0
  6
CONTINUOUS
 62
     7
 10
-147.2184
 20
142.1057
 11
-147.7184
 21
141.6057
  0
LINE
  8
0
  6
CONTINUOUS
 62
     7
 10
-147.7184
 20
139.1057
 11
-147.2184
 21
138.6057
  0
LINE
  8
0
  6
CONTINUOUS
 62
     7
 10
-138.2184
 20
138.6057
 11
-137.7184
 21
139.1057
  0
LINE
  8
0
  6
CONTINUOUS
 62
     7
 10
-138.7184
 20
152.2057
 11
-139.2184
 21
152.7057
  0
LINE
  8
0
  6
CONTINUOUS
 62
     7
 10
-146.2184
 20
152.7057
 11
-146.7184
 21
152.2057
  0
LINE
  8
0
  6
CONTINUOUS
 62
     7
 10
-146.7184
 20
149.2056
 11
-146.2184
 21
148.7056
  0
LINE
  8
0
  6
CONTINUOUS
 62
     7
 10
-139.2184
 20
148.7057
 11
-138.7184
 21
149.2056
  0
LINE
  8
0
  6
CONTINUOUS
 62
     7
 10
-146.7184
 20
152.2057
 11
-138.7184
 21
152.2057
  0
LINE
  8
0
  6
CONTINUOUS
 62
     7
 10
-146.7184
 20
149.2057
 11
-138.7184
 21
149.2057
  0
LINE
  8
0
  6
CONTINUOUS
 62
     7
 10
-147.7184
 20
141.6057
 11
-137.7184
 21
141.6057
  0
LINE
  8
0
  6
CONTINUOUS
 62
     7
 10
-147.7184
 20
139.1057
 11
-137.7184
 21
139.1057
  0
LINE
  8
0
  6
CONTINUOUS
 62
     7
 10
-145.7184
 20
152.2057
 11
-145.7184
 21
149.2057
  0
LINE
  8
0
  6
CONTINUOUS
 62
     7
 10
-144.7184
 20
152.2057
 11
-144.7184
 21
149.2057
  0
LINE
  8
0
  6
CONTINUOUS
 62
     7
 10
-143.7184
 20
152.2057
 11
-143.7184
 21
149.2057
  0
LINE
  8
0
  6
CONTINUOUS
 62
     7
 10
-146.7184
 20
141.6057
 11
-146.7184
 21
139.1057
  0
LINE
  8
0
  6
CONTINUOUS
 62
     7
 10
-145.7184
 20
141.6057
 11
-145.7184
 21
139.1057
  0
LINE
  8
0
  6
CONTINUOUS
 62
     7
 10
-144.7184
 20
141.6057
 11
-144.7184
 21
139.1057
  0
LINE
  8
0
  6
CONTINUOUS
 62
     7
 10
-143.7184
 20
141.6057
 11
-143.7184
 21
139.1057
  0
LINE
  8
0
  6
CONTINUOUS
 62
     7
 10
-145.2184
 20
148.7057
 11
-145.2184
 21
142.1057
  0
LINE
  8
0
  6
CONTINUOUS
 62
     7
 10
-140.2184
 20
148.7057
 11
-140.2184
 21
142.1057
  0
LINE
  8
0
  6
CONTINUOUS
 62
     7
 10
-140.6514
 20
148.7057
 11
-140.6514
 21
142.1057
  0
LINE
  8
0
  6
CONTINUOUS
 62
     7
 10
-144.7854
 20
148.7057
 11
-144.7854
 21
142.1057
  0
LINE
  8
0
  6
CONTINUOUS
 62
     7
 10
-138.7184
 20
138.6057
 11
-138.7184
 21
137.5057
  0
LINE
  8
0
  6
CONTINUOUS
 62
     7
 10
-146.7184
 20
138.6057
 11
-146.7184
 21
137.5057
  0
LINE
  8
0
  6
CONTINUOUS
 62
     7
 10
-137.7044
 20
121.5057
 11
-137.9794
 21
112.7057
  0
LINE
  8
0
  6
CONTINUOUS
 62
     7
 10
-138.2854
 20
121.5057
 11
-138.5604
 21
112.7057
  0
LINE
  8
0
  6
CONTINUOUS
 62
     7
 10
-147.1514
 20
121.5057
 11
-146.8764
 21
112.7057
  0
LINE
  8
0
  6
CONTINUOUS
 62
     7
 10
-147.7324
 20
121.5057
 11
-147.4574
 21
112.7057
  0
LINE
  8
0
  6
CENTER
 62
     2
 10
-92.7184
 20
195.7057
 11
-92.7184
 21
177.7057
  0
LINE
  8
0
  6
CONTINUOUS
 62
     7
 10
-96.2184
 20
152.7057
 11
-89.21839
 21
152.7057
  0
LINE
  8
0
  6
CONTINUOUS
 62
     7
 10
-97.4574
 20
112.7057
 11
-87.9794
 21
112.7057
  0
LINE
  8
0
  6
CENTER
 62
     2
 10
-92.7184
 20
155.6516
 11
-92.7184
 21
110.1094
  0
LINE
  8
0
  6
CONTINUOUS
 62
     7
 10
-99.9184
 20
132.3057
 11
-99.9184
 21
122.7057
  0
LINE
  8
0
  6
CONTINUOUS
 62
     7
 10
-96.2184
 20
148.7057
 11
-89.2184
 21
148.7057
  0
LINE
  8
0
  6
CONTINUOUS
 62
     7
 10
-99.9184
 20
122.7057
 11
-85.5184
 21
122.7057
  0
LINE
  8
0
  6
CONTINUOUS
 62
     7
 10
-99.9184
 20
132.3057
 11
-85.5184
 21
132.3057
  0
LINE
  8
0
  6
CONTINUOUS
 62
     7
 10
-85.5184
 20
132.3057
 11
-86.21122
 21
133.5057
  0
LINE
  8
0
  6
CONTINUOUS
 62
     7
 10
-99.91841
 20
122.7057
 11
-99.22559
 21
121.5057
  0
LINE
  8
0
  6
CONTINUOUS
 62
     7
 10
-99.9184
 20
132.3056
 11
-99.22558
 21
133.5057
  0
LINE
  8
0
  6
CONTINUOUS
 62
     7
 10
-85.5184
 20
122.7057
 11
-86.21122
 21
121.5057
  0
LINE
  8
0
  6
CONTINUOUS
 62
     7
 10
-97.7184
 20
137.5057
 11
-87.7184
 21
137.5057
  0
LINE
  8
0
  6
CONTINUOUS
 62
     7
 10
-86.94489
 20
137.0591
 11
-86.94489
 21
133.5057
  0
LINE
  8
0
  6
CONTINUOUS
 62
     7
 10
-98.49191
 20
137.0591
 11
-98.49191
 21
133.5057
  0
LINE
  8
0
  6
CONTINUOUS
 62
     7
 10
-95.60516
 20
137.0591
 11
-95.60516
 21
133.5057
  0
LINE
  8
0
  6
CONTINUOUS
 62
     7
 10
-89.83165
 20
137.0591
 11
-89.83165
 21
133.5057
  0
LINE
  8
0
  6
CONTINUOUS
 62
     7
 10
-87.71839
 20
137.5057
 11
-86.94489
 21
137.0591
  0
LINE
  8
0
  6
CONTINUOUS
 62
     7
 10
-97.71841
 20
137.5057
 11
-98.49191
 21
137.0591
  0
LINE
  8
0
  6
CONTINUOUS
 62
     7
 10
-97.2184
 20
138.6057
 11
-88.2184
 21
138.6057
  0
LINE
  8
0
  6
CONTINUOUS
 62
     7
 10
-97.2184
 20
142.1057
 11
-88.2184
 21
142.1057
  0
LINE
  8
0
  6
CONTINUOUS
 62
     7
 10
-87.7184
 20
141.6057
 11
-87.7184
 21
139.1057
  0
LINE
  8
0
  6
CONTINUOUS
 62
     7
 10
-97.7184
 20
141.6057
 11
-97.7184
 21
139.1057
  0
LINE
  8
0
  6
CONTINUOUS
 62
     7
 10
-96.7184
 20
152.2057
 11
-96.7184
 21
149.2057
  0
LINE
  8
0
  6
CONTINUOUS
 62
     7
 10
-88.7184
 20
152.2057
 11
-88.7184
 21
149.2057
  0
LINE
  8
0
  6
CONTINUOUS
 62
     7
 10
-87.7184
 20
141.6057
 11
-88.2184
 21
142.1057
  0
LINE
  8
0
  6
CONTINUOUS
 62
     7
 10
-97.2184
 20
142.1057
 11
-97.7184
 21
141.6057
  0
LINE
  8
0
  6
CONTINUOUS
 62
     7
 10
-97.7184
 20
139.1057
 11
-97.2184
 21
138.6057
  0
LINE
  8
0
  6
CONTINUOUS
 62
     7
 10
-88.21839
 20
138.6057
 11
-87.71839
 21
139.1057
  0
LINE
  8
0
  6
CONTINUOUS
 62
     7
 10
-88.71839
 20
152.2057
 11
-89.21839
 21
152.7057
  0
LINE
  8
0
  6
CONTINUOUS
 62
     7
 10
-96.21839
 20
152.7057
 11
-96.71839
 21
152.2057
  0
LINE
  8
0
  6
CONTINUOUS
 62
     7
 10
-96.71839
 20
149.2056
 11
-96.21839
 21
148.7056
  0
LINE
  8
0
  6
CONTINUOUS
 62
     7
 10
-89.2184
 20
148.7057
 11
-88.7184
 21
149.2057
  0
LINE
  8
0
  6
CONTINUOUS
 62
     7
 10
-96.7184
 20
152.2057
 11
-88.7184
 21
152.2057
  0
LINE
  8
0
  6
CONTINUOUS
 62
     7
 10
-96.7184
 20
149.2057
 11
-88.7184
 21
149.2057
  0
LINE
  8
0
  6
CONTINUOUS
 62
     7
 10
-97.7184
 20
141.6057
 11
-87.7184
 21
141.6057
  0
LINE
  8
0
  6
CONTINUOUS
 62
     7
 10
-97.7184
 20
139.1057
 11
-87.7184
 21
139.1057
  0
LINE
  8
0
  6
CONTINUOUS
 62
     7
 10
-95.7184
 20
152.2057
 11
-95.7184
 21
149.2057
  0
LINE
  8
0
  6
CONTINUOUS
 62
     7
 10
-94.7184
 20
152.2057
 11
-94.7184
 21
149.2057
  0
LINE
  8
0
  6
CONTINUOUS
 62
     7
 10
-93.7184
 20
152.2057
 11
-93.7184
 21
149.2057
  0
LINE
  8
0
  6
CONTINUOUS
 62
     7
 10
-96.7184
 20
141.6057
 11
-96.7184
 21
139.1057
  0
LINE
  8
0
  6
CONTINUOUS
 62
     7
 10
-95.7184
 20
141.6057
 11
-95.7184
 21
139.1057
  0
LINE
  8
0
  6
CONTINUOUS
 62
     7
 10
-94.7184
 20
141.6057
 11
-94.7184
 21
139.1057
  0
LINE
  8
0
  6
CONTINUOUS
 62
     7
 10
-93.7184
 20
141.6057
 11
-93.7184
 21
139.1057
  0
LINE
  8
0
  6
CONTINUOUS
 62
     7
 10
-95.2184
 20
148.7057
 11
-95.2184
 21
142.1057
  0
LINE
  8
0
  6
CONTINUOUS
 62
     7
 10
-90.2184
 20
148.7057
 11
-90.2184
 21
142.1057
  0
LINE
  8
0
  6
CONTINUOUS
 62
     7
 10
-90.6514
 20
148.7057
 11
-90.6514
 21
142.1057
  0
LINE
  8
0
  6
CONTINUOUS
 62
     7
 10
-94.7854
 20
148.7057
 11
-94.7854
 21
142.1057
  0
LINE
  8
0
  6
CONTINUOUS
 62
     7
 10
-88.7184
 20
138.6057
 11
-88.7184
 21
137.5057
  0
LINE
  8
0
  6
CONTINUOUS
 62
     7
 10
-96.7184
 20
138.6057
 11
-96.7184
 21
137.5057
  0
LINE
  8
0
  6
CONTINUOUS
 62
     7
 10
-87.70441
 20
121.5057
 11
-87.9794
 21
112.7057
  0
LINE
  8
0
  6
CONTINUOUS
 62
     7
 10
-88.2854
 20
121.5057
 11
-88.5604
 21
112.7057
  0
LINE
  8
0
  6
CONTINUOUS
 62
     7
 10
-97.1514
 20
121.5057
 11
-96.8764
 21
112.7057
  0
LINE
  8
0
  6
CONTINUOUS
 62
     7
 10
-97.7324
 20
121.5057
 11
-97.4574
 21
112.7057
  0
LINE
  8
0
  6
CONTINUOUS
 62
     7
 10
-46.2184
 20
152.7057
 11
-39.2184
 21
152.7057
  0
LINE
  8
0
  6
CONTINUOUS
 62
     7
 10
-47.4574
 20
112.7057
 11
-37.9794
 21
112.7057
  0
LINE
  8
0
  6
CONTINUOUS
 62
     7
 10
-49.9184
 20
132.3057
 11
-49.9184
 21
122.7057
  0
LINE
  8
0
  6
CONTINUOUS
 62
     7
 10
-46.2184
 20
148.7057
 11
-39.2184
 21
148.7057
  0
LINE
  8
0
  6
CONTINUOUS
 62
     7
 10
-49.22556
 20
121.5057
 11
-36.21122
 21
121.5057
  0
LINE
  8
0
  6
CONTINUOUS
 62
     7
 10
-49.22558
 20
133.5057
 11
-48.9684
 21
133.5057
  0
LINE
  8
0
  6
CONTINUOUS
 62
     7
 10
-49.9184
 20
122.7057
 11
-43.4684
 21
122.7057
  0
LINE
  8
0
  6
CONTINUOUS
 62
     7
 10
-49.9184
 20
132.3057
 11
-48.06841
 21
132.3057
  0
LINE
  8
0
  6
CONTINUOUS
 62
     7
 10
-35.5184
 20
132.3057
 11
-36.21122
 21
133.5057
  0
LINE
  8
0
  6
CONTINUOUS
 62
     7
 10
-49.91838
 20
122.7057
 11
-49.22555
 21
121.5057
  0
LINE
  8
0
  6
CONTINUOUS
 62
     7
 10
-49.9184
 20
132.3056
 11
-49.22558
 21
133.5056
  0
LINE
  8
0
  6
CONTINUOUS
 62
     7
 10
-35.5184
 20
122.7057
 11
-36.21122
 21
121.5057
  0
LINE
  8
0
  6
CONTINUOUS
 62
     7
 10
-35.5184
 20
132.3057
 11
-35.5184
 21
122.7057
  0
LINE
  8
0
  6
CONTINUOUS
 62
     7
 10
-46.7184
 20
152.2057
 11
-46.7184
 21
149.2057
  0
LINE
  8
0
  6
CONTINUOUS
 62
     7
 10
-38.7184
 20
152.2057
 11
-38.7184
 21
149.2057
  0
LINE
  8
0
  6
CONTINUOUS
 62
     7
 10
-38.7184
 20
152.2057
 11
-39.2184
 21
152.7057
  0
LINE
  8
0
  6
CONTINUOUS
 62
     7
 10
-46.2184
 20
152.7057
 11
-46.7184
 21
152.2057
  0
LINE
  8
0
  6
CONTINUOUS
 62
     7
 10
-46.71841
 20
149.2056
 11
-46.21841
 21
148.7056
  0
LINE
  8
0
  6
CONTINUOUS
 62
     7
 10
-39.2184
 20
148.7057
 11
-38.7184
 21
149.2057
  0
LINE
  8
0
  6
CONTINUOUS
 62
     7
 10
-46.7184
 20
152.2057
 11
-38.7184
 21
152.2057
  0
LINE
  8
0
  6
CONTINUOUS
 62
     7
 10
-46.7184
 20
149.2057
 11
-38.7184
 21
149.2057
  0
LINE
  8
0
  6
CONTINUOUS
 62
     7
 10
-45.7184
 20
152.2057
 11
-45.7184
 21
149.2057
  0
LINE
  8
0
  6
CONTINUOUS
 62
     7
 10
-44.7184
 20
152.2057
 11
-44.7184
 21
149.2057
  0
LINE
  8
0
  6
CONTINUOUS
 62
     7
 10
-43.7184
 20
152.2057
 11
-43.7184
 21
149.2057
  0
LINE
  8
0
  6
CONTINUOUS
 62
     7
 10
-45.2184
 20
148.7057
 11
-45.2184
 21
147.7057
  0
LINE
  8
0
  6
CONTINUOUS
 62
     7
 10
-40.2184
 20
148.7057
 11
-40.2184
 21
147.7057
  0
LINE
  8
0
  6
CONTINUOUS
 62
     7
 10
-40.6514
 20
148.7057
 11
-40.6514
 21
147.7057
  0
LINE
  8
0
  6
CONTINUOUS
 62
     7
 10
-44.7854
 20
148.7057
 11
-44.7854
 21
147.7057
  0
LINE
  8
0
  6
CONTINUOUS
 62
     7
 10
-37.7044
 20
121.5057
 11
-37.9794
 21
112.7057
  0
LINE
  8
0
  6
CONTINUOUS
 62
     7
 10
-38.2854
 20
121.5057
 11
-38.5604
 21
112.7057
  0
LINE
  8
0
  6
CONTINUOUS
 62
     7
 10
-47.1514
 20
121.5057
 11
-46.8764
 21
112.7057
  0
LINE
  8
0
  6
CONTINUOUS
 62
     7
 10
-47.7324
 20
121.5057
 11
-47.4574
 21
112.7057
  0
LINE
  8
0
  6
CONTINUOUS
 62
     7
 10
-37.3684
 20
132.3057
 11
-35.5184
 21
132.3057
  0
LINE
  8
0
  6
CONTINUOUS
 62
     7
 10
-41.9684
 20
122.7057
 11
-35.5184
 21
122.7057
  0
LINE
  8
0
  6
CONTINUOUS
 62
     7
 10
-36.4684
 20
133.5057
 11
-36.21122
 21
133.5057
  0
LINE
  8
0
  6
CONTINUOUS
 62
     7
 10
-147.7184
 20
137.5057
 11
-147.7184
 21
133.5057
  0
LINE
  8
0
  6
CONTINUOUS
 62
     7
 10
-137.7184
 20
137.5057
 11
-137.7184
 21
133.5057
  0
LINE
  8
0
  6
CONTINUOUS
 62
     7
 10
-142.7184
 20
137.0591
 11
-142.7184
 21
133.5057
  0
LINE
  8
0
  6
CENTER
 62
     2
 10
-42.7184
 20
1.09322
 11
-42.7184
 21
-51.63321
  0
LINE
  8
0
  6
CONTINUOUS
 62
     7
 10
-49.1094
 20
-49.0
 11
-36.3274
 21
-49.0
  0
LINE
  8
0
  6
CONTINUOUS
 62
     7
 10
-51.22558
 20
-37.5
 11
-34.21123
 21
-37.5
  0
LINE
  8
0
  6
CONTINUOUS
 62
     7
 10
-51.22558
 20
-25.5
 11
-48.96841
 21
-25.5
  0
LINE
  8
0
  6
CONTINUOUS
 62
     7
 10
-49.7184
 20
-19.5
 11
-48.96841
 21
-19.5
  0
LINE
  8
0
  6
CONTINUOUS
 62
     7
 10
-47.2184
 20
-1.5
 11
-38.2184
 21
-1.5
  0
LINE
  8
0
  6
CONTINUOUS
 62
     7
 10
-47.2184
 20
-6.5
 11
-38.2184
 21
-6.5
  0
LINE
  8
0
  6
CONTINUOUS
 62
     7
 10
-33.5184
 20
-26.7
 11
-33.5184
 21
-36.3
  0
LINE
  8
0
  6
CONTINUOUS
 62
     7
 10
-51.9184
 20
-26.7
 11
-51.9184
 21
-36.3
  0
LINE
  8
0
  6
CENTER
 62
     2
 10
-103.7184
 20
27.0
 11
-66.27211
 21
27.0
  0
LINE
  8
0
  6
CENTER
 62
     2
 10
-92.7184
 20
38.0
 11
-92.7184
 21
16.0
  0
LINE
  8
0
  6
CONTINUOUS
 62
     7
 10
-96.75986
 20
20.0
 11
-100.8013
 21
27.0
  0
LINE
  8
0
  6
CONTINUOUS
 62
     7
 10
-84.63551
 20
27.0
 11
-88.67696
 21
34.0
  0
LINE
  8
0
  6
CONTINUOUS
 62
     7
 10
-96.75985
 20
34.0
 11
-88.67695
 21
34.0
  0
LINE
  8
0
  6
CONTINUOUS
 62
     7
 10
-96.75985
 20
20.0
 11
-88.67695
 21
20.0
  0
LINE
  8
0
  6
CONTINUOUS
 62
     7
 10
-100.8013
 20
27.0
 11
-96.75985
 21
34.0
  0
LINE
  8
0
  6
CONTINUOUS
 62
     7
 10
-88.67696
 20
20.0
 11
-84.63551
 21
27.0
  0
LINE
  8
0
  6
CONTINUOUS
 62
     7
 10
-36.2184
 20
-14.5
 11
-36.2184
 21
-17.0
  0
LINE
  8
0
  6
CONTINUOUS
 62
     7
 10
-49.2184
 20
-14.5
 11
-49.2184
 21
-17.0
  0
LINE
  8
0
  6
CONTINUOUS
 62
     7
 10
-47.7184
 20
-2.0
 11
-47.7184
 21
-6.0
  0
LINE
  8
0
  6
CONTINUOUS
 62
     7
 10
-37.7184
 20
-2.0
 11
-37.7184
 21
-6.0
  0
LINE
  8
0
  6
CONTINUOUS
 62
     7
 10
-36.21841
 20
-14.50002
 11
-36.71841
 21
-14.00002
  0
LINE
  8
0
  6
CONTINUOUS
 62
     7
 10
-48.7184
 20
-14.0
 11
-49.2184
 21
-14.5
  0
LINE
  8
0
  6
CONTINUOUS
 62
     7
 10
-49.21841
 20
-17.00002
 11
-48.9684
 21
-17.25002
  0
LINE
  8
0
  6
CONTINUOUS
 62
     7
 10
-36.4684
 20
-17.25
 11
-36.2184
 21
-17.0
  0
LINE
  8
0
  6
CONTINUOUS
 62
     7
 10
-37.7184
 20
-1.99999
 11
-38.2184
 21
-1.49999
  0
LINE
  8
0
  6
CONTINUOUS
 62
     7
 10
-47.2184
 20
-1.5
 11
-47.7184
 21
-2.0
  0
LINE
  8
0
  6
CONTINUOUS
 62
     7
 10
-47.7184
 20
-6.0
 11
-47.2184
 21
-6.5
  0
LINE
  8
0
  6
CONTINUOUS
 62
     7
 10
-38.2184
 20
-6.5
 11
-37.7184
 21
-6.0
  0
LINE
  8
0
  6
CONTINUOUS
 62
     7
 10
-47.7184
 20
-2.0
 11
-37.7184
 21
-2.0
  0
LINE
  8
0
  6
CONTINUOUS
 62
     7
 10
-47.7184
 20
-6.0
 11
-37.7184
 21
-6.0
  0
LINE
  8
0
  6
CONTINUOUS
 62
     7
 10
-49.2184
 20
-14.5
 11
-48.46841
 21
-14.5
  0
LINE
  8
0
  6
CONTINUOUS
 62
     7
 10
-49.2184
 20
-17.0
 11
-48.96841
 21
-17.0
  0
LINE
  8
0
  6
CONTINUOUS
 62
     7
 10
-46.7184
 20
-2.0
 11
-46.7184
 21
-6.0
  0
LINE
  8
0
  6
CONTINUOUS
 62
     7
 10
-45.7184
 20
-2.0
 11
-45.7184
 21
-6.0
  0
LINE
  8
0
  6
CONTINUOUS
 62
     7
 10
-44.7184
 20
-2.0
 11
-44.7184
 21
-6.0
  0
LINE
  8
0
  6
CONTINUOUS
 62
     7
 10
-43.7184
 20
-2.0
 11
-43.7184
 21
-6.0
  0
LINE
  8
0
  6
CONTINUOUS
 62
     7
 10
-39.7184
 20
-6.5
 11
-39.7184
 21
-11.0
  0
LINE
  8
0
  6
CONTINUOUS
 62
     7
 10
-45.7184
 20
-6.5
 11
-45.7184
 21
-11.0
  0
LINE
  8
0
  6
CONTINUOUS
 62
     7
 10
-40.2329
 20
-6.5
 11
-40.2329
 21
-11.0
  0
LINE
  8
0
  6
CONTINUOUS
 62
     7
 10
-45.2039
 20
-6.5
 11
-45.2039
 21
-11.0
  0
LINE
  8
0
  6
CONTINUOUS
 62
     7
 10
-51.9184
 20
-26.7
 11
-48.26839
 21
-26.7
  0
LINE
  8
0
  6
CONTINUOUS
 62
     7
 10
-51.9184
 20
-36.3
 11
-43.4684
 21
-36.3
  0
LINE
  8
0
  6
CONTINUOUS
 62
     7
 10
-33.5184
 20
-26.70001
 11
-34.21122
 21
-25.50001
  0
LINE
  8
0
  6
CONTINUOUS
 62
     7
 10
-51.9184
 20
-36.3
 11
-51.22557
 21
-37.5
  0
LINE
  8
0
  6
CONTINUOUS
 62
     7
 10
-51.9184
 20
-26.7
 11
-51.22558
 21
-25.5
  0
LINE
  8
0
  6
CONTINUOUS
 62
     7
 10
-33.51841
 20
-36.29999
 11
-34.21123
 21
-37.49999
  0
LINE
  8
0
  6
CONTINUOUS
 62
     7
 10
-35.96803
 20
-37.5
 11
-36.3274
 21
-49.0
  0
LINE
  8
0
  6
CONTINUOUS
 62
     7
 10
-36.82402
 20
-37.5
 11
-37.1834
 21
-49.0
  0
LINE
  8
0
  6
CONTINUOUS
 62
     7
 10
-48.61277
 20
-37.5
 11
-48.25339
 21
-49.0
  0
LINE
  8
0
  6
CONTINUOUS
 62
     7
 10
-49.46878
 20
-37.5
 11
-49.1094
 21
-49.0
  0
LINE
  8
0
  6
CENTER
 62
     2
 10
-92.7184
 20
1.26791
 11
-92.7184
 21
-51.63321
  0
LINE
  8
0
  6
CONTINUOUS
 62
     7
 10
-99.1094
 20
-49.0
 11
-86.3274
 21
-49.0
  0
LINE
  8
0
  6
CONTINUOUS
 62
     7
 10
-101.2256
 20
-37.5
 11
-70.7684
 21
-37.5
  0
LINE
  8
0
  6
CONTINUOUS
 62
     7
 10
-101.2256
 20
-25.5
 11
-81.7684
 21
-25.5
  0
LINE
  8
0
  6
CONTINUOUS
 62
     7
 10
-99.71839
 20
-19.5
 11
-85.7184
 21
-19.5
  0
LINE
  8
0
  6
CONTINUOUS
 62
     7
 10
-98.7184
 20
-17.5
 11
-86.7184
 21
-17.5
  0
LINE
  8
0
  6
CONTINUOUS
 62
     7
 10
-98.7184
 20
-14.0
 11
-86.7184
 21
-14.0
  0
LINE
  8
0
  6
CONTINUOUS
 62
     7
 10
-97.2184
 20
-1.5
 11
-88.2184
 21
-1.5
  0
LINE
  8
0
  6
CONTINUOUS
 62
     7
 10
-97.2184
 20
-6.5
 11
-88.2184
 21
-6.5
  0
LINE
  8
0
  6
CONTINUOUS
 62
     7
 10
-83.5184
 20
-26.7
 11
-83.5184
 21
-27.75
  0
LINE
  8
0
  6
CONTINUOUS
 62
     7
 10
-101.9184
 20
-26.7
 11
-101.9184
 21
-36.3
  0
LINE
  8
0
  6
CONTINUOUS
 62
     7
 10
-84.6355
 20
-20.12521
 11
-84.6355
 21
-25.5
  0
LINE
  8
0
  6
CONTINUOUS
 62
     7
 10
-100.8013
 20
-20.12522
 11
-100.8013
 21
-25.5
  0
LINE
  8
0
  6
CONTINUOUS
 62
     7
 10
-96.75985
 20
-20.12521
 11
-96.75985
 21
-25.5
  0
LINE
  8
0
  6
CONTINUOUS
 62
     7
 10
-88.67695
 20
-20.12521
 11
-88.67695
 21
-25.5
  0
LINE
  8
0
  6
CONTINUOUS
 62
     7
 10
-85.71838
 20
-19.50001
 11
-84.63548
 21
-20.12522
  0
LINE
  8
0
  6
CONTINUOUS
 62
     7
 10
-88.2184
 20
-17.5
 11
-88.2184
 21
-19.5
  0
LINE
  8
0
  6
CONTINUOUS
 62
     7
 10
-97.2184
 20
-17.5
 11
-97.2184
 21
-19.5
  0
LINE
  8
0
  6
CONTINUOUS
 62
     7
 10
-86.2184
 20
-14.5
 11
-86.2184
 21
-17.0
  0
LINE
  8
0
  6
CONTINUOUS
 62
     7
 10
-99.2184
 20
-14.5
 11
-99.2184
 21
-17.0
  0
LINE
  8
0
  6
CONTINUOUS
 62
     7
 10
-97.7184
 20
-2.0
 11
-97.7184
 21
-6.0
  0
LINE
  8
0
  6
CONTINUOUS
 62
     7
 10
-87.7184
 20
-2.0
 11
-87.7184
 21
-6.0
  0
LINE
  8
0
  6
CONTINUOUS
 62
     7
 10
-86.2184
 20
-14.5
 11
-86.7184
 21
-14.00001
  0
LINE
  8
0
  6
CONTINUOUS
 62
     7
 10
-98.71839
 20
-14.0
 11
-99.21839
 21
-14.5
  0
LINE
  8
0
  6
CONTINUOUS
 62
     7
 10
-99.21839
 20
-17.0
 11
-98.71839
 21
-17.5
  0
LINE
  8
0
  6
CONTINUOUS
 62
     7
 10
-86.71839
 20
-17.5
 11
-86.21839
 21
-17.0
  0
LINE
  8
0
  6
CONTINUOUS
 62
     7
 10
-87.7184
 20
-2.0
 11
-88.2184
 21
-1.5
  0
LINE
  8
0
  6
CONTINUOUS
 62
     7
 10
-97.2184
 20
-1.5
 11
-97.7184
 21
-2.0
  0
LINE
  8
0
  6
CONTINUOUS
 62
     7
 10
-97.71839
 20
-6.0
 11
-97.2184
 21
-6.5
  0
LINE
  8
0
  6
CONTINUOUS
 62
     7
 10
-88.21839
 20
-6.5
 11
-87.71839
 21
-6.0
  0
LINE
  8
0
  6
CONTINUOUS
 62
     7
 10
-97.7184
 20
-2.0
 11
-87.7184
 21
-2.0
  0
LINE
  8
0
  6
CONTINUOUS
 62
     7
 10
-97.7184
 20
-6.0
 11
-87.7184
 21
-6.0
  0
LINE
  8
0
  6
CONTINUOUS
 62
     7
 10
-99.2184
 20
-14.5
 11
-86.2184
 21
-14.5
  0
LINE
  8
0
  6
CONTINUOUS
 62
     7
 10
-99.2184
 20
-17.0
 11
-86.2184
 21
-17.0
  0
LINE
  8
0
  6
CONTINUOUS
 62
     7
 10
-96.7184
 20
-2.0
 11
-96.7184
 21
-6.0
  0
LINE
  8
0
  6
CONTINUOUS
 62
     7
 10
-95.7184
 20
-2.0
 11
-95.7184
 21
-6.0
  0
LINE
  8
0
  6
CONTINUOUS
 62
     7
 10
-94.7184
 20
-2.0
 11
-94.7184
 21
-6.0
  0
LINE
  8
0
  6
CONTINUOUS
 62
     7
 10
-93.7184
 20
-2.0
 11
-93.7184
 21
-6.0
  0
LINE
  8
0
  6
CONTINUOUS
 62
     7
 10
-98.2184
 20
-14.5
 11
-98.2184
 21
-17.0
  0
LINE
  8
0
  6
CONTINUOUS
 62
     7
 10
-97.2184
 20
-14.5
 11
-97.2184
 21
-17.0
  0
LINE
  8
0
  6
CONTINUOUS
 62
     7
 10
-96.2184
 20
-14.5
 11
-96.2184
 21
-17.0
  0
LINE
  8
0
  6
CONTINUOUS
 62
     7
 10
-95.2184
 20
-14.5
 11
-95.2184
 21
-17.0
  0
LINE
  8
0
  6
CONTINUOUS
 62
     7
 10
-94.2184
 20
-14.5
 11
-94.2184
 21
-17.0
  0
LINE
  8
0
  6
CONTINUOUS
 62
     7
 10
-93.2184
 20
-14.5
 11
-93.2184
 21
-17.0
  0
LINE
  8
0
  6
CONTINUOUS
 62
     7
 10
-89.7184
 20
-6.5
 11
-89.7184
 21
-14.0
  0
LINE
  8
0
  6
CONTINUOUS
 62
     7
 10
-95.7184
 20
-6.5
 11
-95.7184
 21
-14.0
  0
LINE
  8
0
  6
CONTINUOUS
 62
     7
 10
-90.2329
 20
-6.5
 11
-90.2329
 21
-14.0
  0
LINE
  8
0
  6
CONTINUOUS
 62
     7
 10
-95.2039
 20
-6.5
 11
-95.2039
 21
-14.0
  0
LINE
  8
0
  6
CONTINUOUS
 62
     7
 10
-99.7184
 20
-19.5
 11
-100.8013
 21
-20.12522
  0
LINE
  8
0
  6
CONTINUOUS
 62
     7
 10
-101.9184
 20
-26.7
 11
-83.5184
 21
-26.7
  0
LINE
  8
0
  6
CONTINUOUS
 62
     7
 10
-101.9184
 20
-36.3
 11
-83.5184
 21
-36.3
  0
LINE
  8
0
  6
CONTINUOUS
 62
     7
 10
-83.5184
 20
-26.7
 11
-84.21122
 21
-25.5
  0
LINE
  8
0
  6
CONTINUOUS
 62
     7
 10
-101.9184
 20
-36.3
 11
-101.2256
 21
-37.5
  0
LINE
  8
0
  6
CONTINUOUS
 62
     7
 10
-101.9184
 20
-26.7
 11
-101.2256
 21
-25.5
  0
LINE
  8
0
  6
CONTINUOUS
 62
     7
 10
-83.5184
 20
-36.3
 11
-84.21122
 21
-37.5
  0
LINE
  8
0
  6
CONTINUOUS
 62
     7
 10
-85.96803
 20
-37.5
 11
-86.3274
 21
-49.0
  0
LINE
  8
0
  6
CONTINUOUS
 62
     7
 10
-86.82403
 20
-37.5
 11
-87.1834
 21
-49.0
  0
LINE
  8
0
  6
CONTINUOUS
 62
     7
 10
-98.61276
 20
-37.5
 11
-98.25339
 21
-49.0
  0
LINE
  8
0
  6
CONTINUOUS
 62
     7
 10
-99.46877
 20
-37.5
 11
-99.1094
 21
-49.0
  0
LINE
  8
0
  6
CONTINUOUS
 62
     7
 10
-35.7184
 20
-19.5
 11
-35.7184
 21
-25.5
  0
LINE
  8
0
  6
CONTINUOUS
 62
     7
 10
-49.7184
 20
-19.5
 11
-49.7184
 21
-25.5
  0
LINE
  8
0
  6
CONTINUOUS
 62
     7
 10
-42.7184
 20
-20.12521
 11
-42.7184
 21
-25.25
  0
LINE
  8
0
  6
CENTER
 62
     2
 10
-142.7184
 20
1.09322
 11
-142.7184
 21
-51.63321
  0
LINE
  8
0
  6
CONTINUOUS
 62
     7
 10
-149.1094
 20
-49.0
 11
-136.3274
 21
-49.0
  0
LINE
  8
0
  6
CONTINUOUS
 62
     7
 10
-151.2256
 20
-37.5
 11
-134.2112
 21
-37.5
  0
LINE
  8
0
  6
CONTINUOUS
 62
     7
 10
-151.2256
 20
-25.5
 11
-134.2112
 21
-25.5
  0
LINE
  8
0
  6
CONTINUOUS
 62
     7
 10
-149.7184
 20
-19.5
 11
-135.7184
 21
-19.5
  0
LINE
  8
0
  6
CONTINUOUS
 62
     7
 10
-148.7184
 20
-17.5
 11
-136.7184
 21
-17.5
  0
LINE
  8
0
  6
CONTINUOUS
 62
     7
 10
-147.2184
 20
-1.5
 11
-138.2184
 21
-1.5
  0
LINE
  8
0
  6
CONTINUOUS
 62
     7
 10
-147.2184
 20
-6.5
 11
-138.2184
 21
-6.5
  0
LINE
  8
0
  6
CONTINUOUS
 62
     7
 10
-133.5184
 20
-26.7
 11
-133.5184
 21
-36.3
  0
LINE
  8
0
  6
CONTINUOUS
 62
     7
 10
-151.9184
 20
-26.7
 11
-151.9184
 21
-36.3
  0
LINE
  8
0
  6
CONTINUOUS
 62
     7
 10
-138.2184
 20
-17.5
 11
-138.2184
 21
-19.5
  0
LINE
  8
0
  6
CONTINUOUS
 62
     7
 10
-147.2184
 20
-17.5
 11
-147.2184
 21
-19.5
  0
LINE
  8
0
  6
CONTINUOUS
 62
     7
 10
-136.2184
 20
-14.5
 11
-136.2184
 21
-17.0
  0
LINE
  8
0
  6
CONTINUOUS
 62
     7
 10
-149.2184
 20
-14.5
 11
-149.2184
 21
-17.0
  0
LINE
  8
0
  6
CONTINUOUS
 62
     7
 10
-147.7184
 20
-2.0
 11
-147.7184
 21
-6.0
  0
LINE
  8
0
  6
CONTINUOUS
 62
     7
 10
-137.7184
 20
-2.0
 11
-137.7184
 21
-6.0
  0
LINE
  8
0
  6
CONTINUOUS
 62
     7
 10
-136.2184
 20
-14.50001
 11
-136.7184
 21
-14.00001
  0
LINE
  8
0
  6
CONTINUOUS
 62
     7
 10
-148.7184
 20
-14.0
 11
-149.2184
 21
-14.5
  0
LINE
  8
0
  6
CONTINUOUS
 62
     7
 10
-149.2184
 20
-17.0
 11
-148.7184
 21
-17.5
  0
LINE
  8
0
  6
CONTINUOUS
 62
     7
 10
-136.7184
 20
-17.5
 11
-136.2184
 21
-17.0
  0
LINE
  8
0
  6
CONTINUOUS
 62
     7
 10
-137.7184
 20
-2.0
 11
-138.2184
 21
-1.50001
  0
LINE
  8
0
  6
CONTINUOUS
 62
     7
 10
-147.2184
 20
-1.5
 11
-147.7184
 21
-2.0
  0
LINE
  8
0
  6
CONTINUOUS
 62
     7
 10
-147.7184
 20
-6.0
 11
-147.2184
 21
-6.5
  0
LINE
  8
0
  6
CONTINUOUS
 62
     7
 10
-138.2184
 20
-6.5
 11
-137.7184
 21
-6.0
  0
LINE
  8
0
  6
CONTINUOUS
 62
     7
 10
-147.7184
 20
-2.0
 11
-137.7184
 21
-2.0
  0
LINE
  8
0
  6
CONTINUOUS
 62
     7
 10
-147.7184
 20
-6.0
 11
-137.7184
 21
-6.0
  0
LINE
  8
0
  6
CONTINUOUS
 62
     7
 10
-149.2184
 20
-14.5
 11
-136.2184
 21
-14.5
  0
LINE
  8
0
  6
CONTINUOUS
 62
     7
 10
-149.2184
 20
-17.0
 11
-136.2184
 21
-17.0
  0
LINE
  8
0
  6
CONTINUOUS
 62
     7
 10
-146.7184
 20
-2.0
 11
-146.7184
 21
-6.0
  0
LINE
  8
0
  6
CONTINUOUS
 62
     7
 10
-145.7184
 20
-2.0
 11
-145.7184
 21
-6.0
  0
LINE
  8
0
  6
CONTINUOUS
 62
     7
 10
-144.7184
 20
-2.0
 11
-144.7184
 21
-6.0
  0
LINE
  8
0
  6
CONTINUOUS
 62
     7
 10
-143.7184
 20
-2.0
 11
-143.7184
 21
-6.0
  0
LINE
  8
0
  6
CONTINUOUS
 62
     7
 10
-148.2184
 20
-14.5
 11
-148.2184
 21
-17.0
  0
LINE
  8
0
  6
CONTINUOUS
 62
     7
 10
-147.2184
 20
-14.5
 11
-147.2184
 21
-17.0
  0
LINE
  8
0
  6
CONTINUOUS
 62
     7
 10
-146.2184
 20
-14.5
 11
-146.2184
 21
-17.0
  0
LINE
  8
0
  6
CONTINUOUS
 62
     7
 10
-145.2184
 20
-14.5
 11
-145.2184
 21
-17.0
  0
LINE
  8
0
  6
CONTINUOUS
 62
     7
 10
-144.2184
 20
-14.5
 11
-144.2184
 21
-17.0
  0
LINE
  8
0
  6
CONTINUOUS
 62
     7
 10
-143.2184
 20
-14.5
 11
-143.2184
 21
-17.0
  0
LINE
  8
0
  6
CONTINUOUS
 62
     7
 10
-139.7184
 20
-6.5
 11
-139.7184
 21
-14.0
  0
LINE
  8
0
  6
CONTINUOUS
 62
     7
 10
-145.7184
 20
-6.5
 11
-145.7184
 21
-14.0
  0
LINE
  8
0
  6
CONTINUOUS
 62
     7
 10
-140.2329
 20
-6.5
 11
-140.2329
 21
-14.0
  0
LINE
  8
0
  6
CONTINUOUS
 62
     7
 10
-145.2039
 20
-6.5
 11
-145.2039
 21
-14.0
  0
LINE
  8
0
  6
CONTINUOUS
 62
     7
 10
-151.9184
 20
-26.7
 11
-133.5184
 21
-26.7
  0
LINE
  8
0
  6
CONTINUOUS
 62
     7
 10
-151.9184
 20
-36.3
 11
-133.5184
 21
-36.3
  0
LINE
  8
0
  6
CONTINUOUS
 62
     7
 10
-133.5184
 20
-26.7
 11
-134.2112
 21
-25.5
  0
LINE
  8
0
  6
CONTINUOUS
 62
     7
 10
-151.9184
 20
-36.29999
 11
-151.2256
 21
-37.49999
  0
LINE
  8
0
  6
CONTINUOUS
 62
     7
 10
-151.9184
 20
-26.70001
 11
-151.2256
 21
-25.50001
  0
LINE
  8
0
  6
CONTINUOUS
 62
     7
 10
-133.5184
 20
-36.3
 11
-134.2112
 21
-37.5
  0
LINE
  8
0
  6
CONTINUOUS
 62
     7
 10
-135.968
 20
-37.5
 11
-136.3274
 21
-49.0
  0
LINE
  8
0
  6
CONTINUOUS
 62
     7
 10
-136.824
 20
-37.5
 11
-137.1834
 21
-49.0
  0
LINE
  8
0
  6
CONTINUOUS
 62
     7
 10
-148.6127
 20
-37.49999
 11
-148.2534
 21
-49.0
  0
LINE
  8
0
  6
CONTINUOUS
 62
     7
 10
-149.4688
 20
-37.5
 11
-149.1094
 21
-49.0
  0
LINE
  8
0
  6
CONTINUOUS
 62
     7
 10
-135.7184
 20
-19.5
 11
-135.7184
 21
-25.5
  0
LINE
  8
0
  6
CONTINUOUS
 62
     7
 10
-149.7184
 20
-19.5
 11
-149.7184
 21
-25.5
  0
LINE
  8
0
  6
CONTINUOUS
 62
     7
 10
-142.7184
 20
-20.12521
 11
-142.7184
 21
-25.5
  0
LINE
  8
0
  6
CENTER
 62
     2
 10
-103.5319
 20
-31.5
 11
-66.23336
 21
-31.5
  0
LINE
  8
0
  6
CONTINUOUS
 62
     7
 10
-83.5184
 20
-35.25
 11
-83.5184
 21
-36.3
  0
LINE
  8
0
  6
CONTINUOUS
 62
     7
 10
-37.16839
 20
-26.7
 11
-33.5184
 21
-26.7
  0
LINE
  8
0
  6
CONTINUOUS
 62
     7
 10
-36.4684
 20
-25.5
 11
-34.21122
 21
-25.5
  0
LINE
  8
0
  6
CONTINUOUS
 62
     7
 10
-41.9684
 20
-36.3
 11
-33.5184
 21
-36.3
  0
LINE
  8
0
  6
CENTER
 62
     2
 10
-53.7184
 20
-31.5
 11
-31.7184
 21
-31.5
  0
LINE
  8
0
  6
CENTER
 62
     2
 10
-153.7184
 20
-31.5
 11
-131.7184
 21
-31.5
  0
LINE
  8
0
  6
CENTER
 62
     2
 10
-101.7038
 20
-127.7057
 11
-67.90684
 21
-127.7057
  0
LINE
  8
0
  6
CENTER
 62
     2
 10
-151.7222
 20
-192.2057
 11
-133.5446
 21
-192.2057
  0
LINE
  8
0
  6
CONTINUOUS
 62
     7
 10
-146.2184
 20
-166.7057
 11
-139.2184
 21
-166.7057
  0
LINE
  8
0
  6
CONTINUOUS
 62
     7
 10
-147.4574
 20
-206.7057
 11
-137.9794
 21
-206.7057
  0
LINE
  8
0
  6
CENTER
 62
     2
 10
-142.7184
 20
-164.0214
 11
-142.7184
 21
-209.2472
  0
LINE
  8
0
  6
CONTINUOUS
 62
     7
 10
-149.9184
 20
-187.4057
 11
-149.9184
 21
-197.0057
  0
LINE
  8
0
  6
CONTINUOUS
 62
     7
 10
-149.2256
 20
-198.2057
 11
-136.2112
 21
-198.2057
  0
LINE
  8
0
  6
CONTINUOUS
 62
     7
 10
-149.2256
 20
-186.2057
 11
-136.2112
 21
-186.2057
  0
LINE
  8
0
  6
CONTINUOUS
 62
     7
 10
-149.9184
 20
-197.0057
 11
-135.5184
 21
-197.0057
  0
LINE
  8
0
  6
CONTINUOUS
 62
     7
 10
-149.9184
 20
-187.4057
 11
-135.5184
 21
-187.4057
  0
LINE
  8
0
  6
CONTINUOUS
 62
     7
 10
-135.5184
 20
-187.4057
 11
-136.2112
 21
-186.2057
  0
LINE
  8
0
  6
CONTINUOUS
 62
     7
 10
-149.9185
 20
-197.0057
 11
-149.2256
 21
-198.2057
  0
LINE
  8
0
  6
CONTINUOUS
 62
     7
 10
-149.9184
 20
-187.4057
 11
-149.2256
 21
-186.2057
  0
LINE
  8
0
  6
CONTINUOUS
 62
     7
 10
-135.5184
 20
-197.0056
 11
-136.2112
 21
-198.2057
  0
LINE
  8
0
  6
CONTINUOUS
 62
     7
 10
-147.7184
 20
-182.2057
 11
-137.7184
 21
-182.2057
  0
LINE
  8
0
  6
CONTINUOUS
 62
     7
 10
-95.60516
 20
-132.7057
 11
-98.4919
 21
-127.7057
  0
LINE
  8
0
  6
CONTINUOUS
 62
     7
 10
-86.94488
 20
-127.7057
 11
-89.83163
 21
-122.7057
  0
LINE
  8
0
  6
CONTINUOUS
 62
     7
 10
-95.60515
 20
-122.7057
 11
-89.83165
 21
-122.7057
  0
LINE
  8
0
  6
CONTINUOUS
 62
     7
 10
-95.60516
 20
-132.7057
 11
-89.83165
 21
-132.7057
  0
LINE
  8
0
  6
CONTINUOUS
 62
     7
 10
-98.49191
 20
-127.7057
 11
-95.60515
 21
-122.7057
  0
LINE
  8
0
  6
CONTINUOUS
 62
     7
 10
-89.83166
 20
-132.7057
 11
-86.94491
 21
-127.7057
  0
LINE
  8
0
  6
CONTINUOUS
 62
     7
 10
-135.5184
 20
-187.4057
 11
-135.5184
 21
-197.0057
  0
LINE
  8
0
  6
CONTINUOUS
 62
     7
 10
-147.2184
 20
-181.1057
 11
-138.2184
 21
-181.1057
  0
LINE
  8
0
  6
CONTINUOUS
 62
     7
 10
-147.2184
 20
-177.6057
 11
-138.2184
 21
-177.6057
  0
LINE
  8
0
  6
CONTINUOUS
 62
     7
 10
-137.7184
 20
-178.1057
 11
-137.7184
 21
-180.6057
  0
LINE
  8
0
  6
CONTINUOUS
 62
     7
 10
-147.7184
 20
-178.1057
 11
-147.7184
 21
-180.6057
  0
LINE
  8
0
  6
CONTINUOUS
 62
     7
 10
-146.7184
 20
-167.2057
 11
-146.7184
 21
-170.2057
  0
LINE
  8
0
  6
CONTINUOUS
 62
     7
 10
-138.7184
 20
-167.2057
 11
-138.7184
 21
-170.2057
  0
LINE
  8
0
  6
CONTINUOUS
 62
     7
 10
-137.7184
 20
-178.1057
 11
-138.2184
 21
-177.6057
  0
LINE
  8
0
  6
CONTINUOUS
 62
     7
 10
-147.2184
 20
-177.6057
 11
-147.7184
 21
-178.1057
  0
LINE
  8
0
  6
CONTINUOUS
 62
     7
 10
-147.7184
 20
-180.6056
 11
-147.2184
 21
-181.1056
  0
LINE
  8
0
  6
CONTINUOUS
 62
     7
 10
-138.2184
 20
-181.1057
 11
-137.7184
 21
-180.6057
  0
LINE
  8
0
  6
CONTINUOUS
 62
     7
 10
-138.7184
 20
-167.2057
 11
-139.2184
 21
-166.7057
  0
LINE
  8
0
  6
CONTINUOUS
 62
     7
 10
-146.2184
 20
-166.7057
 11
-146.7184
 21
-167.2057
  0
LINE
  8
0
  6
CONTINUOUS
 62
     7
 10
-146.7184
 20
-170.2056
 11
-146.2184
 21
-170.7056
  0
LINE
  8
0
  6
CONTINUOUS
 62
     7
 10
-139.2184
 20
-170.7057
 11
-138.7184
 21
-170.2057
  0
LINE
  8
0
  6
CONTINUOUS
 62
     7
 10
-146.7184
 20
-167.2057
 11
-138.7184
 21
-167.2057
  0
LINE
  8
0
  6
CONTINUOUS
 62
     7
 10
-146.7184
 20
-170.2057
 11
-138.7184
 21
-170.2057
  0
LINE
  8
0
  6
CONTINUOUS
 62
     7
 10
-147.7184
 20
-178.1057
 11
-137.7184
 21
-178.1057
  0
LINE
  8
0
  6
CONTINUOUS
 62
     7
 10
-147.7184
 20
-180.6057
 11
-137.7184
 21
-180.6057
  0
LINE
  8
0
  6
CONTINUOUS
 62
     7
 10
-145.7184
 20
-167.2057
 11
-145.7184
 21
-170.2057
  0
LINE
  8
0
  6
CONTINUOUS
 62
     7
 10
-144.7184
 20
-167.2057
 11
-144.7184
 21
-170.2057
  0
LINE
  8
0
  6
CONTINUOUS
 62
     7
 10
-143.7184
 20
-167.2057
 11
-143.7184
 21
-170.2057
  0
LINE
  8
0
  6
CONTINUOUS
 62
     7
 10
-146.7184
 20
-178.1057
 11
-146.7184
 21
-180.6057
  0
LINE
  8
0
  6
CONTINUOUS
 62
     7
 10
-145.7184
 20
-178.1057
 11
-145.7184
 21
-180.6057
  0
LINE
  8
0
  6
CONTINUOUS
 62
     7
 10
-144.7184
 20
-178.1057
 11
-144.7184
 21
-180.6057
  0
LINE
  8
0
  6
CONTINUOUS
 62
     7
 10
-143.7184
 20
-178.1057
 11
-143.7184
 21
-180.6057
  0
LINE
  8
0
  6
CONTINUOUS
 62
     7
 10
-145.2184
 20
-170.7057
 11
-145.2184
 21
-177.6057
  0
LINE
  8
0
  6
CONTINUOUS
 62
     7
 10
-140.2184
 20
-170.7057
 11
-140.2184
 21
-177.6057
  0
LINE
  8
0
  6
CONTINUOUS
 62
     7
 10
-140.6514
 20
-170.7057
 11
-140.6514
 21
-177.6057
  0
LINE
  8
0
  6
CONTINUOUS
 62
     7
 10
-144.7854
 20
-170.7057
 11
-144.7854
 21
-177.6057
  0
LINE
  8
0
  6
CONTINUOUS
 62
     7
 10
-138.7184
 20
-181.1057
 11
-138.7184
 21
-182.2057
  0
LINE
  8
0
  6
CONTINUOUS
 62
     7
 10
-146.7184
 20
-181.1057
 11
-146.7184
 21
-182.2057
  0
LINE
  8
0
  6
CONTINUOUS
 62
     7
 10
-137.7138
 20
-198.2057
 11
-137.9794
 21
-206.7057
  0
LINE
  8
0
  6
CONTINUOUS
 62
     7
 10
-138.2948
 20
-198.2057
 11
-138.5604
 21
-206.7057
  0
LINE
  8
0
  6
CONTINUOUS
 62
     7
 10
-147.142
 20
-198.2057
 11
-146.8764
 21
-206.7057
  0
LINE
  8
0
  6
CONTINUOUS
 62
     7
 10
-147.723
 20
-198.2056
 11
-147.4574
 21
-206.7057
  0
LINE
  8
0
  6
CENTER
 62
     2
 10
-92.7184
 20
-118.7057
 11
-92.7184
 21
-136.7057
  0
LINE
  8
0
  6
CONTINUOUS
 62
     7
 10
-96.2184
 20
-166.7057
 11
-89.2184
 21
-166.7057
  0
LINE
  8
0
  6
CONTINUOUS
 62
     7
 10
-97.4574
 20
-206.7057
 11
-87.9794
 21
-206.7057
  0
LINE
  8
0
  6
CENTER
 62
     2
 10
-92.7184
 20
-163.9723
 11
-92.7184
 21
-209.1867
  0
LINE
  8
0
  6
CONTINUOUS
 62
     7
 10
-99.9184
 20
-187.4057
 11
-99.9184
 21
-197.0057
  0
LINE
  8
0
  6
CONTINUOUS
 62
     7
 10
-96.2184
 20
-170.7057
 11
-89.2184
 21
-170.7057
  0
LINE
  8
0
  6
CONTINUOUS
 62
     7
 10
-143.4684
 20
-198.2057
 11
-141.9684
 21
-198.2057
  0
LINE
  8
0
  6
CONTINUOUS
 62
     7
 10
-99.91843
 20
-197.0057
 11
-99.22562
 21
-198.2057
  0
LINE
  8
0
  6
CONTINUOUS
 62
     7
 10
-99.91839
 20
-187.4056
 11
-99.22558
 21
-186.2057
  0
LINE
  8
0
  6
CONTINUOUS
 62
     7
 10
-97.7184
 20
-182.2057
 11
-87.7184
 21
-182.2057
  0
LINE
  8
0
  6
CONTINUOUS
 62
     7
 10
-86.94489
 20
-182.6522
 11
-86.94489
 21
-186.2057
  0
LINE
  8
0
  6
CONTINUOUS
 62
     7
 10
-98.49191
 20
-182.6522
 11
-98.49191
 21
-186.2057
  0
LINE
  8
0
  6
CONTINUOUS
 62
     7
 10
-95.60516
 20
-182.6522
 11
-95.60516
 21
-186.2057
  0
LINE
  8
0
  6
CONTINUOUS
 62
     7
 10
-89.83165
 20
-182.6522
 11
-89.83165
 21
-186.2057
  0
LINE
  8
0
  6
CONTINUOUS
 62
     7
 10
-87.7184
 20
-182.2057
 11
-86.94489
 21
-182.6523
  0
LINE
  8
0
  6
CONTINUOUS
 62
     7
 10
-97.7184
 20
-182.2057
 11
-98.4919
 21
-182.6523
  0
LINE
  8
0
  6
CONTINUOUS
 62
     7
 10
-97.2184
 20
-181.1057
 11
-88.2184
 21
-181.1057
  0
LINE
  8
0
  6
CONTINUOUS
 62
     7
 10
-97.2184
 20
-177.6057
 11
-88.2184
 21
-177.6057
  0
LINE
  8
0
  6
CONTINUOUS
 62
     7
 10
-87.7184
 20
-178.1057
 11
-87.7184
 21
-180.6057
  0
LINE
  8
0
  6
CONTINUOUS
 62
     7
 10
-97.7184
 20
-178.1057
 11
-97.7184
 21
-180.6057
  0
LINE
  8
0
  6
CONTINUOUS
 62
     7
 10
-96.7184
 20
-167.2057
 11
-96.7184
 21
-170.2057
  0
LINE
  8
0
  6
CONTINUOUS
 62
     7
 10
-88.7184
 20
-167.2057
 11
-88.7184
 21
-170.2057
  0
LINE
  8
0
  6
CONTINUOUS
 62
     7
 10
-87.71839
 20
-178.1057
 11
-88.21839
 21
-177.6057
  0
LINE
  8
0
  6
CONTINUOUS
 62
     7
 10
-97.2184
 20
-177.6056
 11
-97.71841
 21
-178.1057
  0
LINE
  8
0
  6
CONTINUOUS
 62
     7
 10
-97.71839
 20
-180.6056
 11
-97.21838
 21
-181.1056
  0
LINE
  8
0
  6
CONTINUOUS
 62
     7
 10
-88.21841
 20
-181.1057
 11
-87.71839
 21
-180.6056
  0
LINE
  8
0
  6
CONTINUOUS
 62
     7
 10
-88.71842
 20
-167.2057
 11
-89.21842
 21
-166.7057
  0
LINE
  8
0
  6
CONTINUOUS
 62
     7
 10
-96.2184
 20
-166.7057
 11
-96.71839
 21
-167.2056
  0
LINE
  8
0
  6
CONTINUOUS
 62
     7
 10
-96.71836
 20
-170.2056
 11
-96.21836
 21
-170.7056
  0
LINE
  8
0
  6
CONTINUOUS
 62
     7
 10
-89.21839
 20
-170.7056
 11
-88.7184
 21
-170.2057
  0
LINE
  8
0
  6
CONTINUOUS
 62
     7
 10
-96.7184
 20
-167.2057
 11
-88.7184
 21
-167.2057
  0
LINE
  8
0
  6
CONTINUOUS
 62
     7
 10
-96.7184
 20
-170.2057
 11
-88.7184
 21
-170.2057
  0
LINE
  8
0
  6
CONTINUOUS
 62
     7
 10
-97.7184
 20
-178.1057
 11
-87.7184
 21
-178.1057
  0
LINE
  8
0
  6
CONTINUOUS
 62
     7
 10
-97.7184
 20
-180.6057
 11
-87.7184
 21
-180.6057
  0
LINE
  8
0
  6
CONTINUOUS
 62
     7
 10
-95.7184
 20
-167.2057
 11
-95.7184
 21
-170.2057
  0
LINE
  8
0
  6
CONTINUOUS
 62
     7
 10
-94.7184
 20
-167.2057
 11
-94.7184
 21
-170.2057
  0
LINE
  8
0
  6
CONTINUOUS
 62
     7
 10
-93.7184
 20
-167.2057
 11
-93.7184
 21
-170.2057
  0
LINE
  8
0
  6
CONTINUOUS
 62
     7
 10
-96.7184
 20
-178.1057
 11
-96.7184
 21
-180.6057
  0
LINE
  8
0
  6
CONTINUOUS
 62
     7
 10
-95.7184
 20
-178.1057
 11
-95.7184
 21
-180.6057
  0
LINE
  8
0
  6
CONTINUOUS
 62
     7
 10
-94.7184
 20
-178.1057
 11
-94.7184
 21
-180.6057
  0
LINE
  8
0
  6
CONTINUOUS
 62
     7
 10
-93.7184
 20
-178.1057
 11
-93.7184
 21
-180.6057
  0
LINE
  8
0
  6
CONTINUOUS
 62
     7
 10
-95.2184
 20
-170.7057
 11
-95.2184
 21
-177.6057
  0
LINE
  8
0
  6
CONTINUOUS
 62
     7
 10
-90.2184
 20
-170.7057
 11
-90.2184
 21
-177.6057
  0
LINE
  8
0
  6
CONTINUOUS
 62
     7
 10
-90.6514
 20
-170.7057
 11
-90.6514
 21
-177.6057
  0
LINE
  8
0
  6
CONTINUOUS
 62
     7
 10
-94.7854
 20
-170.7057
 11
-94.7854
 21
-177.6057
  0
LINE
  8
0
  6
CONTINUOUS
 62
     7
 10
-88.7184
 20
-181.1057
 11
-88.7184
 21
-182.2057
  0
LINE
  8
0
  6
CONTINUOUS
 62
     7
 10
-96.7184
 20
-181.1057
 11
-96.7184
 21
-182.2057
  0
LINE
  8
0
  6
CONTINUOUS
 62
     7
 10
-87.71378
 20
-198.2057
 11
-87.9794
 21
-206.7057
  0
LINE
  8
0
  6
CONTINUOUS
 62
     7
 10
-88.29477
 20
-198.2056
 11
-88.56039
 21
-206.7057
  0
LINE
  8
0
  6
CONTINUOUS
 62
     7
 10
-97.14202
 20
-198.2057
 11
-96.8764
 21
-206.7057
  0
LINE
  8
0
  6
CONTINUOUS
 62
     7
 10
-97.72303
 20
-198.2056
 11
-97.4574
 21
-206.7056
  0
LINE
  8
0
  6
CONTINUOUS
 62
     7
 10
-47.4574
 20
-206.7057
 11
-37.9794
 21
-206.7057
  0
LINE
  8
0
  6
CONTINUOUS
 62
     7
 10
-147.7184
 20
-182.2057
 11
-147.7184
 21
-186.2057
  0
LINE
  8
0
  6
CONTINUOUS
 62
     7
 10
-137.7184
 20
-182.2057
 11
-137.7184
 21
-186.2057
  0
LINE
  8
0
  6
CONTINUOUS
 62
     7
 10
-142.7184
 20
-182.6522
 11
-142.7184
 21
-186.2057
  0
LINE
  8
0
  6
CENTER
 62
     2
 10
152.7184
 20
160.7989
 11
152.7184
 21
108.0724
  0
LINE
  8
0
  6
CONTINUOUS
 62
     7
 10
146.3274
 20
110.7057
 11
159.1094
 21
110.7057
  0
LINE
  8
0
  6
CONTINUOUS
 62
     7
 10
144.2112
 20
122.2057
 11
161.2255
 21
122.2057
  0
LINE
  8
0
  6
CONTINUOUS
 62
     7
 10
144.2112
 20
134.2057
 11
145.4684
 21
134.2057
  0
LINE
  8
0
  6
CONTINUOUS
 62
     7
 10
148.2184
 20
158.2057
 11
157.2184
 21
158.2057
  0
LINE
  8
0
  6
CONTINUOUS
 62
     7
 10
148.2184
 20
153.2057
 11
157.2184
 21
153.2057
  0
LINE
  8
0
  6
CONTINUOUS
 62
     7
 10
161.9184
 20
133.0057
 11
161.9184
 21
123.4057
  0
LINE
  8
0
  6
CONTINUOUS
 62
     7
 10
143.5184
 20
133.0057
 11
143.5184
 21
123.4057
  0
LINE
  8
0
  6
CENTER
 62
     2
 10
81.09591
 20
186.7057
 11
122.5498
 21
186.7057
  0
LINE
  8
0
  6
CENTER
 62
     2
 10
92.71838
 20
197.7057
 11
92.71838
 21
175.7057
  0
LINE
  8
0
  6
CONTINUOUS
 62
     7
 10
88.67695
 20
179.7057
 11
84.63549
 21
186.7057
  0
LINE
  8
0
  6
CONTINUOUS
 62
     7
 10
100.8013
 20
186.7057
 11
96.75986
 21
193.7057
  0
LINE
  8
0
  6
CONTINUOUS
 62
     7
 10
88.67693
 20
193.7057
 11
96.75983
 21
193.7057
  0
LINE
  8
0
  6
CONTINUOUS
 62
     7
 10
88.67693
 20
179.7057
 11
96.75983
 21
179.7057
  0
LINE
  8
0
  6
CONTINUOUS
 62
     7
 10
84.63548
 20
186.7057
 11
88.67693
 21
193.7057
  0
LINE
  8
0
  6
CONTINUOUS
 62
     7
 10
96.75983
 20
179.7057
 11
100.8013
 21
186.7057
  0
LINE
  8
0
  6
CONTINUOUS
 62
     7
 10
147.7184
 20
157.7057
 11
147.7184
 21
153.7057
  0
LINE
  8
0
  6
CONTINUOUS
 62
     7
 10
157.7184
 20
157.7057
 11
157.7184
 21
153.7057
  0
LINE
  8
0
  6
CONTINUOUS
 62
     7
 10
157.7184
 20
157.7057
 11
157.2184
 21
158.2057
  0
LINE
  8
0
  6
CONTINUOUS
 62
     7
 10
148.2184
 20
158.2057
 11
147.7184
 21
157.7057
  0
LINE
  8
0
  6
CONTINUOUS
 62
     7
 10
147.7184
 20
153.7056
 11
148.2184
 21
153.2056
  0
LINE
  8
0
  6
CONTINUOUS
 62
     7
 10
157.2184
 20
153.2057
 11
157.7184
 21
153.7057
  0
LINE
  8
0
  6
CONTINUOUS
 62
     7
 10
147.7184
 20
157.7057
 11
157.7184
 21
157.7057
  0
LINE
  8
0
  6
CONTINUOUS
 62
     7
 10
147.7184
 20
153.7057
 11
157.7184
 21
153.7057
  0
LINE
  8
0
  6
CONTINUOUS
 62
     7
 10
148.7184
 20
157.7057
 11
148.7184
 21
153.7057
  0
LINE
  8
0
  6
CONTINUOUS
 62
     7
 10
149.7184
 20
157.7057
 11
149.7184
 21
153.7057
  0
LINE
  8
0
  6
CONTINUOUS
 62
     7
 10
150.7184
 20
157.7057
 11
150.7184
 21
153.7057
  0
LINE
  8
0
  6
CONTINUOUS
 62
     7
 10
151.7184
 20
157.7057
 11
151.7184
 21
153.7057
  0
LINE
  8
0
  6
CONTINUOUS
 62
     7
 10
155.7184
 20
153.2057
 11
155.7184
 21
149.7057
  0
LINE
  8
0
  6
CONTINUOUS
 62
     7
 10
149.7184
 20
153.2057
 11
149.7184
 21
149.7057
  0
LINE
  8
0
  6
CONTINUOUS
 62
     7
 10
155.2039
 20
153.2057
 11
155.2039
 21
149.7057
  0
LINE
  8
0
  6
CONTINUOUS
 62
     7
 10
150.2329
 20
153.2057
 11
150.2329
 21
149.7057
  0
LINE
  8
0
  6
CONTINUOUS
 62
     7
 10
143.5184
 20
133.0057
 11
146.0684
 21
133.0057
  0
LINE
  8
0
  6
CONTINUOUS
 62
     7
 10
143.5184
 20
123.4057
 11
151.9684
 21
123.4057
  0
LINE
  8
0
  6
CONTINUOUS
 62
     7
 10
161.9184
 20
133.0056
 11
161.2255
 21
134.2056
  0
LINE
  8
0
  6
CONTINUOUS
 62
     7
 10
143.5184
 20
123.4056
 11
144.2112
 21
122.2056
  0
LINE
  8
0
  6
CONTINUOUS
 62
     7
 10
143.5184
 20
133.0056
 11
144.2112
 21
134.2056
  0
LINE
  8
0
  6
CONTINUOUS
 62
     7
 10
161.9184
 20
123.4057
 11
161.2255
 21
122.2057
  0
LINE
  8
0
  6
CONTINUOUS
 62
     7
 10
159.4688
 20
122.2057
 11
159.1094
 21
110.7057
  0
LINE
  8
0
  6
CONTINUOUS
 62
     7
 10
158.6128
 20
122.2057
 11
158.2534
 21
110.7057
  0
LINE
  8
0
  6
CONTINUOUS
 62
     7
 10
146.824
 20
122.2057
 11
147.1833
 21
110.7057
  0
LINE
  8
0
  6
CONTINUOUS
 62
     7
 10
145.968
 20
122.2057
 11
146.3274
 21
110.7057
  0
LINE
  8
0
  6
CENTER
 62
     2
 10
92.71838
 20
160.9736
 11
92.71838
 21
108.0724
  0
LINE
  8
0
  6
CONTINUOUS
 62
     7
 10
86.32738
 20
110.7057
 11
99.10938
 21
110.7057
  0
LINE
  8
0
  6
CONTINUOUS
 62
     7
 10
84.2112
 20
122.2057
 11
116.6684
 21
122.2057
  0
LINE
  8
0
  6
CONTINUOUS
 62
     7
 10
85.71839
 20
140.2057
 11
99.71838
 21
140.2057
  0
LINE
  8
0
  6
CONTINUOUS
 62
     7
 10
86.71838
 20
142.2057
 11
98.71838
 21
142.2057
  0
LINE
  8
0
  6
CONTINUOUS
 62
     7
 10
86.71838
 20
145.7057
 11
98.71838
 21
145.7057
  0
LINE
  8
0
  6
CONTINUOUS
 62
     7
 10
88.21838
 20
158.2057
 11
97.21838
 21
158.2057
  0
LINE
  8
0
  6
CONTINUOUS
 62
     7
 10
88.21838
 20
153.2057
 11
97.21838
 21
153.2057
  0
LINE
  8
0
  6
CONTINUOUS
 62
     7
 10
83.51839
 20
133.0057
 11
83.51839
 21
123.4057
  0
LINE
  8
0
  6
CONTINUOUS
 62
     7
 10
100.8013
 20
139.5804
 11
100.8013
 21
134.2057
  0
LINE
  8
0
  6
CONTINUOUS
 62
     7
 10
84.63548
 20
139.5804
 11
84.63548
 21
134.2057
  0
LINE
  8
0
  6
CONTINUOUS
 62
     7
 10
88.67693
 20
139.5804
 11
88.67693
 21
134.2057
  0
LINE
  8
0
  6
CONTINUOUS
 62
     7
 10
96.75983
 20
139.5804
 11
96.75983
 21
134.2057
  0
LINE
  8
0
  6
CONTINUOUS
 62
     7
 10
99.71838
 20
140.2056
 11
100.8013
 21
139.5804
  0
LINE
  8
0
  6
CONTINUOUS
 62
     7
 10
97.21838
 20
142.2057
 11
97.21838
 21
140.2057
  0
LINE
  8
0
  6
CONTINUOUS
 62
     7
 10
88.21838
 20
142.2057
 11
88.21838
 21
140.2057
  0
LINE
  8
0
  6
CONTINUOUS
 62
     7
 10
99.21838
 20
145.2057
 11
99.21838
 21
142.7057
  0
LINE
  8
0
  6
CONTINUOUS
 62
     7
 10
86.21838
 20
145.2057
 11
86.21838
 21
142.7057
  0
LINE
  8
0
  6
CONTINUOUS
 62
     7
 10
87.71838
 20
157.7057
 11
87.71838
 21
153.7057
  0
LINE
  8
0
  6
CONTINUOUS
 62
     7
 10
97.71838
 20
157.7057
 11
97.71838
 21
153.7057
  0
LINE
  8
0
  6
CONTINUOUS
 62
     7
 10
99.21836
 20
145.2056
 11
98.71836
 21
145.7056
  0
LINE
  8
0
  6
CONTINUOUS
 62
     7
 10
86.71838
 20
145.7057
 11
86.21838
 21
145.2057
  0
LINE
  8
0
  6
CONTINUOUS
 62
     7
 10
86.21836
 20
142.7056
 11
86.71836
 21
142.2056
  0
LINE
  8
0
  6
CONTINUOUS
 62
     7
 10
98.71838
 20
142.2057
 11
99.21838
 21
142.7057
  0
LINE
  8
0
  6
CONTINUOUS
 62
     7
 10
97.71839
 20
157.7057
 11
97.2184
 21
158.2057
  0
LINE
  8
0
  6
CONTINUOUS
 62
     7
 10
88.21838
 20
158.2057
 11
87.71838
 21
157.7057
  0
LINE
  8
0
  6
CONTINUOUS
 62
     7
 10
87.71838
 20
153.7057
 11
88.21837
 21
153.2057
  0
LINE
  8
0
  6
CONTINUOUS
 62
     7
 10
97.21838
 20
153.2057
 11
97.71838
 21
153.7057
  0
LINE
  8
0
  6
CONTINUOUS
 62
     7
 10
87.71838
 20
157.7057
 11
97.71838
 21
157.7057
  0
LINE
  8
0
  6
CONTINUOUS
 62
     7
 10
87.71838
 20
153.7057
 11
97.71838
 21
153.7057
  0
LINE
  8
0
  6
CONTINUOUS
 62
     7
 10
86.21838
 20
145.2057
 11
99.21838
 21
145.2057
  0
LINE
  8
0
  6
CONTINUOUS
 62
     7
 10
86.21838
 20
142.7057
 11
99.21838
 21
142.7057
  0
LINE
  8
0
  6
CONTINUOUS
 62
     7
 10
88.71838
 20
157.7057
 11
88.71838
 21
153.7057
  0
LINE
  8
0
  6
CONTINUOUS
 62
     7
 10
89.71838
 20
157.7057
 11
89.71838
 21
153.7057
  0
LINE
  8
0
  6
CONTINUOUS
 62
     7
 10
90.71838
 20
157.7057
 11
90.71838
 21
153.7057
  0
LINE
  8
0
  6
CONTINUOUS
 62
     7
 10
91.71838
 20
157.7057
 11
91.71838
 21
153.7057
  0
LINE
  8
0
  6
CONTINUOUS
 62
     7
 10
87.21838
 20
145.2057
 11
87.21838
 21
142.7057
  0
LINE
  8
0
  6
CONTINUOUS
 62
     7
 10
88.21838
 20
145.2057
 11
88.21838
 21
142.7057
  0
LINE
  8
0
  6
CONTINUOUS
 62
     7
 10
89.21838
 20
145.2057
 11
89.21838
 21
142.7057
  0
LINE
  8
0
  6
CONTINUOUS
 62
     7
 10
90.21838
 20
145.2057
 11
90.21838
 21
142.7057
  0
LINE
  8
0
  6
CONTINUOUS
 62
     7
 10
91.21838
 20
145.2057
 11
91.21838
 21
142.7057
  0
LINE
  8
0
  6
CONTINUOUS
 62
     7
 10
92.21838
 20
145.2057
 11
92.21838
 21
142.7057
  0
LINE
  8
0
  6
CONTINUOUS
 62
     7
 10
95.71838
 20
153.2057
 11
95.71838
 21
145.7057
  0
LINE
  8
0
  6
CONTINUOUS
 62
     7
 10
89.71838
 20
153.2057
 11
89.71838
 21
145.7057
  0
LINE
  8
0
  6
CONTINUOUS
 62
     7
 10
95.20388
 20
153.2057
 11
95.20388
 21
145.7057
  0
LINE
  8
0
  6
CONTINUOUS
 62
     7
 10
90.23289
 20
153.2057
 11
90.23289
 21
145.7057
  0
LINE
  8
0
  6
CONTINUOUS
 62
     7
 10
85.71838
 20
140.2056
 11
84.63548
 21
139.5804
  0
LINE
  8
0
  6
CONTINUOUS
 62
     7
 10
83.51839
 20
133.0057
 11
101.9184
 21
133.0057
  0
LINE
  8
0
  6
CONTINUOUS
 62
     7
 10
83.51839
 20
123.4057
 11
101.9184
 21
123.4057
  0
LINE
  8
0
  6
CONTINUOUS
 62
     7
 10
83.51839
 20
123.4056
 11
84.2112
 21
122.2057
  0
LINE
  8
0
  6
CONTINUOUS
 62
     7
 10
83.51838
 20
133.0056
 11
84.21121
 21
134.2056
  0
LINE
  8
0
  6
CONTINUOUS
 62
     7
 10
101.9184
 20
123.4057
 11
101.2256
 21
122.2057
  0
LINE
  8
0
  6
CONTINUOUS
 62
     7
 10
99.46876
 20
122.2057
 11
99.10938
 21
110.7057
  0
LINE
  8
0
  6
CONTINUOUS
 62
     7
 10
98.61276
 20
122.2057
 11
98.25339
 21
110.7057
  0
LINE
  8
0
  6
CONTINUOUS
 62
     7
 10
86.824
 20
122.2057
 11
87.18337
 21
110.7057
  0
LINE
  8
0
  6
CONTINUOUS
 62
     7
 10
85.968
 20
122.2057
 11
86.32738
 21
110.7057
  0
LINE
  8
0
  6
CENTER
 62
     2
 10
42.71838
 20
160.7989
 11
42.71838
 21
108.0724
  0
LINE
  8
0
  6
CONTINUOUS
 62
     7
 10
36.32738
 20
110.7057
 11
49.10938
 21
110.7057
  0
LINE
  8
0
  6
CONTINUOUS
 62
     7
 10
34.2112
 20
122.2057
 11
51.22556
 21
122.2057
  0
LINE
  8
0
  6
CONTINUOUS
 62
     7
 10
34.2112
 20
134.2057
 11
51.22556
 21
134.2057
  0
LINE
  8
0
  6
CONTINUOUS
 62
     7
 10
35.71838
 20
140.2057
 11
49.71838
 21
140.2057
  0
LINE
  8
0
  6
CONTINUOUS
 62
     7
 10
36.71838
 20
142.2057
 11
48.71838
 21
142.2057
  0
LINE
  8
0
  6
CONTINUOUS
 62
     7
 10
36.71838
 20
145.7057
 11
48.71838
 21
145.7057
  0
LINE
  8
0
  6
CONTINUOUS
 62
     7
 10
38.21838
 20
158.2057
 11
47.21839
 21
158.2057
  0
LINE
  8
0
  6
CONTINUOUS
 62
     7
 10
38.21838
 20
153.2057
 11
47.21838
 21
153.2057
  0
LINE
  8
0
  6
CONTINUOUS
 62
     7
 10
51.91838
 20
133.0057
 11
51.91838
 21
123.4057
  0
LINE
  8
0
  6
CONTINUOUS
 62
     7
 10
33.51838
 20
133.0057
 11
33.51838
 21
123.4057
  0
LINE
  8
0
  6
CONTINUOUS
 62
     7
 10
47.21838
 20
142.2057
 11
47.21838
 21
140.2057
  0
LINE
  8
0
  6
CONTINUOUS
 62
     7
 10
38.21838
 20
142.2057
 11
38.21838
 21
140.2057
  0
LINE
  8
0
  6
CONTINUOUS
 62
     7
 10
49.21838
 20
145.2057
 11
49.21838
 21
142.7057
  0
LINE
  8
0
  6
CONTINUOUS
 62
     7
 10
36.21838
 20
145.2057
 11
36.21838
 21
142.7057
  0
LINE
  8
0
  6
CONTINUOUS
 62
     7
 10
37.71838
 20
157.7057
 11
37.71838
 21
153.7057
  0
LINE
  8
0
  6
CONTINUOUS
 62
     7
 10
47.71838
 20
157.7057
 11
47.71838
 21
153.7057
  0
LINE
  8
0
  6
CONTINUOUS
 62
     7
 10
49.21838
 20
145.2056
 11
48.71838
 21
145.7056
  0
LINE
  8
0
  6
CONTINUOUS
 62
     7
 10
36.71838
 20
145.7056
 11
36.21838
 21
145.2056
  0
LINE
  8
0
  6
CONTINUOUS
 62
     7
 10
36.21838
 20
142.7056
 11
36.71838
 21
142.2056
  0
LINE
  8
0
  6
CONTINUOUS
 62
     7
 10
48.71838
 20
142.2056
 11
49.21838
 21
142.7056
  0
LINE
  8
0
  6
CONTINUOUS
 62
     7
 10
47.71838
 20
157.7057
 11
47.21838
 21
158.2057
  0
LINE
  8
0
  6
CONTINUOUS
 62
     7
 10
38.21839
 20
158.2057
 11
37.71839
 21
157.7057
  0
LINE
  8
0
  6
CONTINUOUS
 62
     7
 10
37.71838
 20
153.7057
 11
38.21838
 21
153.2057
  0
LINE
  8
0
  6
CONTINUOUS
 62
     7
 10
47.21838
 20
153.2056
 11
47.71838
 21
153.7056
  0
LINE
  8
0
  6
CONTINUOUS
 62
     7
 10
37.71838
 20
157.7057
 11
47.71838
 21
157.7057
  0
LINE
  8
0
  6
CONTINUOUS
 62
     7
 10
37.71838
 20
153.7057
 11
47.71838
 21
153.7057
  0
LINE
  8
0
  6
CONTINUOUS
 62
     7
 10
36.21838
 20
145.2057
 11
49.21838
 21
145.2057
  0
LINE
  8
0
  6
CONTINUOUS
 62
     7
 10
38.71838
 20
157.7057
 11
38.71838
 21
153.7057
  0
LINE
  8
0
  6
CONTINUOUS
 62
     7
 10
39.71838
 20
157.7057
 11
39.71838
 21
153.7057
  0
LINE
  8
0
  6
CONTINUOUS
 62
     7
 10
40.71838
 20
157.7057
 11
40.71838
 21
153.7057
  0
LINE
  8
0
  6
CONTINUOUS
 62
     7
 10
41.71838
 20
157.7057
 11
41.71838
 21
153.7057
  0
LINE
  8
0
  6
CONTINUOUS
 62
     7
 10
37.21838
 20
145.2057
 11
37.21838
 21
142.7057
  0
LINE
  8
0
  6
CONTINUOUS
 62
     7
 10
38.21838
 20
145.2057
 11
38.21838
 21
142.7057
  0
LINE
  8
0
  6
CONTINUOUS
 62
     7
 10
39.21838
 20
145.2057
 11
39.21838
 21
142.7057
  0
LINE
  8
0
  6
CONTINUOUS
 62
     7
 10
40.21838
 20
145.2057
 11
40.21838
 21
142.7057
  0
LINE
  8
0
  6
CONTINUOUS
 62
     7
 10
41.21838
 20
145.2057
 11
41.21838
 21
142.7057
  0
LINE
  8
0
  6
CONTINUOUS
 62
     7
 10
42.21838
 20
145.2057
 11
42.21838
 21
142.7057
  0
LINE
  8
0
  6
CONTINUOUS
 62
     7
 10
45.71838
 20
153.2057
 11
45.71838
 21
145.7057
  0
LINE
  8
0
  6
CONTINUOUS
 62
     7
 10
39.71838
 20
153.2057
 11
39.71838
 21
145.7057
  0
LINE
  8
0
  6
CONTINUOUS
 62
     7
 10
45.20388
 20
153.2057
 11
45.20388
 21
145.7057
  0
LINE
  8
0
  6
CONTINUOUS
 62
     7
 10
40.23288
 20
153.2057
 11
40.23288
 21
145.7057
  0
LINE
  8
0
  6
CONTINUOUS
 62
     7
 10
33.51838
 20
133.0057
 11
51.91838
 21
133.0057
  0
LINE
  8
0
  6
CONTINUOUS
 62
     7
 10
33.51838
 20
123.4057
 11
51.91838
 21
123.4057
  0
LINE
  8
0
  6
CONTINUOUS
 62
     7
 10
51.91838
 20
133.0056
 11
51.22557
 21
134.2056
  0
LINE
  8
0
  6
CONTINUOUS
 62
     7
 10
33.51839
 20
123.4057
 11
34.21121
 21
122.2057
  0
LINE
  8
0
  6
CONTINUOUS
 62
     7
 10
33.51839
 20
133.0056
 11
34.21121
 21
134.2056
  0
LINE
  8
0
  6
CONTINUOUS
 62
     7
 10
51.91838
 20
123.4056
 11
51.22557
 21
122.2057
  0
LINE
  8
0
  6
CONTINUOUS
 62
     7
 10
49.46876
 20
122.2057
 11
49.10938
 21
110.7057
  0
LINE
  8
0
  6
CONTINUOUS
 62
     7
 10
48.61276
 20
122.2057
 11
48.25338
 21
110.7057
  0
LINE
  8
0
  6
CONTINUOUS
 62
     7
 10
36.82403
 20
122.2056
 11
37.18341
 21
110.7056
  0
LINE
  8
0
  6
CONTINUOUS
 62
     7
 10
35.96801
 20
122.2057
 11
36.32738
 21
110.7057
  0
LINE
  8
0
  6
CONTINUOUS
 62
     7
 10
49.71838
 20
140.2057
 11
49.71838
 21
134.2057
  0
LINE
  8
0
  6
CONTINUOUS
 62
     7
 10
35.71838
 20
140.2057
 11
35.71838
 21
134.2057
  0
LINE
  8
0
  6
CONTINUOUS
 62
     7
 10
42.71838
 20
139.5804
 11
42.71838
 21
134.2057
  0
LINE
  8
0
  6
CONTINUOUS
 62
     7
 10
101.9184
 20
124.4557
 11
101.9184
 21
123.4057
  0
LINE
  8
0
  6
CONTINUOUS
 62
     7
 10
159.3684
 20
133.0057
 11
161.9184
 21
133.0057
  0
LINE
  8
0
  6
CONTINUOUS
 62
     7
 10
159.9684
 20
134.2057
 11
161.2256
 21
134.2057
  0
LINE
  8
0
  6
CONTINUOUS
 62
     7
 10
153.4684
 20
123.4057
 11
161.9184
 21
123.4057
  0
LINE
  8
0
  6
CENTER
 62
     2
 10
140.7184
 20
128.2057
 11
164.7184
 21
128.2057
  0
LINE
  8
0
  6
CENTER
 62
     2
 10
30.71838
 20
128.2057
 11
54.71838
 21
128.2057
  0
LINE
  8
0
  6
CONTINUOUS
 62
     7
 10
34.59051
 20
-49.5
 11
50.84627
 21
-49.5
  0
LINE
  8
0
  6
CENTER
 62
     2
 10
27.71838
 20
-29.0
 11
57.71838
 21
-29.0
  0
LINE
  8
0
  6
CONTINUOUS
 62
     7
 10
32.58441
 20
-21.25
 11
52.85236
 21
-21.25
  0
LINE
  8
0
  6
CONTINUOUS
 62
     7
 10
32.58441
 20
-36.75
 11
52.85236
 21
-36.75
  0
LINE
  8
0
  6
CONTINUOUS
 62
     7
 10
33.21838
 20
-16.25
 11
52.21838
 21
-16.25
  0
LINE
  8
0
  6
CONTINUOUS
 62
     7
 10
35.21838
 20
-13.45
 11
50.21838
 21
-13.45
  0
LINE
  8
0
  6
CONTINUOUS
 62
     7
 10
35.21838
 20
-9.95
 11
50.21838
 21
-9.95
  0
LINE
  8
0
  6
CONTINUOUS
 62
     7
 10
36.71838
 20
4.0
 11
48.71838
 21
4.0
  0
LINE
  8
0
  6
CONTINUOUS
 62
     7
 10
36.71838
 20
-1.0
 11
48.71838
 21
-1.0
  0
LINE
  8
0
  6
CENTER
 62
     2
 10
42.71838
 20
6.66667
 11
42.71838
 21
-52.33333
  0
LINE
  8
0
  6
CONTINUOUS
 62
     7
 10
53.71838
 20
-22.75
 11
53.71838
 21
-35.25
  0
LINE
  8
0
  6
CONTINUOUS
 62
     7
 10
31.71838
 20
-22.75
 11
31.71838
 21
-35.25
  0
LINE
  8
0
  6
CENTER
 62
     2
 10
92.71838
 20
39.48433
 11
92.71838
 21
14.33333
  0
LINE
  8
0
  6
CENTER
 62
     2
 10
79.88505
 20
27.0
 11
122.062
 21
27.0
  0
LINE
  8
0
  6
CONTINUOUS
 62
     7
 10
86.76392
 20
18.31347
 11
82.2184
 21
26.18654
  0
LINE
  8
0
  6
CONTINUOUS
 62
     7
 10
103.2184
 20
27.81348
 11
98.6729
 21
35.68654
  0
LINE
  8
0
  6
CONTINUOUS
 62
     7
 10
88.17286
 20
17.5
 11
97.2639
 21
17.5
  0
LINE
  8
0
  6
CONTINUOUS
 62
     7
 10
88.17287
 20
36.5
 11
97.2639
 21
36.5
  0
LINE
  8
0
  6
CONTINUOUS
 62
     7
 10
98.67287
 20
18.31346
 11
103.2184
 21
26.18653
  0
LINE
  8
0
  6
CONTINUOUS
 62
     7
 10
82.21839
 20
27.81347
 11
86.76391
 21
35.68653
  0
LINE
  8
0
  6
CONTINUOUS
 62
     7
 10
86.7639
 20
35.68656
 11
88.17287
 21
36.50003
  0
LINE
  8
0
  6
CONTINUOUS
 62
     7
 10
97.2639
 20
17.50001
 11
98.67287
 21
18.31347
  0
LINE
  8
0
  6
CONTINUOUS
 62
     7
 10
103.2184
 20
27.81347
 11
103.2184
 21
26.18653
  0
LINE
  8
0
  6
CONTINUOUS
 62
     7
 10
82.21838
 20
27.81347
 11
82.21838
 21
26.18654
  0
LINE
  8
0
  6
CONTINUOUS
 62
     7
 10
97.26391
 20
36.5
 11
98.67288
 21
35.68653
  0
LINE
  8
0
  6
CONTINUOUS
 62
     7
 10
86.7639
 20
18.31347
 11
88.17287
 21
17.5
  0
LINE
  8
0
  6
CONTINUOUS
 62
     7
 10
50.21838
 20
-13.45
 11
50.21838
 21
-16.25
  0
LINE
  8
0
  6
CONTINUOUS
 62
     7
 10
35.21838
 20
-13.45
 11
35.21838
 21
-16.25
  0
LINE
  8
0
  6
CONTINUOUS
 62
     7
 10
34.71838
 20
-10.45
 11
34.71838
 21
-12.95
  0
LINE
  8
0
  6
CONTINUOUS
 62
     7
 10
50.71838
 20
-10.45
 11
50.71838
 21
-12.95
  0
LINE
  8
0
  6
CONTINUOUS
 62
     7
 10
36.21838
 20
3.5
 11
36.21838
 21
-0.5
  0
LINE
  8
0
  6
CONTINUOUS
 62
     7
 10
49.21838
 20
3.5
 11
49.21838
 21
-0.5
  0
LINE
  8
0
  6
CONTINUOUS
 62
     7
 10
49.21837
 20
3.49999
 11
48.71837
 21
3.99999
  0
LINE
  8
0
  6
CONTINUOUS
 62
     7
 10
36.71838
 20
4.0
 11
36.21838
 21
3.5
  0
LINE
  8
0
  6
CONTINUOUS
 62
     7
 10
36.21838
 20
-0.5
 11
36.71838
 21
-1.0
  0
LINE
  8
0
  6
CONTINUOUS
 62
     7
 10
48.71838
 20
-1.0
 11
49.21838
 21
-0.5
  0
LINE
  8
0
  6
CONTINUOUS
 62
     7
 10
35.21838
 20
-9.95001
 11
34.71838
 21
-10.45001
  0
LINE
  8
0
  6
CONTINUOUS
 62
     7
 10
34.71838
 20
-12.95
 11
35.21838
 21
-13.45
  0
LINE
  8
0
  6
CONTINUOUS
 62
     7
 10
50.71838
 20
-10.45
 11
50.21838
 21
-9.95
  0
LINE
  8
0
  6
CONTINUOUS
 62
     7
 10
50.2184
 20
-13.45001
 11
50.7184
 21
-12.95001
  0
LINE
  8
0
  6
CONTINUOUS
 62
     7
 10
34.71838
 20
-10.45
 11
50.71838
 21
-10.45
  0
LINE
  8
0
  6
CONTINUOUS
 62
     7
 10
34.71838
 20
-12.95
 11
50.71838
 21
-12.95
  0
LINE
  8
0
  6
CONTINUOUS
 62
     7
 10
36.21838
 20
3.5
 11
49.21838
 21
3.5
  0
LINE
  8
0
  6
CONTINUOUS
 62
     7
 10
36.21838
 20
-0.5
 11
49.21838
 21
-0.5
  0
LINE
  8
0
  6
CONTINUOUS
 62
     7
 10
37.21838
 20
3.5
 11
37.21838
 21
-0.5
  0
LINE
  8
0
  6
CONTINUOUS
 62
     7
 10
38.21838
 20
3.5
 11
38.21838
 21
-0.5
  0
LINE
  8
0
  6
CONTINUOUS
 62
     7
 10
39.21838
 20
3.5
 11
39.21838
 21
-0.5
  0
LINE
  8
0
  6
CONTINUOUS
 62
     7
 10
40.21838
 20
3.5
 11
40.21838
 21
-0.5
  0
LINE
  8
0
  6
CONTINUOUS
 62
     7
 10
41.21838
 20
3.5
 11
41.21838
 21
-0.5
  0
LINE
  8
0
  6
CONTINUOUS
 62
     7
 10
42.21838
 20
3.5
 11
42.21838
 21
-0.5
  0
LINE
  8
0
  6
CONTINUOUS
 62
     7
 10
35.71838
 20
-10.45
 11
35.71838
 21
-12.95
  0
LINE
  8
0
  6
CONTINUOUS
 62
     7
 10
36.71838
 20
-10.45
 11
36.71838
 21
-12.95
  0
LINE
  8
0
  6
CONTINUOUS
 62
     7
 10
37.71838
 20
-10.45
 11
37.71838
 21
-12.95
  0
LINE
  8
0
  6
CONTINUOUS
 62
     7
 10
38.71838
 20
-10.45
 11
38.71838
 21
-12.95
  0
LINE
  8
0
  6
CONTINUOUS
 62
     7
 10
39.71838
 20
-10.45
 11
39.71838
 21
-12.95
  0
LINE
  8
0
  6
CONTINUOUS
 62
     7
 10
40.71838
 20
-10.45
 11
40.71838
 21
-12.95
  0
LINE
  8
0
  6
CONTINUOUS
 62
     7
 10
41.71838
 20
-10.45
 11
41.71838
 21
-12.95
  0
LINE
  8
0
  6
CONTINUOUS
 62
     7
 10
37.71838
 20
-1.0
 11
37.71838
 21
-9.95
  0
LINE
  8
0
  6
CONTINUOUS
 62
     7
 10
47.71838
 20
-1.0
 11
47.71838
 21
-9.95
  0
LINE
  8
0
  6
CONTINUOUS
 62
     7
 10
38.53038
 20
-1.0
 11
38.53038
 21
-9.95
  0
LINE
  8
0
  6
CONTINUOUS
 62
     7
 10
46.90639
 20
-1.0
 11
46.90639
 21
-9.95
  0
LINE
  8
0
  6
CONTINUOUS
 62
     7
 10
31.71838
 20
-22.75
 11
53.71838
 21
-22.75
  0
LINE
  8
0
  6
CONTINUOUS
 62
     7
 10
31.71838
 20
-35.25
 11
53.71838
 21
-35.25
  0
LINE
  8
0
  6
CONTINUOUS
 62
     7
 10
53.71838
 20
-22.75
 11
52.85236
 21
-21.25
  0
LINE
  8
0
  6
CONTINUOUS
 62
     7
 10
31.71838
 20
-35.25
 11
32.58441
 21
-36.75
  0
LINE
  8
0
  6
CONTINUOUS
 62
     7
 10
31.71838
 20
-22.75
 11
32.58441
 21
-21.25
  0
LINE
  8
0
  6
CONTINUOUS
 62
     7
 10
53.71839
 20
-35.24999
 11
52.85236
 21
-36.74999
  0
LINE
  8
0
  6
CONTINUOUS
 62
     7
 10
51.2447
 20
-36.75
 11
50.84626
 21
-49.5
  0
LINE
  8
0
  6
CONTINUOUS
 62
     7
 10
50.38869
 20
-36.75
 11
49.99026
 21
-49.5
  0
LINE
  8
0
  6
CONTINUOUS
 62
     7
 10
35.04806
 20
-36.75001
 11
35.4465
 21
-49.50001
  0
LINE
  8
0
  6
CONTINUOUS
 62
     7
 10
34.19207
 20
-36.75
 11
34.59051
 21
-49.5
  0
LINE
  8
0
  6
CONTINUOUS
 62
     7
 10
84.59051
 20
-49.5
 11
100.8463
 21
-49.5
  0
LINE
  8
0
  6
CENTER
 62
     2
 10
78.47122
 20
-29.0
 11
122.062
 21
-29.0
  0
LINE
  8
0
  6
CONTINUOUS
 62
     7
 10
82.21838
 20
-21.25
 11
104.6684
 21
-21.25
  0
LINE
  8
0
  6
CONTINUOUS
 62
     7
 10
82.58441
 20
-36.75
 11
117.6684
 21
-36.75
  0
LINE
  8
0
  6
CONTINUOUS
 62
     7
 10
83.21838
 20
-16.25
 11
102.2184
 21
-16.25
  0
LINE
  8
0
  6
CONTINUOUS
 62
     7
 10
85.21838
 20
-13.45
 11
100.2184
 21
-13.45
  0
LINE
  8
0
  6
CONTINUOUS
 62
     7
 10
85.21838
 20
-9.95
 11
100.2184
 21
-9.95
  0
LINE
  8
0
  6
CONTINUOUS
 62
     7
 10
86.71838
 20
4.0
 11
98.71838
 21
4.0
  0
LINE
  8
0
  6
CONTINUOUS
 62
     7
 10
86.71838
 20
-1.0
 11
98.71838
 21
-1.0
  0
LINE
  8
0
  6
CENTER
 62
     2
 10
92.71838
 20
6.66667
 11
92.71838
 21
-52.33333
  0
LINE
  8
0
  6
CONTINUOUS
 62
     7
 10
103.7184
 20
-22.75
 11
103.7184
 21
-24.25
  0
LINE
  8
0
  6
CONTINUOUS
 62
     7
 10
81.71838
 20
-22.75
 11
81.71838
 21
-35.25
  0
LINE
  8
0
  6
CONTINUOUS
 62
     7
 10
103.2184
 20
-16.82735
 11
103.2184
 21
-21.25
  0
LINE
  8
0
  6
CONTINUOUS
 62
     7
 10
98.67286
 20
-16.82735
 11
98.67286
 21
-21.25
  0
LINE
  8
0
  6
CONTINUOUS
 62
     7
 10
97.2639
 20
-16.82735
 11
97.2639
 21
-21.25
  0
LINE
  8
0
  6
CONTINUOUS
 62
     7
 10
88.17286
 20
-16.82735
 11
88.17286
 21
-21.25
  0
LINE
  8
0
  6
CONTINUOUS
 62
     7
 10
86.7639
 20
-16.82735
 11
86.7639
 21
-21.25
  0
LINE
  8
0
  6
CONTINUOUS
 62
     7
 10
82.21838
 20
-16.82735
 11
82.21838
 21
-21.25
  0
LINE
  8
0
  6
CONTINUOUS
 62
     7
 10
102.2184
 20
-16.25
 11
103.2184
 21
-16.82735
  0
LINE
  8
0
  6
CONTINUOUS
 62
     7
 10
83.21838
 20
-16.25
 11
82.21838
 21
-16.82735
  0
LINE
  8
0
  6
CONTINUOUS
 62
     7
 10
86.7639
 20
-16.82735
 11
88.17286
 21
-16.82735
  0
LINE
  8
0
  6
CONTINUOUS
 62
     7
 10
97.2639
 20
-16.82735
 11
98.67286
 21
-16.82735
  0
LINE
  8
0
  6
CONTINUOUS
 62
     7
 10
100.2184
 20
-13.45
 11
100.2184
 21
-16.25
  0
LINE
  8
0
  6
CONTINUOUS
 62
     7
 10
85.21838
 20
-13.45
 11
85.21838
 21
-16.25
  0
LINE
  8
0
  6
CONTINUOUS
 62
     7
 10
84.71838
 20
-10.45
 11
84.71838
 21
-12.95
  0
LINE
  8
0
  6
CONTINUOUS
 62
     7
 10
100.7184
 20
-10.45
 11
100.7184
 21
-12.95
  0
LINE
  8
0
  6
CONTINUOUS
 62
     7
 10
86.21838
 20
3.5
 11
86.21838
 21
-0.5
  0
LINE
  8
0
  6
CONTINUOUS
 62
     7
 10
99.21838
 20
3.5
 11
99.21838
 21
-0.5
  0
LINE
  8
0
  6
CONTINUOUS
 62
     7
 10
99.21837
 20
3.49999
 11
98.71837
 21
3.99999
  0
LINE
  8
0
  6
CONTINUOUS
 62
     7
 10
86.71838
 20
4.0
 11
86.21838
 21
3.50001
  0
LINE
  8
0
  6
CONTINUOUS
 62
     7
 10
86.21838
 20
-0.5
 11
86.71838
 21
-1.0
  0
LINE
  8
0
  6
CONTINUOUS
 62
     7
 10
98.71838
 20
-1.0
 11
99.21838
 21
-0.5
  0
LINE
  8
0
  6
CONTINUOUS
 62
     7
 10
85.21838
 20
-9.95
 11
84.71838
 21
-10.45
  0
LINE
  8
0
  6
CONTINUOUS
 62
     7
 10
84.71838
 20
-12.95
 11
85.21838
 21
-13.45
  0
LINE
  8
0
  6
CONTINUOUS
 62
     7
 10
100.7184
 20
-10.45
 11
100.2184
 21
-9.95
  0
LINE
  8
0
  6
CONTINUOUS
 62
     7
 10
100.2184
 20
-13.45
 11
100.7184
 21
-12.95
  0
LINE
  8
0
  6
CONTINUOUS
 62
     7
 10
84.71838
 20
-10.45
 11
100.7184
 21
-10.45
  0
LINE
  8
0
  6
CONTINUOUS
 62
     7
 10
84.71838
 20
-12.95
 11
100.7184
 21
-12.95
  0
LINE
  8
0
  6
CONTINUOUS
 62
     7
 10
86.21838
 20
3.5
 11
99.21838
 21
3.5
  0
LINE
  8
0
  6
CONTINUOUS
 62
     7
 10
86.21838
 20
-0.5
 11
99.21838
 21
-0.5
  0
LINE
  8
0
  6
CONTINUOUS
 62
     7
 10
87.21838
 20
3.5
 11
87.21838
 21
-0.5
  0
LINE
  8
0
  6
CONTINUOUS
 62
     7
 10
88.21838
 20
3.5
 11
88.21838
 21
-0.5
  0
LINE
  8
0
  6
CONTINUOUS
 62
     7
 10
89.21838
 20
3.5
 11
89.21838
 21
-0.5
  0
LINE
  8
0
  6
CONTINUOUS
 62
     7
 10
90.21838
 20
3.5
 11
90.21838
 21
-0.5
  0
LINE
  8
0
  6
CONTINUOUS
 62
     7
 10
91.21838
 20
3.5
 11
91.21838
 21
-0.5
  0
LINE
  8
0
  6
CONTINUOUS
 62
     7
 10
92.21838
 20
3.5
 11
92.21838
 21
-0.5
  0
LINE
  8
0
  6
CONTINUOUS
 62
     7
 10
85.71838
 20
-10.45
 11
85.71838
 21
-12.95
  0
LINE
  8
0
  6
CONTINUOUS
 62
     7
 10
86.71838
 20
-10.45
 11
86.71838
 21
-12.95
  0
LINE
  8
0
  6
CONTINUOUS
 62
     7
 10
87.71838
 20
-10.45
 11
87.71838
 21
-12.95
  0
LINE
  8
0
  6
CONTINUOUS
 62
     7
 10
88.71838
 20
-10.45
 11
88.71838
 21
-12.95
  0
LINE
  8
0
  6
CONTINUOUS
 62
     7
 10
89.71838
 20
-10.45
 11
89.71838
 21
-12.95
  0
LINE
  8
0
  6
CONTINUOUS
 62
     7
 10
90.71838
 20
-10.45
 11
90.71838
 21
-12.95
  0
LINE
  8
0
  6
CONTINUOUS
 62
     7
 10
91.71838
 20
-10.45
 11
91.71838
 21
-12.95
  0
LINE
  8
0
  6
CONTINUOUS
 62
     7
 10
87.71838
 20
-1.0
 11
87.71838
 21
-9.95
  0
LINE
  8
0
  6
CONTINUOUS
 62
     7
 10
97.71838
 20
-1.0
 11
97.71838
 21
-9.95
  0
LINE
  8
0
  6
CONTINUOUS
 62
     7
 10
88.53038
 20
-1.0
 11
88.53038
 21
-9.95
  0
LINE
  8
0
  6
CONTINUOUS
 62
     7
 10
96.90639
 20
-1.0
 11
96.90639
 21
-9.95
  0
LINE
  8
0
  6
CONTINUOUS
 62
     7
 10
81.71838
 20
-22.75
 11
103.7184
 21
-22.75
  0
LINE
  8
0
  6
CONTINUOUS
 62
     7
 10
81.71838
 20
-35.25
 11
103.7184
 21
-35.25
  0
LINE
  8
0
  6
CONTINUOUS
 62
     7
 10
103.7184
 20
-22.75001
 11
102.8524
 21
-21.25
  0
LINE
  8
0
  6
CONTINUOUS
 62
     7
 10
81.71838
 20
-35.25
 11
82.58441
 21
-36.74999
  0
LINE
  8
0
  6
CONTINUOUS
 62
     7
 10
81.71838
 20
-22.75
 11
82.5844
 21
-21.25
  0
LINE
  8
0
  6
CONTINUOUS
 62
     7
 10
103.7184
 20
-35.25
 11
102.8523
 21
-36.75
  0
LINE
  8
0
  6
CONTINUOUS
 62
     7
 10
101.2447
 20
-36.75
 11
100.8463
 21
-49.5
  0
LINE
  8
0
  6
CONTINUOUS
 62
     7
 10
100.3887
 20
-36.75
 11
99.99026
 21
-49.5
  0
LINE
  8
0
  6
CONTINUOUS
 62
     7
 10
85.04807
 20
-36.75
 11
85.44651
 21
-49.50001
  0
LINE
  8
0
  6
CONTINUOUS
 62
     7
 10
84.19207
 20
-36.75
 11
84.59051
 21
-49.5
  0
LINE
  8
0
  6
CONTINUOUS
 62
     7
 10
33.21838
 20
-16.25
 11
33.21838
 21
-21.25
  0
LINE
  8
0
  6
CONTINUOUS
 62
     7
 10
52.21838
 20
-16.25
 11
52.21838
 21
-21.25
  0
LINE
  8
0
  6
CONTINUOUS
 62
     7
 10
41.90338
 20
-16.82735
 11
41.90338
 21
-21.25
  0
LINE
  8
0
  6
CONTINUOUS
 62
     7
 10
43.53339
 20
-16.82735
 11
43.53339
 21
-21.25
  0
LINE
  8
0
  6
CONTINUOUS
 62
     7
 10
51.40839
 20
-16.82735
 11
51.40839
 21
-21.25
  0
LINE
  8
0
  6
CONTINUOUS
 62
     7
 10
34.02839
 20
-16.82735
 11
34.02839
 21
-21.25
  0
LINE
  8
0
  6
CONTINUOUS
 62
     7
 10
34.02839
 20
-16.82735
 11
33.21838
 21
-16.82735
  0
LINE
  8
0
  6
CONTINUOUS
 62
     7
 10
43.53339
 20
-16.82735
 11
41.90338
 21
-16.82735
  0
LINE
  8
0
  6
CONTINUOUS
 62
     7
 10
51.40839
 20
-16.82735
 11
52.21838
 21
-16.82735
  0
LINE
  8
0
  6
CONTINUOUS
 62
     7
 10
144.5905
 20
-49.5
 11
160.8463
 21
-49.5
  0
LINE
  8
0
  6
CENTER
 62
     2
 10
137.7184
 20
-29.0
 11
167.7184
 21
-29.0
  0
LINE
  8
0
  6
CONTINUOUS
 62
     7
 10
142.5844
 20
-21.25
 11
145.4684
 21
-21.25
  0
LINE
  8
0
  6
CONTINUOUS
 62
     7
 10
142.5844
 20
-36.75
 11
162.8524
 21
-36.75
  0
LINE
  8
0
  6
CONTINUOUS
 62
     7
 10
143.2184
 20
-16.25
 11
145.4684
 21
-16.25
  0
LINE
  8
0
  6
CONTINUOUS
 62
     7
 10
145.2184
 20
-13.45
 11
145.4684
 21
-13.45
  0
LINE
  8
0
  6
CONTINUOUS
 62
     7
 10
145.2184
 20
-9.95
 11
147.9684
 21
-9.95
  0
LINE
  8
0
  6
CONTINUOUS
 62
     7
 10
146.7184
 20
4.0
 11
158.7184
 21
4.0
  0
LINE
  8
0
  6
CONTINUOUS
 62
     7
 10
146.7184
 20
-1.0
 11
158.7184
 21
-1.0
  0
LINE
  8
0
  6
CENTER
 62
     2
 10
152.7184
 20
6.66667
 11
152.7184
 21
-52.33333
  0
LINE
  8
0
  6
CONTINUOUS
 62
     7
 10
163.7184
 20
-22.75
 11
163.7184
 21
-35.25
  0
LINE
  8
0
  6
CONTINUOUS
 62
     7
 10
141.7184
 20
-22.75
 11
141.7184
 21
-35.25
  0
LINE
  8
0
  6
CONTINUOUS
 62
     7
 10
160.2184
 20
-13.45
 11
160.2184
 21
-16.25
  0
LINE
  8
0
  6
CONTINUOUS
 62
     7
 10
145.2184
 20
-13.45
 11
145.2184
 21
-16.25
  0
LINE
  8
0
  6
CONTINUOUS
 62
     7
 10
144.7184
 20
-10.45
 11
144.7184
 21
-12.95
  0
LINE
  8
0
  6
CONTINUOUS
 62
     7
 10
160.7184
 20
-10.45
 11
160.7184
 21
-12.95
  0
LINE
  8
0
  6
CONTINUOUS
 62
     7
 10
146.2184
 20
3.5
 11
146.2184
 21
-0.5
  0
LINE
  8
0
  6
CONTINUOUS
 62
     7
 10
159.2184
 20
3.5
 11
159.2184
 21
-0.5
  0
LINE
  8
0
  6
CONTINUOUS
 62
     7
 10
159.2183
 20
3.49997
 11
158.7183
 21
3.99997
  0
LINE
  8
0
  6
CONTINUOUS
 62
     7
 10
146.7184
 20
4.00001
 11
146.2184
 21
3.50001
  0
LINE
  8
0
  6
CONTINUOUS
 62
     7
 10
146.2184
 20
-0.50001
 11
146.7184
 21
-1.00001
  0
LINE
  8
0
  6
CONTINUOUS
 62
     7
 10
158.7184
 20
-1.00001
 11
159.2184
 21
-0.50001
  0
LINE
  8
0
  6
CONTINUOUS
 62
     7
 10
145.2184
 20
-9.95
 11
144.7184
 21
-10.45
  0
LINE
  8
0
  6
CONTINUOUS
 62
     7
 10
144.7184
 20
-12.95001
 11
145.2184
 21
-13.45001
  0
LINE
  8
0
  6
CONTINUOUS
 62
     7
 10
160.7184
 20
-10.45001
 11
160.2184
 21
-9.95001
  0
LINE
  8
0
  6
CONTINUOUS
 62
     7
 10
160.2184
 20
-13.45001
 11
160.7184
 21
-12.95001
  0
LINE
  8
0
  6
CONTINUOUS
 62
     7
 10
144.7184
 20
-10.45
 11
145.7184
 21
-10.45
  0
LINE
  8
0
  6
CONTINUOUS
 62
     7
 10
144.7184
 20
-12.95
 11
145.4684
 21
-12.95
  0
LINE
  8
0
  6
CONTINUOUS
 62
     7
 10
146.2184
 20
3.5
 11
159.2184
 21
3.5
  0
LINE
  8
0
  6
CONTINUOUS
 62
     7
 10
146.2184
 20
-0.5
 11
159.2184
 21
-0.5
  0
LINE
  8
0
  6
CONTINUOUS
 62
     7
 10
147.2184
 20
3.5
 11
147.2184
 21
-0.5
  0
LINE
  8
0
  6
CONTINUOUS
 62
     7
 10
148.2184
 20
3.5
 11
148.2184
 21
-0.5
  0
LINE
  8
0
  6
CONTINUOUS
 62
     7
 10
149.2184
 20
3.5
 11
149.2184
 21
-0.5
  0
LINE
  8
0
  6
CONTINUOUS
 62
     7
 10
150.2184
 20
3.5
 11
150.2184
 21
-0.5
  0
LINE
  8
0
  6
CONTINUOUS
 62
     7
 10
151.2184
 20
3.5
 11
151.2184
 21
-0.5
  0
LINE
  8
0
  6
CONTINUOUS
 62
     7
 10
152.2184
 20
3.5
 11
152.2184
 21
-0.5
  0
LINE
  8
0
  6
CONTINUOUS
 62
     7
 10
147.7184
 20
-1.0
 11
147.7184
 21
-7.0
  0
LINE
  8
0
  6
CONTINUOUS
 62
     7
 10
157.7184
 20
-1.0
 11
157.7184
 21
-7.0
  0
LINE
  8
0
  6
CONTINUOUS
 62
     7
 10
148.5304
 20
-1.0
 11
148.5304
 21
-7.0
  0
LINE
  8
0
  6
CONTINUOUS
 62
     7
 10
156.9064
 20
-1.0
 11
156.9064
 21
-7.0
  0
LINE
  8
0
  6
CONTINUOUS
 62
     7
 10
141.7184
 20
-22.75
 11
145.6184
 21
-22.75
  0
LINE
  8
0
  6
CONTINUOUS
 62
     7
 10
141.7184
 20
-35.25
 11
151.9684
 21
-35.25
  0
LINE
  8
0
  6
CONTINUOUS
 62
     7
 10
163.7184
 20
-22.75
 11
162.8524
 21
-21.25
  0
LINE
  8
0
  6
CONTINUOUS
 62
     7
 10
141.7184
 20
-35.25001
 11
142.5844
 21
-36.75
  0
LINE
  8
0
  6
CONTINUOUS
 62
     7
 10
141.7184
 20
-22.75
 11
142.5844
 21
-21.24999
  0
LINE
  8
0
  6
CONTINUOUS
 62
     7
 10
163.7184
 20
-35.24998
 11
162.8523
 21
-36.74998
  0
LINE
  8
0
  6
CONTINUOUS
 62
     7
 10
161.2447
 20
-36.75
 11
160.8463
 21
-49.5
  0
LINE
  8
0
  6
CONTINUOUS
 62
     7
 10
160.3887
 20
-36.75
 11
159.9902
 21
-49.5
  0
LINE
  8
0
  6
CONTINUOUS
 62
     7
 10
145.0481
 20
-36.75
 11
145.4466
 21
-49.5
  0
LINE
  8
0
  6
CONTINUOUS
 62
     7
 10
144.1921
 20
-36.75
 11
144.5905
 21
-49.5
  0
LINE
  8
0
  6
CONTINUOUS
 62
     7
 10
143.2184
 20
-16.25
 11
143.2184
 21
-21.25
  0
LINE
  8
0
  6
CONTINUOUS
 62
     7
 10
162.2184
 20
-16.25
 11
162.2184
 21
-21.25
  0
LINE
  8
0
  6
CONTINUOUS
 62
     7
 10
161.4084
 20
-16.82735
 11
161.4084
 21
-21.25
  0
LINE
  8
0
  6
CONTINUOUS
 62
     7
 10
144.0284
 20
-16.82735
 11
144.0284
 21
-21.25
  0
LINE
  8
0
  6
CONTINUOUS
 62
     7
 10
144.0284
 20
-16.82735
 11
143.2184
 21
-16.82735
  0
LINE
  8
0
  6
CONTINUOUS
 62
     7
 10
161.4084
 20
-16.82735
 11
162.2184
 21
-16.82735
  0
LINE
  8
0
  6
CONTINUOUS
 62
     7
 10
103.7184
 20
-33.75
 11
103.7184
 21
-35.25
  0
LINE
  8
0
  6
CONTINUOUS
 62
     7
 10
159.8184
 20
-22.75
 11
163.7184
 21
-22.75
  0
LINE
  8
0
  6
CONTINUOUS
 62
     7
 10
153.4684
 20
-35.25
 11
163.7184
 21
-35.25
  0
LINE
  8
0
  6
CENTER
 62
     2
 10
81.09591
 20
-127.7057
 11
124.424
 21
-127.7057
  0
LINE
  8
0
  6
CENTER
 62
     2
 10
92.71838
 20
-116.7057
 11
92.71838
 21
-138.7057
  0
LINE
  8
0
  6
CONTINUOUS
 62
     7
 10
88.67696
 20
-134.7057
 11
84.63551
 21
-127.7057
  0
LINE
  8
0
  6
CONTINUOUS
 62
     7
 10
100.8013
 20
-127.7057
 11
96.75985
 21
-120.7057
  0
LINE
  8
0
  6
CONTINUOUS
 62
     7
 10
88.67693
 20
-120.7057
 11
96.75983
 21
-120.7057
  0
LINE
  8
0
  6
CONTINUOUS
 62
     7
 10
88.67693
 20
-134.7057
 11
96.75983
 21
-134.7057
  0
LINE
  8
0
  6
CONTINUOUS
 62
     7
 10
84.63548
 20
-127.7057
 11
88.67693
 21
-120.7057
  0
LINE
  8
0
  6
CONTINUOUS
 62
     7
 10
96.75983
 20
-134.7057
 11
100.8013
 21
-127.7057
  0
LINE
  8
0
  6
CENTER
 62
     2
 10
42.71838
 20
-158.6124
 11
42.71838
 21
-211.3389
  0
LINE
  8
0
  6
CONTINUOUS
 62
     7
 10
36.32738
 20
-208.7057
 11
49.10938
 21
-208.7057
  0
LINE
  8
0
  6
CONTINUOUS
 62
     7
 10
34.2112
 20
-197.2057
 11
51.22556
 21
-197.2057
  0
LINE
  8
0
  6
CONTINUOUS
 62
     7
 10
34.2112
 20
-185.2057
 11
51.22556
 21
-185.2057
  0
LINE
  8
0
  6
CONTINUOUS
 62
     7
 10
35.71838
 20
-179.2057
 11
49.71838
 21
-179.2057
  0
LINE
  8
0
  6
CONTINUOUS
 62
     7
 10
36.71838
 20
-177.2057
 11
48.71838
 21
-177.2057
  0
LINE
  8
0
  6
CONTINUOUS
 62
     7
 10
33.96838
 20
-173.7057
 11
51.46838
 21
-173.7057
  0
LINE
  8
0
  6
CONTINUOUS
 62
     7
 10
38.21838
 20
-161.2057
 11
47.21839
 21
-161.2057
  0
LINE
  8
0
  6
CONTINUOUS
 62
     7
 10
38.21838
 20
-166.2057
 11
47.21838
 21
-166.2057
  0
LINE
  8
0
  6
CONTINUOUS
 62
     7
 10
51.91838
 20
-186.4057
 11
51.91838
 21
-196.0057
  0
LINE
  8
0
  6
CONTINUOUS
 62
     7
 10
33.51838
 20
-186.4057
 11
33.51838
 21
-196.0057
  0
LINE
  8
0
  6
CONTINUOUS
 62
     7
 10
47.21838
 20
-177.2057
 11
47.21838
 21
-179.2057
  0
LINE
  8
0
  6
CONTINUOUS
 62
     7
 10
38.21838
 20
-177.2057
 11
38.21838
 21
-179.2057
  0
LINE
  8
0
  6
CONTINUOUS
 62
     7
 10
49.21838
 20
-174.2057
 11
49.21838
 21
-176.7057
  0
LINE
  8
0
  6
CONTINUOUS
 62
     7
 10
36.21838
 20
-174.2057
 11
36.21838
 21
-176.7057
  0
LINE
  8
0
  6
CONTINUOUS
 62
     7
 10
37.71838
 20
-161.7057
 11
37.71838
 21
-165.7057
  0
LINE
  8
0
  6
CONTINUOUS
 62
     7
 10
47.71838
 20
-161.7057
 11
47.71838
 21
-165.7057
  0
LINE
  8
0
  6
CONTINUOUS
 62
     7
 10
49.21839
 20
-174.2056
 11
48.71839
 21
-173.7056
  0
LINE
  8
0
  6
CONTINUOUS
 62
     7
 10
36.71838
 20
-173.7056
 11
36.21838
 21
-174.2056
  0
LINE
  8
0
  6
CONTINUOUS
 62
     7
 10
36.21841
 20
-176.7056
 11
36.71842
 21
-177.2056
  0
LINE
  8
0
  6
CONTINUOUS
 62
     7
 10
48.71837
 20
-177.2056
 11
49.21837
 21
-176.7056
  0
LINE
  8
0
  6
CONTINUOUS
 62
     7
 10
47.71837
 20
-161.7057
 11
47.21837
 21
-161.2057
  0
LINE
  8
0
  6
CONTINUOUS
 62
     7
 10
38.21838
 20
-161.2056
 11
37.71838
 21
-161.7056
  0
LINE
  8
0
  6
CONTINUOUS
 62
     7
 10
37.71839
 20
-165.7056
 11
38.21838
 21
-166.2056
  0
LINE
  8
0
  6
CONTINUOUS
 62
     7
 10
47.21839
 20
-166.2057
 11
47.71839
 21
-165.7057
  0
LINE
  8
0
  6
CONTINUOUS
 62
     7
 10
37.71838
 20
-161.7057
 11
47.71838
 21
-161.7057
  0
LINE
  8
0
  6
CONTINUOUS
 62
     7
 10
37.71838
 20
-165.7057
 11
47.71838
 21
-165.7057
  0
LINE
  8
0
  6
CONTINUOUS
 62
     7
 10
36.21838
 20
-174.2057
 11
49.21838
 21
-174.2057
  0
LINE
  8
0
  6
CONTINUOUS
 62
     7
 10
36.21838
 20
-176.7057
 11
49.21838
 21
-176.7057
  0
LINE
  8
0
  6
CONTINUOUS
 62
     7
 10
38.71838
 20
-161.7057
 11
38.71838
 21
-165.7057
  0
LINE
  8
0
  6
CONTINUOUS
 62
     7
 10
39.71838
 20
-161.7057
 11
39.71838
 21
-165.7057
  0
LINE
  8
0
  6
CONTINUOUS
 62
     7
 10
40.71838
 20
-161.7057
 11
40.71838
 21
-165.7057
  0
LINE
  8
0
  6
CONTINUOUS
 62
     7
 10
41.71838
 20
-161.7057
 11
41.71838
 21
-165.7057
  0
LINE
  8
0
  6
CONTINUOUS
 62
     7
 10
37.21838
 20
-174.2057
 11
37.21838
 21
-176.7057
  0
LINE
  8
0
  6
CONTINUOUS
 62
     7
 10
38.21838
 20
-174.2057
 11
38.21838
 21
-176.7057
  0
LINE
  8
0
  6
CONTINUOUS
 62
     7
 10
39.21838
 20
-174.2057
 11
39.21838
 21
-176.7057
  0
LINE
  8
0
  6
CONTINUOUS
 62
     7
 10
40.21838
 20
-174.2057
 11
40.21838
 21
-176.7057
  0
LINE
  8
0
  6
CONTINUOUS
 62
     7
 10
41.21838
 20
-174.2057
 11
41.21838
 21
-176.7057
  0
LINE
  8
0
  6
CONTINUOUS
 62
     7
 10
42.21838
 20
-174.2057
 11
42.21838
 21
-176.7057
  0
LINE
  8
0
  6
CONTINUOUS
 62
     7
 10
45.71838
 20
-166.2057
 11
45.71838
 21
-173.7057
  0
LINE
  8
0
  6
CONTINUOUS
 62
     7
 10
39.71838
 20
-166.2057
 11
39.71838
 21
-173.7057
  0
LINE
  8
0
  6
CONTINUOUS
 62
     7
 10
45.20388
 20
-166.2057
 11
45.20388
 21
-173.7057
  0
LINE
  8
0
  6
CONTINUOUS
 62
     7
 10
40.23288
 20
-166.2057
 11
40.23288
 21
-173.7057
  0
LINE
  8
0
  6
CONTINUOUS
 62
     7
 10
33.51838
 20
-186.4057
 11
51.91838
 21
-186.4057
  0
LINE
  8
0
  6
CONTINUOUS
 62
     7
 10
33.51838
 20
-196.0057
 11
51.91838
 21
-196.0057
  0
LINE
  8
0
  6
CONTINUOUS
 62
     7
 10
51.91841
 20
-186.4056
 11
51.22559
 21
-185.2056
  0
LINE
  8
0
  6
CONTINUOUS
 62
     7
 10
33.5184
 20
-196.0056
 11
34.21122
 21
-197.2056
  0
LINE
  8
0
  6
CONTINUOUS
 62
     7
 10
33.5184
 20
-186.4057
 11
34.21122
 21
-185.2057
  0
LINE
  8
0
  6
CONTINUOUS
 62
     7
 10
51.91837
 20
-196.0056
 11
51.22555
 21
-197.2056
  0
LINE
  8
0
  6
CONTINUOUS
 62
     7
 10
49.46876
 20
-197.2057
 11
49.10938
 21
-208.7057
  0
LINE
  8
0
  6
CONTINUOUS
 62
     7
 10
48.61276
 20
-197.2056
 11
48.25338
 21
-208.7056
  0
LINE
  8
0
  6
CONTINUOUS
 62
     7
 10
36.82406
 20
-197.2056
 11
37.18344
 21
-208.7056
  0
LINE
  8
0
  6
CONTINUOUS
 62
     7
 10
35.96801
 20
-197.2057
 11
36.32738
 21
-208.7057
  0
LINE
  8
0
  6
CONTINUOUS
 62
     7
 10
49.71838
 20
-179.2057
 11
49.71838
 21
-185.2057
  0
LINE
  8
0
  6
CONTINUOUS
 62
     7
 10
35.71838
 20
-179.2057
 11
35.71838
 21
-185.2057
  0
LINE
  8
0
  6
CONTINUOUS
 62
     7
 10
42.71838
 20
-179.8309
 11
42.71838
 21
-185.2057
  0
LINE
  8
0
  6
CENTER
 62
     2
 10
30.71838
 20
-191.2057
 11
54.71838
 21
-191.2057
  0
LINE
  8
0
  6
CONTINUOUS
 62
     7
 10
215.0273
 20
110.2057
 11
231.283
 21
110.2057
  0
LINE
  8
0
  6
CENTER
 62
     2
 10
208.1552
 20
131.7057
 11
237.8781
 21
131.7057
  0
LINE
  8
0
  6
CONTINUOUS
 62
     7
 10
213.0212
 20
139.4557
 11
233.2891
 21
139.4557
  0
LINE
  8
0
  6
CONTINUOUS
 62
     7
 10
213.0212
 20
123.9557
 11
233.2891
 21
123.9557
  0
LINE
  8
0
  6
CONTINUOUS
 62
     7
 10
213.6552
 20
144.4557
 11
232.6552
 21
144.4557
  0
LINE
  8
0
  6
CONTINUOUS
 62
     7
 10
215.6552
 20
147.2557
 11
230.6552
 21
147.2557
  0
LINE
  8
0
  6
CONTINUOUS
 62
     7
 10
215.6552
 20
150.7557
 11
230.6552
 21
150.7557
  0
LINE
  8
0
  6
CONTINUOUS
 62
     7
 10
217.1552
 20
163.7057
 11
229.1552
 21
163.7057
  0
LINE
  8
0
  6
CONTINUOUS
 62
     7
 10
217.1552
 20
158.7057
 11
229.1552
 21
158.7057
  0
LINE
  8
0
  6
CENTER
 62
     2
 10
223.1552
 20
166.3723
 11
223.1552
 21
107.3723
  0
LINE
  8
0
  6
CONTINUOUS
 62
     7
 10
234.1552
 20
137.9557
 11
234.1552
 21
125.4557
  0
LINE
  8
0
  6
CONTINUOUS
 62
     7
 10
212.1552
 20
137.9557
 11
212.1552
 21
125.4557
  0
LINE
  8
0
  6
CENTER
 62
     2
 10
273.1552
 20
199.19
 11
273.1552
 21
174.039
  0
LINE
  8
0
  6
CENTER
 62
     2
 10
260.3218
 20
186.7057
 11
306.6329
 21
186.7057
  0
LINE
  8
0
  6
CONTINUOUS
 62
     7
 10
267.2007
 20
178.0192
 11
262.6552
 21
185.8922
  0
LINE
  8
0
  6
CONTINUOUS
 62
     7
 10
283.6552
 20
187.5192
 11
279.1097
 21
195.3922
  0
LINE
  8
0
  6
CONTINUOUS
 62
     7
 10
268.6096
 20
177.2057
 11
277.7007
 21
177.2057
  0
LINE
  8
0
  6
CONTINUOUS
 62
     7
 10
268.6096
 20
196.2057
 11
277.7007
 21
196.2057
  0
LINE
  8
0
  6
CONTINUOUS
 62
     7
 10
279.1096
 20
178.0191
 11
283.6552
 21
185.8922
  0
LINE
  8
0
  6
CONTINUOUS
 62
     7
 10
262.6552
 20
187.5191
 11
267.2007
 21
195.3922
  0
LINE
  8
0
  6
CONTINUOUS
 62
     7
 10
267.2007
 20
195.3923
 11
268.6096
 21
196.2057
  0
LINE
  8
0
  6
CONTINUOUS
 62
     7
 10
277.7007
 20
177.2057
 11
279.1096
 21
178.0191
  0
LINE
  8
0
  6
CONTINUOUS
 62
     7
 10
283.6552
 20
187.5191
 11
283.6552
 21
185.8922
  0
LINE
  8
0
  6
CONTINUOUS
 62
     7
 10
262.6552
 20
187.5191
 11
262.6552
 21
185.8922
  0
LINE
  8
0
  6
CONTINUOUS
 62
     7
 10
277.7007
 20
196.2057
 11
279.1096
 21
195.3922
  0
LINE
  8
0
  6
CONTINUOUS
 62
     7
 10
267.2007
 20
178.0191
 11
268.6096
 21
177.2057
  0
LINE
  8
0
  6
CONTINUOUS
 62
     7
 10
230.6552
 20
147.2557
 11
230.6552
 21
144.4557
  0
LINE
  8
0
  6
CONTINUOUS
 62
     7
 10
215.6552
 20
147.2557
 11
215.6552
 21
144.4557
  0
LINE
  8
0
  6
CONTINUOUS
 62
     7
 10
215.1552
 20
150.2557
 11
215.1552
 21
147.7557
  0
LINE
  8
0
  6
CONTINUOUS
 62
     7
 10
231.1552
 20
150.2557
 11
231.1552
 21
147.7557
  0
LINE
  8
0
  6
CONTINUOUS
 62
     7
 10
216.6552
 20
163.2057
 11
216.6552
 21
159.2057
  0
LINE
  8
0
  6
CONTINUOUS
 62
     7
 10
229.6552
 20
163.2057
 11
229.6552
 21
159.2057
  0
LINE
  8
0
  6
CONTINUOUS
 62
     7
 10
229.6551
 20
163.2056
 11
229.1551
 21
163.7056
  0
LINE
  8
0
  6
CONTINUOUS
 62
     7
 10
217.1552
 20
163.7057
 11
216.6551
 21
163.2057
  0
LINE
  8
0
  6
CONTINUOUS
 62
     7
 10
216.6551
 20
159.2056
 11
217.1551
 21
158.7056
  0
LINE
  8
0
  6
CONTINUOUS
 62
     7
 10
229.1552
 20
158.7057
 11
229.6552
 21
159.2057
  0
LINE
  8
0
  6
CONTINUOUS
 62
     7
 10
215.6551
 20
150.7556
 11
215.1552
 21
150.2556
  0
LINE
  8
0
  6
CONTINUOUS
 62
     7
 10
215.1551
 20
147.7556
 11
215.6551
 21
147.2556
  0
LINE
  8
0
  6
CONTINUOUS
 62
     7
 10
231.1551
 20
150.2556
 11
230.6551
 21
150.7556
  0
LINE
  8
0
  6
CONTINUOUS
 62
     7
 10
230.6552
 20
147.2556
 11
231.1551
 21
147.7556
  0
LINE
  8
0
  6
CONTINUOUS
 62
     7
 10
215.1552
 20
150.2557
 11
231.1552
 21
150.2557
  0
LINE
  8
0
  6
CONTINUOUS
 62
     7
 10
215.1552
 20
147.7557
 11
231.1552
 21
147.7557
  0
LINE
  8
0
  6
CONTINUOUS
 62
     7
 10
216.6552
 20
163.2057
 11
229.6552
 21
163.2057
  0
LINE
  8
0
  6
CONTINUOUS
 62
     7
 10
216.6552
 20
159.2057
 11
229.6552
 21
159.2057
  0
LINE
  8
0
  6
CONTINUOUS
 62
     7
 10
217.6552
 20
163.2057
 11
217.6552
 21
159.2057
  0
LINE
  8
0
  6
CONTINUOUS
 62
     7
 10
218.6552
 20
163.2057
 11
218.6552
 21
159.2057
  0
LINE
  8
0
  6
CONTINUOUS
 62
     7
 10
219.6552
 20
163.2057
 11
219.6552
 21
159.2057
  0
LINE
  8
0
  6
CONTINUOUS
 62
     7
 10
220.6552
 20
163.2057
 11
220.6552
 21
159.2057
  0
LINE
  8
0
  6
CONTINUOUS
 62
     7
 10
221.6552
 20
163.2057
 11
221.6552
 21
159.2057
  0
LINE
  8
0
  6
CONTINUOUS
 62
     7
 10
222.6552
 20
163.2057
 11
222.6552
 21
159.2057
  0
LINE
  8
0
  6
CONTINUOUS
 62
     7
 10
216.1552
 20
150.2557
 11
216.1552
 21
147.7557
  0
LINE
  8
0
  6
CONTINUOUS
 62
     7
 10
217.1552
 20
150.2557
 11
217.1552
 21
147.7557
  0
LINE
  8
0
  6
CONTINUOUS
 62
     7
 10
218.1552
 20
150.2557
 11
218.1552
 21
147.7557
  0
LINE
  8
0
  6
CONTINUOUS
 62
     7
 10
219.1552
 20
150.2557
 11
219.1552
 21
147.7557
  0
LINE
  8
0
  6
CONTINUOUS
 62
     7
 10
220.1552
 20
150.2557
 11
220.1552
 21
147.7557
  0
LINE
  8
0
  6
CONTINUOUS
 62
     7
 10
221.1552
 20
150.2557
 11
221.1552
 21
147.7557
  0
LINE
  8
0
  6
CONTINUOUS
 62
     7
 10
222.1552
 20
150.2557
 11
222.1552
 21
147.7557
  0
LINE
  8
0
  6
CONTINUOUS
 62
     7
 10
218.1552
 20
158.7057
 11
218.1552
 21
150.7557
  0
LINE
  8
0
  6
CONTINUOUS
 62
     7
 10
228.1552
 20
158.7057
 11
228.1552
 21
150.7557
  0
LINE
  8
0
  6
CONTINUOUS
 62
     7
 10
218.9671
 20
158.7057
 11
218.9671
 21
150.7557
  0
LINE
  8
0
  6
CONTINUOUS
 62
     7
 10
227.3432
 20
158.7057
 11
227.3432
 21
150.7557
  0
LINE
  8
0
  6
CONTINUOUS
 62
     7
 10
212.1552
 20
137.9557
 11
234.1552
 21
137.9557
  0
LINE
  8
0
  6
CONTINUOUS
 62
     7
 10
212.1552
 20
125.4557
 11
234.1552
 21
125.4557
  0
LINE
  8
0
  6
CONTINUOUS
 62
     7
 10
234.1551
 20
137.9556
 11
233.2891
 21
139.4556
  0
LINE
  8
0
  6
CONTINUOUS
 62
     7
 10
212.1551
 20
125.4557
 11
213.0212
 21
123.9556
  0
LINE
  8
0
  6
CONTINUOUS
 62
     7
 10
212.1551
 20
137.9556
 11
213.0212
 21
139.4556
  0
LINE
  8
0
  6
CONTINUOUS
 62
     7
 10
234.1552
 20
125.4557
 11
233.2891
 21
123.9557
  0
LINE
  8
0
  6
CONTINUOUS
 62
     7
 10
231.7127
 20
123.9557
 11
231.283
 21
110.2057
  0
LINE
  8
0
  6
CONTINUOUS
 62
     7
 10
230.8567
 20
123.9557
 11
230.427
 21
110.2057
  0
LINE
  8
0
  6
CONTINUOUS
 62
     7
 10
215.4536
 20
123.9557
 11
215.8833
 21
110.2057
  0
LINE
  8
0
  6
CONTINUOUS
 62
     7
 10
214.5976
 20
123.9557
 11
215.0273
 21
110.2057
  0
LINE
  8
0
  6
CONTINUOUS
 62
     7
 10
265.0273
 20
110.2057
 11
281.283
 21
110.2057
  0
LINE
  8
0
  6
CENTER
 62
     2
 10
260.1713
 20
131.7057
 11
306.6329
 21
131.7057
  0
LINE
  8
0
  6
CONTINUOUS
 62
     7
 10
262.6552
 20
139.4557
 11
285.2051
 21
139.4557
  0
LINE
  8
0
  6
CONTINUOUS
 62
     7
 10
263.0212
 20
123.9557
 11
301.2051
 21
123.9557
  0
LINE
  8
0
  6
CONTINUOUS
 62
     7
 10
263.6552
 20
144.4557
 11
282.6552
 21
144.4557
  0
LINE
  8
0
  6
CONTINUOUS
 62
     7
 10
265.6552
 20
147.2557
 11
280.6552
 21
147.2557
  0
LINE
  8
0
  6
CONTINUOUS
 62
     7
 10
265.6552
 20
150.7557
 11
280.6552
 21
150.7557
  0
LINE
  8
0
  6
CONTINUOUS
 62
     7
 10
267.1552
 20
163.7057
 11
279.1552
 21
163.7057
  0
LINE
  8
0
  6
CONTINUOUS
 62
     7
 10
267.1552
 20
158.7057
 11
279.1552
 21
158.7057
  0
LINE
  8
0
  6
CENTER
 62
     2
 10
273.1552
 20
166.3723
 11
273.1552
 21
107.3723
  0
LINE
  8
0
  6
CONTINUOUS
 62
     7
 10
262.1552
 20
137.9557
 11
262.1552
 21
125.4557
  0
LINE
  8
0
  6
CONTINUOUS
 62
     7
 10
283.6552
 20
143.8783
 11
283.6552
 21
139.4557
  0
LINE
  8
0
  6
CONTINUOUS
 62
     7
 10
279.1096
 20
143.8783
 11
279.1096
 21
139.4557
  0
LINE
  8
0
  6
CONTINUOUS
 62
     7
 10
277.7007
 20
143.8783
 11
277.7007
 21
139.4557
  0
LINE
  8
0
  6
CONTINUOUS
 62
     7
 10
268.6096
 20
143.8783
 11
268.6096
 21
139.4557
  0
LINE
  8
0
  6
CONTINUOUS
 62
     7
 10
267.2007
 20
143.8783
 11
267.2007
 21
139.4557
  0
LINE
  8
0
  6
CONTINUOUS
 62
     7
 10
262.6552
 20
143.8783
 11
262.6552
 21
139.4557
  0
LINE
  8
0
  6
CONTINUOUS
 62
     7
 10
282.6551
 20
144.4556
 11
283.6551
 21
143.8783
  0
LINE
  8
0
  6
CONTINUOUS
 62
     7
 10
263.6552
 20
144.4557
 11
262.6552
 21
143.8783
  0
LINE
  8
0
  6
CONTINUOUS
 62
     7
 10
267.2007
 20
143.8783
 11
268.6096
 21
143.8783
  0
LINE
  8
0
  6
CONTINUOUS
 62
     7
 10
277.7007
 20
143.8783
 11
279.1096
 21
143.8783
  0
LINE
  8
0
  6
CONTINUOUS
 62
     7
 10
280.6552
 20
147.2557
 11
280.6552
 21
144.4557
  0
LINE
  8
0
  6
CONTINUOUS
 62
     7
 10
265.6552
 20
147.2557
 11
265.6552
 21
144.4557
  0
LINE
  8
0
  6
CONTINUOUS
 62
     7
 10
265.1552
 20
150.2557
 11
265.1552
 21
147.7557
  0
LINE
  8
0
  6
CONTINUOUS
 62
     7
 10
281.1552
 20
150.2557
 11
281.1552
 21
147.7557
  0
LINE
  8
0
  6
CONTINUOUS
 62
     7
 10
266.6552
 20
163.2057
 11
266.6552
 21
159.2057
  0
LINE
  8
0
  6
CONTINUOUS
 62
     7
 10
279.6552
 20
163.2057
 11
279.6552
 21
159.2057
  0
LINE
  8
0
  6
CONTINUOUS
 62
     7
 10
279.6551
 20
163.2056
 11
279.1551
 21
163.7056
  0
LINE
  8
0
  6
CONTINUOUS
 62
     7
 10
267.1552
 20
163.7057
 11
266.6552
 21
163.2057
  0
LINE
  8
0
  6
CONTINUOUS
 62
     7
 10
266.6552
 20
159.2056
 11
267.1552
 21
158.7056
  0
LINE
  8
0
  6
CONTINUOUS
 62
     7
 10
279.1552
 20
158.7057
 11
279.6551
 21
159.2057
  0
LINE
  8
0
  6
CONTINUOUS
 62
     7
 10
265.6552
 20
150.7556
 11
265.1552
 21
150.2557
  0
LINE
  8
0
  6
CONTINUOUS
 62
     7
 10
265.1551
 20
147.7556
 11
265.6551
 21
147.2556
  0
LINE
  8
0
  6
CONTINUOUS
 62
     7
 10
281.1551
 20
150.2556
 11
280.6551
 21
150.7556
  0
LINE
  8
0
  6
CONTINUOUS
 62
     7
 10
280.6552
 20
147.2557
 11
281.1552
 21
147.7556
  0
LINE
  8
0
  6
CONTINUOUS
 62
     7
 10
265.1552
 20
150.2557
 11
281.1552
 21
150.2557
  0
LINE
  8
0
  6
CONTINUOUS
 62
     7
 10
265.1552
 20
147.7557
 11
281.1552
 21
147.7557
  0
LINE
  8
0
  6
CONTINUOUS
 62
     7
 10
266.6552
 20
163.2057
 11
279.6552
 21
163.2057
  0
LINE
  8
0
  6
CONTINUOUS
 62
     7
 10
266.6552
 20
159.2057
 11
279.6552
 21
159.2057
  0
LINE
  8
0
  6
CONTINUOUS
 62
     7
 10
267.6552
 20
163.2057
 11
267.6552
 21
159.2057
  0
LINE
  8
0
  6
CONTINUOUS
 62
     7
 10
268.6552
 20
163.2057
 11
268.6552
 21
159.2057
  0
LINE
  8
0
  6
CONTINUOUS
 62
     7
 10
269.6552
 20
163.2057
 11
269.6552
 21
159.2057
  0
LINE
  8
0
  6
CONTINUOUS
 62
     7
 10
270.6552
 20
163.2057
 11
270.6552
 21
159.2057
  0
LINE
  8
0
  6
CONTINUOUS
 62
     7
 10
271.6552
 20
163.2057
 11
271.6552
 21
159.2057
  0
LINE
  8
0
  6
CONTINUOUS
 62
     7
 10
272.6552
 20
163.2057
 11
272.6552
 21
159.2057
  0
LINE
  8
0
  6
CONTINUOUS
 62
     7
 10
266.1552
 20
150.2557
 11
266.1552
 21
147.7557
  0
LINE
  8
0
  6
CONTINUOUS
 62
     7
 10
267.1552
 20
150.2557
 11
267.1552
 21
147.7557
  0
LINE
  8
0
  6
CONTINUOUS
 62
     7
 10
268.1552
 20
150.2557
 11
268.1552
 21
147.7557
  0
LINE
  8
0
  6
CONTINUOUS
 62
     7
 10
269.1552
 20
150.2557
 11
269.1552
 21
147.7557
  0
LINE
  8
0
  6
CONTINUOUS
 62
     7
 10
270.1552
 20
150.2557
 11
270.1552
 21
147.7557
  0
LINE
  8
0
  6
CONTINUOUS
 62
     7
 10
271.1552
 20
150.2557
 11
271.1552
 21
147.7557
  0
LINE
  8
0
  6
CONTINUOUS
 62
     7
 10
272.1552
 20
150.2557
 11
272.1552
 21
147.7557
  0
LINE
  8
0
  6
CONTINUOUS
 62
     7
 10
268.1552
 20
158.7057
 11
268.1552
 21
150.7557
  0
LINE
  8
0
  6
CONTINUOUS
 62
     7
 10
278.1552
 20
158.7057
 11
278.1552
 21
150.7557
  0
LINE
  8
0
  6
CONTINUOUS
 62
     7
 10
268.9672
 20
158.7057
 11
268.9672
 21
150.7557
  0
LINE
  8
0
  6
CONTINUOUS
 62
     7
 10
277.3431
 20
158.7057
 11
277.3431
 21
150.7557
  0
LINE
  8
0
  6
CONTINUOUS
 62
     7
 10
262.1552
 20
137.9557
 11
284.1551
 21
137.9557
  0
LINE
  8
0
  6
CONTINUOUS
 62
     7
 10
262.1552
 20
125.4557
 11
284.1552
 21
125.4557
  0
LINE
  8
0
  6
CONTINUOUS
 62
     7
 10
284.1551
 20
137.9557
 11
283.2891
 21
139.4556
  0
LINE
  8
0
  6
CONTINUOUS
 62
     7
 10
262.1551
 20
125.4557
 11
263.0211
 21
123.9557
  0
LINE
  8
0
  6
CONTINUOUS
 62
     7
 10
262.1552
 20
137.9556
 11
263.0212
 21
139.4557
  0
LINE
  8
0
  6
CONTINUOUS
 62
     7
 10
284.1552
 20
125.4557
 11
283.2891
 21
123.9557
  0
LINE
  8
0
  6
CONTINUOUS
 62
     7
 10
281.7127
 20
123.9557
 11
281.2831
 21
110.2057
  0
LINE
  8
0
  6
CONTINUOUS
 62
     7
 10
280.8567
 20
123.9557
 11
280.427
 21
110.2057
  0
LINE
  8
0
  6
CONTINUOUS
 62
     7
 10
265.4536
 20
123.9557
 11
265.8833
 21
110.2057
  0
LINE
  8
0
  6
CONTINUOUS
 62
     7
 10
264.5976
 20
123.9557
 11
265.0273
 21
110.2057
  0
LINE
  8
0
  6
CONTINUOUS
 62
     7
 10
213.6552
 20
144.4557
 11
213.6552
 21
139.4557
  0
LINE
  8
0
  6
CONTINUOUS
 62
     7
 10
232.6552
 20
144.4557
 11
232.6552
 21
139.4557
  0
LINE
  8
0
  6
CONTINUOUS
 62
     7
 10
222.3401
 20
143.8783
 11
222.3401
 21
139.4557
  0
LINE
  8
0
  6
CONTINUOUS
 62
     7
 10
223.9702
 20
143.8783
 11
223.9702
 21
139.4557
  0
LINE
  8
0
  6
CONTINUOUS
 62
     7
 10
231.8452
 20
143.8783
 11
231.8452
 21
139.4557
  0
LINE
  8
0
  6
CONTINUOUS
 62
     7
 10
214.4651
 20
143.8783
 11
214.4651
 21
139.4557
  0
LINE
  8
0
  6
CONTINUOUS
 62
     7
 10
214.4651
 20
143.8783
 11
213.6552
 21
143.8783
  0
LINE
  8
0
  6
CONTINUOUS
 62
     7
 10
223.9702
 20
143.8783
 11
222.3401
 21
143.8783
  0
LINE
  8
0
  6
CONTINUOUS
 62
     7
 10
231.8452
 20
143.8783
 11
232.6552
 21
143.8783
  0
LINE
  8
0
  6
CONTINUOUS
 62
     7
 10
335.0273
 20
110.2057
 11
351.283
 21
110.2057
  0
LINE
  8
0
  6
CENTER
 62
     2
 10
328.1552
 20
131.7057
 11
358.1552
 21
131.7057
  0
LINE
  8
0
  6
CONTINUOUS
 62
     7
 10
333.0212
 20
139.4557
 11
334.4052
 21
139.4557
  0
LINE
  8
0
  6
CONTINUOUS
 62
     7
 10
333.0212
 20
123.9557
 11
353.2891
 21
123.9557
  0
LINE
  8
0
  6
CONTINUOUS
 62
     7
 10
333.6552
 20
144.4557
 11
334.4052
 21
144.4557
  0
LINE
  8
0
  6
CONTINUOUS
 62
     7
 10
337.1552
 20
163.7057
 11
349.1552
 21
163.7057
  0
LINE
  8
0
  6
CONTINUOUS
 62
     7
 10
337.1552
 20
158.7057
 11
349.1552
 21
158.7057
  0
LINE
  8
0
  6
CENTER
 62
     2
 10
343.1552
 20
166.3723
 11
343.1552
 21
107.3723
  0
LINE
  8
0
  6
CONTINUOUS
 62
     7
 10
354.1552
 20
137.9557
 11
354.1552
 21
125.4557
  0
LINE
  8
0
  6
CONTINUOUS
 62
     7
 10
332.1552
 20
137.9557
 11
332.1552
 21
125.4557
  0
LINE
  8
0
  6
CONTINUOUS
 62
     7
 10
336.6552
 20
163.2057
 11
336.6552
 21
159.2057
  0
LINE
  8
0
  6
CONTINUOUS
 62
     7
 10
349.6552
 20
163.2057
 11
349.6552
 21
159.2057
  0
LINE
  8
0
  6
CONTINUOUS
 62
     7
 10
349.6551
 20
163.2056
 11
349.1551
 21
163.7056
  0
LINE
  8
0
  6
CONTINUOUS
 62
     7
 10
337.1551
 20
163.7056
 11
336.6551
 21
163.2057
  0
LINE
  8
0
  6
CONTINUOUS
 62
     7
 10
336.6551
 20
159.2056
 11
337.1551
 21
158.7056
  0
LINE
  8
0
  6
CONTINUOUS
 62
     7
 10
349.1552
 20
158.7057
 11
349.6551
 21
159.2056
  0
LINE
  8
0
  6
CONTINUOUS
 62
     7
 10
336.6552
 20
163.2057
 11
349.6552
 21
163.2057
  0
LINE
  8
0
  6
CONTINUOUS
 62
     7
 10
336.6552
 20
159.2057
 11
349.6552
 21
159.2057
  0
LINE
  8
0
  6
CONTINUOUS
 62
     7
 10
337.6552
 20
163.2057
 11
337.6552
 21
159.2057
  0
LINE
  8
0
  6
CONTINUOUS
 62
     7
 10
338.6552
 20
163.2057
 11
338.6552
 21
159.2057
  0
LINE
  8
0
  6
CONTINUOUS
 62
     7
 10
339.6552
 20
163.2057
 11
339.6552
 21
159.2057
  0
LINE
  8
0
  6
CONTINUOUS
 62
     7
 10
340.6552
 20
163.2057
 11
340.6552
 21
159.2057
  0
LINE
  8
0
  6
CONTINUOUS
 62
     7
 10
341.6552
 20
163.2057
 11
341.6552
 21
159.2057
  0
LINE
  8
0
  6
CONTINUOUS
 62
     7
 10
342.6552
 20
163.2057
 11
342.6552
 21
159.2057
  0
LINE
  8
0
  6
CONTINUOUS
 62
     7
 10
338.1552
 20
158.7057
 11
338.1552
 21
155.2057
  0
LINE
  8
0
  6
CONTINUOUS
 62
     7
 10
348.1552
 20
158.7057
 11
348.1552
 21
155.2057
  0
LINE
  8
0
  6
CONTINUOUS
 62
     7
 10
338.9672
 20
158.7057
 11
338.9672
 21
155.2057
  0
LINE
  8
0
  6
CONTINUOUS
 62
     7
 10
347.3431
 20
158.7057
 11
347.3431
 21
155.2057
  0
LINE
  8
0
  6
CONTINUOUS
 62
     7
 10
332.1552
 20
137.9557
 11
334.4052
 21
137.9557
  0
LINE
  8
0
  6
CONTINUOUS
 62
     7
 10
332.1552
 20
125.4557
 11
342.4052
 21
125.4557
  0
LINE
  8
0
  6
CONTINUOUS
 62
     7
 10
354.1551
 20
137.9556
 11
353.2891
 21
139.4556
  0
LINE
  8
0
  6
CONTINUOUS
 62
     7
 10
332.1551
 20
125.4556
 11
333.0211
 21
123.9556
  0
LINE
  8
0
  6
CONTINUOUS
 62
     7
 10
332.1551
 20
137.9557
 11
333.0211
 21
139.4557
  0
LINE
  8
0
  6
CONTINUOUS
 62
     7
 10
354.1551
 20
125.4557
 11
353.2891
 21
123.9557
  0
LINE
  8
0
  6
CONTINUOUS
 62
     7
 10
351.7127
 20
123.9557
 11
351.283
 21
110.2057
  0
LINE
  8
0
  6
CONTINUOUS
 62
     7
 10
350.8567
 20
123.9557
 11
350.427
 21
110.2057
  0
LINE
  8
0
  6
CONTINUOUS
 62
     7
 10
335.4537
 20
123.9557
 11
335.8834
 21
110.2057
  0
LINE
  8
0
  6
CONTINUOUS
 62
     7
 10
334.5976
 20
123.9557
 11
335.0273
 21
110.2057
  0
LINE
  8
0
  6
CONTINUOUS
 62
     7
 10
333.6552
 20
144.4557
 11
333.6552
 21
139.4557
  0
LINE
  8
0
  6
CONTINUOUS
 62
     7
 10
352.6552
 20
144.4557
 11
352.6552
 21
139.4557
  0
LINE
  8
0
  6
CONTINUOUS
 62
     7
 10
334.4052
 20
143.8783
 11
333.6552
 21
143.8783
  0
LINE
  8
0
  6
CONTINUOUS
 62
     7
 10
351.9052
 20
143.8783
 11
352.6552
 21
143.8783
  0
LINE
  8
0
  6
CONTINUOUS
 62
     7
 10
284.1552
 20
126.4557
 11
284.1552
 21
125.4557
  0
LINE
  8
0
  6
CONTINUOUS
 62
     7
 10
351.9052
 20
137.9557
 11
354.1552
 21
137.9557
  0
LINE
  8
0
  6
CONTINUOUS
 62
     7
 10
343.9052
 20
125.4557
 11
354.1552
 21
125.4557
  0
LINE
  8
0
  6
CONTINUOUS
 62
     7
 10
351.9052
 20
139.4557
 11
353.2891
 21
139.4557
  0
LINE
  8
0
  6
CONTINUOUS
 62
     7
 10
-233.1552
 20
139.7057
 11
-233.1552
 21
141.3057
  0
LINE
  8
0
  6
CONTINUOUS
 62
     7
 10
-233.1552
 20
141.3057
 11
-223.1552
 21
141.3057
  0
LINE
  8
0
  6
CONTINUOUS
 62
     7
 10
-233.1552
 20
139.7057
 11
-223.1552
 21
139.7057
  0
LINE
  8
0
  6
CONTINUOUS
 62
     7
 10
-223.1552
 20
139.7057
 11
-223.1552
 21
141.3057
  0
LINE
  8
0
  6
CONTINUOUS
 62
     7
 10
-230.7552
 20
138.8057
 11
-230.7552
 21
139.7057
  0
LINE
  8
0
  6
CONTINUOUS
 62
     7
 10
-232.9052
 20
138.8057
 11
-223.4052
 21
138.8057
  0
LINE
  8
0
  6
CONTINUOUS
 62
     7
 10
-225.5552
 20
138.8057
 11
-225.5552
 21
139.7057
  0
LINE
  8
0
  6
CONTINUOUS
 62
     7
 10
-223.4052
 20
137.3057
 11
-223.4052
 21
138.8057
  0
LINE
  8
0
  6
CONTINUOUS
 62
     7
 10
-233.1552
 20
137.3057
 11
-223.1552
 21
137.3057
  0
LINE
  8
0
  6
CONTINUOUS
 62
     7
 10
-233.1552
 20
128.3056
 11
-233.1552
 21
137.3057
  0
LINE
  8
0
  6
CONTINUOUS
 62
     7
 10
-232.9052
 20
137.3057
 11
-232.9052
 21
138.8057
  0
LINE
  8
0
  6
CONTINUOUS
 62
     7
 10
-223.1552
 20
128.3057
 11
-223.1552
 21
137.3057
  0
LINE
  8
0
  6
CONTINUOUS
 62
     7
 10
-233.1552
 20
128.3057
 11
-223.1552
 21
128.3057
  0
LINE
  8
0
  6
CONTINUOUS
 62
     7
 10
-233.1552
 20
128.3056
 11
-231.6552
 21
126.8057
  0
LINE
  8
0
  6
CONTINUOUS
 62
     7
 10
-223.1552
 20
128.3056
 11
-224.6552
 21
126.8056
  0
LINE
  8
0
  6
CONTINUOUS
 62
     7
 10
-224.6552
 20
124.5557
 11
-224.6552
 21
126.8056
  0
LINE
  8
0
  6
CONTINUOUS
 62
     7
 10
-227.4052
 20
126.8056
 11
-224.6552
 21
126.8056
  0
LINE
  8
0
  6
CONTINUOUS
 62
     7
 10
-228.9052
 20
119.3057
 11
-227.4052
 21
119.3057
  0
LINE
  8
0
  6
CONTINUOUS
 62
     7
 10
-233.1552
 20
135.3057
 11
-223.1552
 21
135.3057
  0
LINE
  8
0
  6
CONTINUOUS
 62
     7
 10
-273.2552
 20
120.5557
 11
-273.2552
 21
118.8057
  0
LINE
  8
0
  6
CENTER
 62
     2
 10
-267.6552
 20
142.7254
 11
-267.6552
 21
116.9044
  0
LINE
  8
0
  6
CONTINUOUS
 62
     7
 10
-272.6552
 20
140.8057
 11
-262.6552
 21
140.8057
  0
LINE
  8
0
  6
CONTINUOUS
 62
     7
 10
-272.6552
 20
139.2057
 11
-272.6552
 21
140.8057
  0
LINE
  8
0
  6
CONTINUOUS
 62
     7
 10
-272.6552
 20
139.2057
 11
-262.6552
 21
139.2057
  0
LINE
  8
0
  6
CONTINUOUS
 62
     7
 10
-270.2552
 20
138.3057
 11
-270.2552
 21
139.2057
  0
LINE
  8
0
  6
CONTINUOUS
 62
     7
 10
-265.0552
 20
138.3057
 11
-265.0552
 21
139.2057
  0
LINE
  8
0
  6
CONTINUOUS
 62
     7
 10
-262.6552
 20
139.2057
 11
-262.6552
 21
140.8057
  0
LINE
  8
0
  6
CONTINUOUS
 62
     7
 10
-272.4052
 20
138.3057
 11
-262.9052
 21
138.3057
  0
LINE
  8
0
  6
CONTINUOUS
 62
     7
 10
-262.9052
 20
136.8057
 11
-262.9052
 21
138.3057
  0
LINE
  8
0
  6
CONTINUOUS
 62
     7
 10
-272.4052
 20
136.8057
 11
-272.4052
 21
138.3057
  0
LINE
  8
0
  6
CONTINUOUS
 62
     7
 10
-272.6552
 20
136.8057
 11
-262.6552
 21
136.8057
  0
LINE
  8
0
  6
CONTINUOUS
 62
     7
 10
-272.6552
 20
127.8056
 11
-272.6552
 21
136.8057
  0
LINE
  8
0
  6
CONTINUOUS
 62
     7
 10
-272.6552
 20
134.8057
 11
-262.6552
 21
134.8057
  0
LINE
  8
0
  6
CONTINUOUS
 62
     7
 10
-262.6552
 20
118.8057
 11
-262.6552
 21
136.8057
  0
LINE
  8
0
  6
CONTINUOUS
 62
     7
 10
-262.6552
 20
127.8056
 11
-264.1552
 21
126.3056
  0
LINE
  8
0
  6
CONTINUOUS
 62
     7
 10
-271.1552
 20
126.3056
 11
-264.1552
 21
126.3056
  0
LINE
  8
0
  6
CONTINUOUS
 62
     7
 10
-272.6552
 20
127.8056
 11
-271.1552
 21
126.3056
  0
LINE
  8
0
  6
CONTINUOUS
 62
     7
 10
-271.1552
 20
126.0557
 11
-271.1552
 21
126.3056
  0
LINE
  8
0
  6
CONTINUOUS
 62
     7
 10
-273.2552
 20
126.0557
 11
-271.1552
 21
126.0557
  0
LINE
  8
0
  6
CONTINUOUS
 62
     7
 10
-264.1552
 20
126.0557
 11
-264.1552
 21
126.3056
  0
LINE
  8
0
  6
CONTINUOUS
 62
     7
 10
-273.2552
 20
120.5557
 11
-262.6552
 21
120.5557
  0
LINE
  8
0
  6
CONTINUOUS
 62
     7
 10
-227.4052
 20
128.3057
 11
-227.4052
 21
126.4514
  0
LINE
  8
0
  6
CONTINUOUS
 62
     7
 10
-228.9052
 20
121.1599
 11
-228.9052
 21
119.3057
  0
LINE
  8
0
  6
CONTINUOUS
 62
     7
 10
-231.6552
 20
124.5557
 11
-231.6552
 21
126.8056
  0
LINE
  8
0
  6
CONTINUOUS
 62
     7
 10
-228.9052
 20
126.8056
 11
-231.6552
 21
126.8056
  0
LINE
  8
0
  6
CONTINUOUS
 62
     7
 10
-228.9052
 20
128.3057
 11
-228.9052
 21
126.4514
  0
LINE
  8
0
  6
CONTINUOUS
 62
     7
 10
-227.4052
 20
121.1599
 11
-227.4052
 21
119.3057
  0
LINE
  8
0
  6
CONTINUOUS
 62
     7
 10
-264.1552
 20
126.0557
 11
-262.6552
 21
126.0557
  0
LINE
  8
0
  6
CONTINUOUS
 62
     7
 10
-323.1552
 20
141.3057
 11
-325.6552
 21
141.3057
  0
LINE
  8
0
  6
CONTINUOUS
 62
     7
 10
-323.1552
 20
139.7057
 11
-323.1552
 21
141.3057
  0
LINE
  8
0
  6
CONTINUOUS
 62
     7
 10
-333.1552
 20
139.7057
 11
-333.1552
 21
141.3057
  0
LINE
  8
0
  6
CONTINUOUS
 62
     7
 10
-323.1552
 20
139.7057
 11
-326.6552
 21
139.7057
  0
LINE
  8
0
  6
CONTINUOUS
 62
     7
 10
-330.7552
 20
138.8057
 11
-330.7552
 21
139.7057
  0
LINE
  8
0
  6
CONTINUOUS
 62
     7
 10
-325.5552
 20
138.8057
 11
-325.5552
 21
139.7057
  0
LINE
  8
0
  6
CONTINUOUS
 62
     7
 10
-323.4052
 20
138.8057
 11
-326.6552
 21
138.8057
  0
LINE
  8
0
  6
CONTINUOUS
 62
     7
 10
-323.4052
 20
137.3057
 11
-323.4052
 21
138.8057
  0
LINE
  8
0
  6
CONTINUOUS
 62
     7
 10
-332.9052
 20
137.3057
 11
-332.9052
 21
138.8057
  0
LINE
  8
0
  6
CONTINUOUS
 62
     7
 10
-323.1552
 20
137.3057
 11
-326.6552
 21
137.3057
  0
LINE
  8
0
  6
CONTINUOUS
 62
     7
 10
-333.1552
 20
128.3057
 11
-333.1552
 21
137.3057
  0
LINE
  8
0
  6
CONTINUOUS
 62
     7
 10
-323.1552
 20
128.3056
 11
-323.1552
 21
137.3057
  0
LINE
  8
0
  6
CONTINUOUS
 62
     7
 10
-323.1552
 20
135.3057
 11
-326.6552
 21
135.3057
  0
LINE
  8
0
  6
CONTINUOUS
 62
     7
 10
-323.1552
 20
128.3056
 11
-323.6552
 21
127.8057
  0
LINE
  8
0
  6
CONTINUOUS
 62
     7
 10
-323.1552
 20
128.3057
 11
-324.1552
 21
128.3057
  0
LINE
  8
0
  6
CONTINUOUS
 62
     7
 10
-333.1552
 20
128.3056
 11
-332.6552
 21
127.8057
  0
LINE
  8
0
  6
CONTINUOUS
 62
     7
 10
-332.1552
 20
128.3057
 11
-333.1552
 21
128.3057
  0
LINE
  8
0
  6
CONTINUOUS
 62
     7
 10
-329.6552
 20
135.3057
 11
-333.1552
 21
135.3057
  0
LINE
  8
0
  6
CONTINUOUS
 62
     7
 10
-329.6552
 20
137.3057
 11
-333.1552
 21
137.3057
  0
LINE
  8
0
  6
CONTINUOUS
 62
     7
 10
-329.6552
 20
138.8057
 11
-332.9052
 21
138.8057
  0
LINE
  8
0
  6
CONTINUOUS
 62
     7
 10
-329.6552
 20
139.7057
 11
-333.1552
 21
139.7057
  0
LINE
  8
0
  6
CONTINUOUS
 62
     7
 10
-330.6552
 20
141.3057
 11
-333.1552
 21
141.3057
  0
LINE
  8
0
  6
CENTER
 62
     2
 10
-267.6552
 20
193.2057
 11
-267.6552
 21
181.2057
  0
LINE
  8
0
  6
CONTINUOUS
 62
     7
 10
-274.0996
 20
189.9557
 11
-271.831
 21
189.9557
  0
LINE
  8
0
  6
CONTINUOUS
 62
     7
 10
-274.0996
 20
184.4557
 11
-271.831
 21
184.4557
  0
LINE
  8
0
  6
CENTER
 62
     2
 10
-265.1552
 20
-11.7948
 11
-265.1552
 21
-40.68624
  0
LINE
  8
0
  6
CONTINUOUS
 62
     7
 10
-270.1552
 20
-14.0
 11
-260.1552
 21
-14.0
  0
LINE
  8
0
  6
CONTINUOUS
 62
     7
 10
-270.1552
 20
-15.6
 11
-270.1552
 21
-14.0
  0
LINE
  8
0
  6
CONTINUOUS
 62
     7
 10
-270.1552
 20
-15.6
 11
-260.1552
 21
-15.6
  0
LINE
  8
0
  6
CONTINUOUS
 62
     7
 10
-267.7552
 20
-16.5
 11
-267.7552
 21
-15.6
  0
LINE
  8
0
  6
CONTINUOUS
 62
     7
 10
-262.5552
 20
-16.5
 11
-262.5552
 21
-15.6
  0
LINE
  8
0
  6
CONTINUOUS
 62
     7
 10
-260.1552
 20
-15.6
 11
-260.1552
 21
-14.0
  0
LINE
  8
0
  6
CONTINUOUS
 62
     7
 10
-269.9052
 20
-16.5
 11
-260.4052
 21
-16.5
  0
LINE
  8
0
  6
CONTINUOUS
 62
     7
 10
-260.4052
 20
-18.0
 11
-260.4052
 21
-16.5
  0
LINE
  8
0
  6
CONTINUOUS
 62
     7
 10
-269.9052
 20
-18.0
 11
-269.9052
 21
-16.5
  0
LINE
  8
0
  6
CONTINUOUS
 62
     7
 10
-270.1552
 20
-18.0
 11
-260.1552
 21
-18.0
  0
LINE
  8
0
  6
CONTINUOUS
 62
     7
 10
-270.1552
 20
-27.00002
 11
-270.1552
 21
-18.0
  0
LINE
  8
0
  6
CONTINUOUS
 62
     7
 10
-270.1552
 20
-20.0
 11
-260.1552
 21
-20.0
  0
LINE
  8
0
  6
CONTINUOUS
 62
     7
 10
-260.1552
 20
-37.0
 11
-260.1552
 21
-18.0
  0
LINE
  8
0
  6
CONTINUOUS
 62
     7
 10
-260.1552
 20
-27.00001
 11
-261.6552
 21
-28.50002
  0
LINE
  8
0
  6
CONTINUOUS
 62
     7
 10
-268.6552
 20
-28.50001
 11
-261.6552
 21
-28.50002
  0
LINE
  8
0
  6
CONTINUOUS
 62
     7
 10
-270.1552
 20
-27.00004
 11
-268.6552
 21
-28.50005
  0
LINE
  8
0
  6
CONTINUOUS
 62
     7
 10
-268.6552
 20
-28.75
 11
-268.6552
 21
-28.50001
  0
LINE
  8
0
  6
CONTINUOUS
 62
     7
 10
-261.6552
 20
-28.75
 11
-261.6552
 21
-28.50001
  0
LINE
  8
0
  6
CONTINUOUS
 62
     7
 10
-270.9552
 20
-35.75
 11
-260.1552
 21
-35.75
  0
LINE
  8
0
  6
CONTINUOUS
 62
     7
 10
-270.9552
 20
-28.25
 11
-268.9052
 21
-28.25
  0
LINE
  8
0
  6
CONTINUOUS
 62
     7
 10
-270.9552
 20
-37.3
 11
-270.9552
 21
-35.75
  0
LINE
  8
0
  6
CONTINUOUS
 62
     7
 10
-270.9552
 20
-27.7
 11
-270.9552
 21
-28.25
  0
LINE
  8
0
  6
CONTINUOUS
 62
     7
 10
-261.4052
 20
-28.25
 11
-260.1552
 21
-28.25
  0
LINE
  8
0
  6
CENTER
 62
     2
 10
-228.1552
 20
-12.52975
 11
-228.1552
 21
-43.34071
  0
LINE
  8
0
  6
CONTINUOUS
 62
     7
 10
-227.4052
 20
-35.67424
 11
-227.4052
 21
-38.5
  0
LINE
  8
0
  6
CONTINUOUS
 62
     7
 10
-233.1552
 20
-15.60001
 11
-233.1552
 21
-14.0
  0
LINE
  8
0
  6
CONTINUOUS
 62
     7
 10
-233.1552
 20
-14.0
 11
-223.1552
 21
-14.0
  0
LINE
  8
0
  6
CONTINUOUS
 62
     7
 10
-233.1552
 20
-15.6
 11
-223.1552
 21
-15.6
  0
LINE
  8
0
  6
CONTINUOUS
 62
     7
 10
-223.1552
 20
-15.60001
 11
-223.1552
 21
-14.0
  0
LINE
  8
0
  6
CONTINUOUS
 62
     7
 10
-230.7552
 20
-16.5
 11
-230.7552
 21
-15.60001
  0
LINE
  8
0
  6
CONTINUOUS
 62
     7
 10
-232.9052
 20
-16.5
 11
-223.4052
 21
-16.5
  0
LINE
  8
0
  6
CONTINUOUS
 62
     7
 10
-225.5552
 20
-16.5
 11
-225.5552
 21
-15.60001
  0
LINE
  8
0
  6
CONTINUOUS
 62
     7
 10
-223.4052
 20
-18.0
 11
-223.4052
 21
-16.5
  0
LINE
  8
0
  6
CONTINUOUS
 62
     7
 10
-233.1552
 20
-18.0
 11
-223.1552
 21
-18.0
  0
LINE
  8
0
  6
CONTINUOUS
 62
     7
 10
-233.1552
 20
-27.00002
 11
-233.1552
 21
-18.0
  0
LINE
  8
0
  6
CONTINUOUS
 62
     7
 10
-232.9052
 20
-18.0
 11
-232.9052
 21
-16.5
  0
LINE
  8
0
  6
CONTINUOUS
 62
     7
 10
-223.1552
 20
-27.0
 11
-223.1552
 21
-18.0
  0
LINE
  8
0
  6
CONTINUOUS
 62
     7
 10
-233.1552
 20
-27.0
 11
-223.1552
 21
-27.0
  0
LINE
  8
0
  6
CONTINUOUS
 62
     7
 10
-233.1552
 20
-27.00004
 11
-231.6552
 21
-28.50005
  0
LINE
  8
0
  6
CONTINUOUS
 62
     7
 10
-223.1552
 20
-27.00002
 11
-224.6552
 21
-28.50002
  0
LINE
  8
0
  6
CONTINUOUS
 62
     7
 10
-224.6552
 20
-30.65371
 11
-224.6552
 21
-28.50002
  0
LINE
  8
0
  6
CONTINUOUS
 62
     7
 10
-226.8089
 20
-28.50002
 11
-224.6552
 21
-28.50002
  0
LINE
  8
0
  6
CONTINUOUS
 62
     7
 10
-234.6623
 20
-38.5
 11
-221.648
 21
-38.5
  0
LINE
  8
0
  6
CONTINUOUS
 62
     7
 10
-233.1552
 20
-20.0
 11
-223.1552
 21
-20.0
  0
LINE
  8
0
  6
CONTINUOUS
 62
     7
 10
-227.4052
 20
-27.0
 11
-227.4052
 21
-28.32577
  0
LINE
  8
0
  6
CONTINUOUS
 62
     7
 10
-228.9052
 20
-35.67424
 11
-228.9052
 21
-38.5
  0
LINE
  8
0
  6
CONTINUOUS
 62
     7
 10
-231.6552
 20
-30.65371
 11
-231.6552
 21
-28.50002
  0
LINE
  8
0
  6
CONTINUOUS
 62
     7
 10
-229.5015
 20
-28.50002
 11
-231.6552
 21
-28.50002
  0
LINE
  8
0
  6
CONTINUOUS
 62
     7
 10
-228.9052
 20
-27.0
 11
-228.9052
 21
-28.32577
  0
LINE
  8
0
  6
CENTER
 62
     2
 10
-328.1552
 20
-12.52975
 11
-328.1552
 21
-43.34071
  0
LINE
  8
0
  6
CONTINUOUS
 62
     7
 10
-333.1552
 20
-15.60001
 11
-333.1552
 21
-14.0
  0
LINE
  8
0
  6
CONTINUOUS
 62
     7
 10
-333.1552
 20
-14.0
 11
-330.6552
 21
-14.0
  0
LINE
  8
0
  6
CONTINUOUS
 62
     7
 10
-333.1552
 20
-15.6
 11
-330.6552
 21
-15.6
  0
LINE
  8
0
  6
CONTINUOUS
 62
     7
 10
-323.1552
 20
-15.60001
 11
-323.1552
 21
-14.0
  0
LINE
  8
0
  6
CONTINUOUS
 62
     7
 10
-330.7552
 20
-16.5
 11
-330.7552
 21
-15.60001
  0
LINE
  8
0
  6
CONTINUOUS
 62
     7
 10
-332.9052
 20
-16.5
 11
-330.6552
 21
-16.5
  0
LINE
  8
0
  6
CONTINUOUS
 62
     7
 10
-325.5552
 20
-16.5
 11
-325.5552
 21
-15.60001
  0
LINE
  8
0
  6
CONTINUOUS
 62
     7
 10
-323.4052
 20
-18.0
 11
-323.4052
 21
-16.5
  0
LINE
  8
0
  6
CONTINUOUS
 62
     7
 10
-333.1552
 20
-18.0
 11
-332.7552
 21
-18.0
  0
LINE
  8
0
  6
CONTINUOUS
 62
     7
 10
-333.1552
 20
-22.5
 11
-333.1552
 21
-20.9
  0
LINE
  8
0
  6
CONTINUOUS
 62
     7
 10
-332.9052
 20
-18.0
 11
-332.9052
 21
-16.5
  0
LINE
  8
0
  6
CONTINUOUS
 62
     7
 10
-323.1552
 20
-22.5
 11
-323.1552
 21
-20.9
  0
LINE
  8
0
  6
CONTINUOUS
 62
     7
 10
-334.6624
 20
-38.5
 11
-321.648
 21
-38.5
  0
LINE
  8
0
  6
CONTINUOUS
 62
     7
 10
-223.1552
 20
-26.5
 11
-221.648
 21
-26.5
  0
LINE
  8
0
  6
CONTINUOUS
 62
     7
 10
-227.4052
 20
-37.3
 11
-220.9552
 21
-37.3
  0
LINE
  8
0
  6
CONTINUOUS
 62
     7
 10
-325.6552
 20
-14.0
 11
-323.1552
 21
-14.0
  0
LINE
  8
0
  6
CONTINUOUS
 62
     7
 10
-325.6552
 20
-15.6
 11
-323.1552
 21
-15.6
  0
LINE
  8
0
  6
CONTINUOUS
 62
     7
 10
-325.6552
 20
-16.5
 11
-323.4052
 21
-16.5
  0
LINE
  8
0
  6
CONTINUOUS
 62
     7
 10
-323.1552
 20
-18.4
 11
-323.1552
 21
-18.0
  0
LINE
  8
0
  6
CONTINUOUS
 62
     7
 10
-333.1552
 20
-18.4
 11
-333.1552
 21
-18.0
  0
LINE
  8
0
  6
CONTINUOUS
 62
     7
 10
-323.5552
 20
-18.0
 11
-323.1552
 21
-18.0
  0
LINE
  8
0
  6
CENTER
 62
     2
 10
-265.1552
 20
33.0
 11
-265.1552
 21
21.0
  0
LINE
  8
0
  6
CONTINUOUS
 62
     7
 10
-272.0089
 20
30.75
 11
-268.4624
 21
30.75
  0
LINE
  8
0
  6
CONTINUOUS
 62
     7
 10
-272.0089
 20
23.25
 11
-268.4624
 21
23.25
  0
LINE
  8
0
  6
CONTINUOUS
 62
     7
 10
-260.1552
 20
30.75
 11
-260.1552
 21
23.25
  0
LINE
  8
0
  6
CONTINUOUS
 62
     7
 10
-261.848
 20
30.75
 11
-260.1552
 21
30.75
  0
LINE
  8
0
  6
CONTINUOUS
 62
     7
 10
-261.848
 20
23.25
 11
-260.1552
 21
23.25
  0
LINE
  8
0
  6
CENTER
 62
     2
 10
-265.9552
 20
-203.3459
 11
-265.9552
 21
-174.1674
  0
LINE
  8
0
  6
CONTINUOUS
 62
     7
 10
-333.9052
 20
-182.1057
 11
-333.9052
 21
-180.1057
  0
LINE
  8
0
  6
CONTINUOUS
 62
     7
 10
-333.9052
 20
-180.1057
 11
-329.6552
 21
-180.1057
  0
LINE
  8
0
  6
CONTINUOUS
 62
     7
 10
-332.4552
 20
-180.1057
 11
-332.4552
 21
-178.9057
  0
LINE
  8
0
  6
CONTINUOUS
 62
     7
 10
-334.0552
 20
-178.9057
 11
-330.3552
 21
-178.9057
  0
LINE
  8
0
  6
CONTINUOUS
 62
     7
 10
-334.0552
 20
-178.9057
 11
-334.0552
 21
-177.1057
  0
LINE
  8
0
  6
CONTINUOUS
 62
     7
 10
-334.0552
 20
-177.1057
 11
-330.6552
 21
-177.1057
  0
LINE
  8
0
  6
CONTINUOUS
 62
     7
 10
-322.2552
 20
-178.9057
 11
-322.2552
 21
-177.1057
  0
LINE
  8
0
  6
CONTINUOUS
 62
     7
 10
-323.8552
 20
-180.1057
 11
-323.8552
 21
-178.9057
  0
LINE
  8
0
  6
CONTINUOUS
 62
     7
 10
-322.4052
 20
-182.1057
 11
-322.4052
 21
-180.1057
  0
LINE
  8
0
  6
CONTINUOUS
 62
     7
 10
-334.4052
 20
-182.1057
 11
-329.6552
 21
-182.1057
  0
LINE
  8
0
  6
CONTINUOUS
 62
     7
 10
-334.4052
 20
-191.6057
 11
-334.4052
 21
-182.1057
  0
LINE
  8
0
  6
CONTINUOUS
 62
     7
 10
-321.9052
 20
-191.6057
 11
-321.9052
 21
-182.1057
  0
LINE
  8
0
  6
CONTINUOUS
 62
     7
 10
-321.9052
 20
-191.6057
 11
-323.2552
 21
-192.9557
  0
LINE
  8
0
  6
CONTINUOUS
 62
     7
 10
-334.4051
 20
-191.6056
 11
-333.0551
 21
-192.9556
  0
LINE
  8
0
  6
CONTINUOUS
 62
     7
 10
-333.0552
 20
-200.6057
 11
-323.2552
 21
-200.6057
  0
LINE
  8
0
  6
CONTINUOUS
 62
     7
 10
-273.2552
 20
-198.8557
 11
-259.7052
 21
-198.8557
  0
LINE
  8
0
  6
CONTINUOUS
 62
     7
 10
-273.2552
 20
-191.6057
 11
-273.2552
 21
-200.6057
  0
LINE
  8
0
  6
CONTINUOUS
 62
     7
 10
-271.8552
 20
-177.1057
 11
-260.0552
 21
-177.1057
  0
LINE
  8
0
  6
CONTINUOUS
 62
     7
 10
-260.0552
 20
-178.9057
 11
-260.0552
 21
-177.1057
  0
LINE
  8
0
  6
CONTINUOUS
 62
     7
 10
-271.8552
 20
-178.9057
 11
-271.8552
 21
-177.1057
  0
LINE
  8
0
  6
CONTINUOUS
 62
     7
 10
-271.8552
 20
-178.9057
 11
-260.0552
 21
-178.9057
  0
LINE
  8
0
  6
CONTINUOUS
 62
     7
 10
-270.2552
 20
-180.1057
 11
-270.2552
 21
-178.9057
  0
LINE
  8
0
  6
CONTINUOUS
 62
     7
 10
-261.6552
 20
-180.1057
 11
-261.6552
 21
-178.9057
  0
LINE
  8
0
  6
CONTINUOUS
 62
     7
 10
-271.7052
 20
-180.1057
 11
-260.2052
 21
-180.1057
  0
LINE
  8
0
  6
CONTINUOUS
 62
     7
 10
-260.2052
 20
-182.1057
 11
-260.2052
 21
-180.1057
  0
LINE
  8
0
  6
CONTINUOUS
 62
     7
 10
-272.2052
 20
-182.1057
 11
-259.7052
 21
-182.1057
  0
LINE
  8
0
  6
CONTINUOUS
 62
     7
 10
-259.7052
 20
-129.9557
 11
-259.7052
 21
-124.4557
  0
LINE
  8
0
  6
CONTINUOUS
 62
     7
 10
-272.2052
 20
-191.6057
 11
-272.2052
 21
-182.1057
  0
LINE
  8
0
  6
CONTINUOUS
 62
     7
 10
-271.7052
 20
-182.1057
 11
-271.7052
 21
-180.1057
  0
LINE
  8
0
  6
CONTINUOUS
 62
     7
 10
-259.7052
 20
-191.6057
 11
-261.4552
 21
-193.3556
  0
LINE
  8
0
  6
CONTINUOUS
 62
     7
 10
-272.2051
 20
-191.6056
 11
-270.4551
 21
-193.3556
  0
LINE
  8
0
  6
CONTINUOUS
 62
     7
 10
-259.7052
 20
-193.3557
 11
-273.2552
 21
-193.3557
  0
LINE
  8
0
  6
CONTINUOUS
 62
     7
 10
-270.4552
 20
-194.3557
 11
-270.4552
 21
-193.3557
  0
LINE
  8
0
  6
CONTINUOUS
 62
     7
 10
-268.7052
 20
-196.1057
 11
-263.2052
 21
-196.1057
  0
LINE
  8
0
  6
CONTINUOUS
 62
     7
 10
-261.4552
 20
-194.3557
 11
-261.4552
 21
-193.3557
  0
LINE
  8
0
  6
CONTINUOUS
 62
     7
 10
-272.2052
 20
-184.1057
 11
-259.7052
 21
-184.1057
  0
LINE
  8
0
  6
CONTINUOUS
 62
     7
 10
-334.4052
 20
-184.1057
 11
-329.6552
 21
-184.1057
  0
LINE
  8
0
  6
CONTINUOUS
 62
     7
 10
-233.9052
 20
-182.1057
 11
-233.9052
 21
-180.1057
  0
LINE
  8
0
  6
CONTINUOUS
 62
     7
 10
-233.9052
 20
-180.1057
 11
-222.4052
 21
-180.1057
  0
LINE
  8
0
  6
CONTINUOUS
 62
     7
 10
-232.4552
 20
-180.1057
 11
-232.4552
 21
-178.9057
  0
LINE
  8
0
  6
CONTINUOUS
 62
     7
 10
-234.0552
 20
-178.9057
 11
-222.2552
 21
-178.9057
  0
LINE
  8
0
  6
CONTINUOUS
 62
     7
 10
-234.0552
 20
-178.9057
 11
-234.0552
 21
-177.1057
  0
LINE
  8
0
  6
CONTINUOUS
 62
     7
 10
-234.0552
 20
-177.1057
 11
-222.2552
 21
-177.1057
  0
LINE
  8
0
  6
CONTINUOUS
 62
     7
 10
-222.2552
 20
-178.9057
 11
-222.2552
 21
-177.1057
  0
LINE
  8
0
  6
CONTINUOUS
 62
     7
 10
-223.8552
 20
-180.1057
 11
-223.8552
 21
-178.9057
  0
LINE
  8
0
  6
CONTINUOUS
 62
     7
 10
-222.4052
 20
-182.1057
 11
-222.4052
 21
-180.1057
  0
LINE
  8
0
  6
CONTINUOUS
 62
     7
 10
-234.4052
 20
-182.1057
 11
-221.9052
 21
-182.1057
  0
LINE
  8
0
  6
CONTINUOUS
 62
     7
 10
-234.4052
 20
-191.6057
 11
-234.4052
 21
-182.1057
  0
LINE
  8
0
  6
CONTINUOUS
 62
     7
 10
-221.9052
 20
-191.6057
 11
-221.9052
 21
-182.1057
  0
LINE
  8
0
  6
CONTINUOUS
 62
     7
 10
-221.9052
 20
-191.6057
 11
-223.6552
 21
-193.3557
  0
LINE
  8
0
  6
CONTINUOUS
 62
     7
 10
-234.4051
 20
-191.6056
 11
-232.6551
 21
-193.3556
  0
LINE
  8
0
  6
CONTINUOUS
 62
     7
 10
-232.6552
 20
-194.3557
 11
-232.6552
 21
-193.3557
  0
LINE
  8
0
  6
CONTINUOUS
 62
     7
 10
-223.6552
 20
-193.3557
 11
-232.6552
 21
-193.3557
  0
LINE
  8
0
  6
CONTINUOUS
 62
     7
 10
-227.4052
 20
-191.6057
 11
-221.9052
 21
-191.6057
  0
LINE
  8
0
  6
CONTINUOUS
 62
     7
 10
-233.0552
 20
-200.6057
 11
-223.2552
 21
-200.6057
  0
LINE
  8
0
  6
CONTINUOUS
 62
     7
 10
-227.4052
 20
-191.6057
 11
-227.4052
 21
-193.4599
  0
LINE
  8
0
  6
CONTINUOUS
 62
     7
 10
-228.9052
 20
-198.7514
 11
-228.9052
 21
-200.6057
  0
LINE
  8
0
  6
CONTINUOUS
 62
     7
 10
-228.9052
 20
-191.6057
 11
-228.9052
 21
-193.4599
  0
LINE
  8
0
  6
CONTINUOUS
 62
     7
 10
-227.4052
 20
-198.7514
 11
-227.4052
 21
-200.6057
  0
LINE
  8
0
  6
CONTINUOUS
 62
     7
 10
-228.9052
 20
-191.6057
 11
-234.4052
 21
-191.6057
  0
LINE
  8
0
  6
CONTINUOUS
 62
     7
 10
-223.6552
 20
-194.3557
 11
-223.6552
 21
-193.3557
  0
LINE
  8
0
  6
CONTINUOUS
 62
     7
 10
-234.4052
 20
-184.1057
 11
-221.9052
 21
-184.1057
  0
LINE
  8
0
  6
CONTINUOUS
 62
     7
 10
-326.6552
 20
-184.1057
 11
-321.9052
 21
-184.1057
  0
LINE
  8
0
  6
CONTINUOUS
 62
     7
 10
-326.6552
 20
-182.1057
 11
-321.9052
 21
-182.1057
  0
LINE
  8
0
  6
CONTINUOUS
 62
     7
 10
-326.6552
 20
-180.1057
 11
-322.4052
 21
-180.1057
  0
LINE
  8
0
  6
CONTINUOUS
 62
     7
 10
-325.9552
 20
-178.9057
 11
-322.2552
 21
-178.9057
  0
LINE
  8
0
  6
CONTINUOUS
 62
     7
 10
-325.6552
 20
-177.1057
 11
-322.2552
 21
-177.1057
  0
LINE
  8
0
  6
CENTER
 62
     2
 10
-265.9552
 20
-119.7057
 11
-265.9552
 21
-134.7057
  0
LINE
  8
0
  6
CONTINUOUS
 62
     7
 10
-274.0996
 20
-124.4557
 11
-271.5677
 21
-124.4557
  0
LINE
  8
0
  6
CONTINUOUS
 62
     7
 10
-274.0996
 20
-129.9557
 11
-271.5677
 21
-129.9557
  0
LINE
  8
0
  6
CONTINUOUS
 62
     7
 10
-259.7052
 20
-200.6057
 11
-259.7052
 21
-182.1057
  0
LINE
  8
0
  6
CONTINUOUS
 62
     7
 10
-259.7052
 20
-124.4557
 11
-260.3427
 21
-124.4557
  0
LINE
  8
0
  6
CONTINUOUS
 62
     7
 10
-259.7052
 20
-129.9557
 11
-260.3427
 21
-129.9557
  0
LINE
  8
0
  6
CONTINUOUS
 62
     7
 10
-273.3129
 20
-127.9557
 11
-272.16
 21
-127.9557
  0
LINE
  8
0
  6
CONTINUOUS
 62
     7
 10
-273.3129
 20
-126.4557
 11
-272.16
 21
-126.4557
  0
LINE
  8
0
  6
CENTER
 62
     2
 10
-75.5184
 20
-39.90485
 11
-75.5184
 21
-8.56174
  0
LINE
  8
0
  6
CONTINUOUS
 62
     7
 10
-83.5184
 20
-35.25
 11
-69.2684
 21
-35.25
  0
LINE
  8
0
  6
CONTINUOUS
 62
     7
 10
-81.4184
 20
-11.0
 11
-69.61839
 21
-11.0
  0
LINE
  8
0
  6
CONTINUOUS
 62
     7
 10
-69.61839
 20
-12.79999
 11
-69.61839
 21
-11.0
  0
LINE
  8
0
  6
CONTINUOUS
 62
     7
 10
-81.41841
 20
-12.79999
 11
-81.41841
 21
-11.0
  0
LINE
  8
0
  6
CONTINUOUS
 62
     7
 10
-81.4184
 20
-12.79999
 11
-69.61839
 21
-12.79999
  0
LINE
  8
0
  6
CONTINUOUS
 62
     7
 10
-79.81841
 20
-14.0
 11
-79.81841
 21
-12.79999
  0
LINE
  8
0
  6
CONTINUOUS
 62
     7
 10
-71.2184
 20
-14.0
 11
-71.2184
 21
-12.79999
  0
LINE
  8
0
  6
CONTINUOUS
 62
     7
 10
-81.2684
 20
-14.0
 11
-69.7684
 21
-14.0
  0
LINE
  8
0
  6
CONTINUOUS
 62
     7
 10
-69.7684
 20
-16.0
 11
-69.7684
 21
-14.0
  0
LINE
  8
0
  6
CONTINUOUS
 62
     7
 10
-81.7684
 20
-16.0
 11
-69.2684
 21
-16.0
  0
LINE
  8
0
  6
CONTINUOUS
 62
     7
 10
-69.2684
 20
-36.0
 11
-69.2684
 21
-16.0
  0
LINE
  8
0
  6
CONTINUOUS
 62
     7
 10
-81.7684
 20
-26.0
 11
-81.7684
 21
-16.0
  0
LINE
  8
0
  6
CONTINUOUS
 62
     7
 10
-81.2684
 20
-16.0
 11
-81.2684
 21
-14.0
  0
LINE
  8
0
  6
CONTINUOUS
 62
     7
 10
-81.7684
 20
-26.0
 11
-69.26839
 21
-26.0
  0
LINE
  8
0
  6
CONTINUOUS
 62
     7
 10
-69.26837
 20
-26.00003
 11
-71.01837
 21
-27.75003
  0
LINE
  8
0
  6
CONTINUOUS
 62
     7
 10
-81.76839
 20
-25.99997
 11
-80.01839
 21
-27.74997
  0
LINE
  8
0
  6
CONTINUOUS
 62
     7
 10
-69.2684
 20
-27.75
 11
-71.0184
 21
-27.75
  0
LINE
  8
0
  6
CONTINUOUS
 62
     7
 10
-80.0184
 20
-29.75
 11
-80.0184
 21
-27.75
  0
LINE
  8
0
  6
CONTINUOUS
 62
     7
 10
-78.2684
 20
-31.5
 11
-72.7684
 21
-31.5
  0
LINE
  8
0
  6
CONTINUOUS
 62
     7
 10
-71.0184
 20
-29.75
 11
-71.0184
 21
-27.75
  0
LINE
  8
0
  6
CONTINUOUS
 62
     7
 10
-81.7684
 20
-18.0
 11
-69.2684
 21
-18.0
  0
LINE
  8
0
  6
CONTINUOUS
 62
     7
 10
-71.0184
 20
-27.75
 11
-80.0184
 21
-27.75
  0
LINE
  8
0
  6
CONTINUOUS
 62
     7
 10
-80.0184
 20
-27.75
 11
-83.5184
 21
-27.75
  0
LINE
  8
0
  6
CONTINUOUS
 62
     7
 10
-85.5184
 20
122.7057
 11
-85.5184
 21
123.9557
  0
LINE
  8
0
  6
CONTINUOUS
 62
     7
 10
-85.5184
 20
132.3057
 11
-85.5184
 21
131.4557
  0
LINE
  8
0
  6
CONTINUOUS
 62
     7
 10
-148.7184
 20
-14.0
 11
-136.7184
 21
-14.0
  0
LINE
  8
0
  6
CONTINUOUS
 62
     7
 10
-147.0184
 20
-14.0
 11
-147.0184
 21
-12.79999
  0
LINE
  8
0
  6
CONTINUOUS
 62
     7
 10
-148.6184
 20
-12.79999
 11
-145.7184
 21
-12.79999
  0
LINE
  8
0
  6
CONTINUOUS
 62
     7
 10
-148.6184
 20
-12.79999
 11
-148.6184
 21
-11.0
  0
LINE
  8
0
  6
CONTINUOUS
 62
     7
 10
-148.6184
 20
-11.0
 11
-145.7184
 21
-11.0
  0
LINE
  8
0
  6
CONTINUOUS
 62
     7
 10
-136.8184
 20
-12.79999
 11
-136.8184
 21
-11.0
  0
LINE
  8
0
  6
CONTINUOUS
 62
     7
 10
-138.4184
 20
-14.0
 11
-138.4184
 21
-12.79999
  0
LINE
  8
0
  6
CONTINUOUS
 62
     7
 10
-148.9684
 20
-19.5
 11
-148.9684
 21
-17.24998
  0
LINE
  8
0
  6
CONTINUOUS
 62
     7
 10
-136.4684
 20
-19.5
 11
-136.4684
 21
-17.24999
  0
LINE
  8
0
  6
CONTINUOUS
 62
     7
 10
-148.9684
 20
-18.0
 11
-147.2184
 21
-18.0
  0
LINE
  8
0
  6
CONTINUOUS
 62
     7
 10
-148.4684
 20
142.7057
 11
-148.4684
 21
144.7057
  0
LINE
  8
0
  6
CONTINUOUS
 62
     7
 10
-148.4684
 20
144.7057
 11
-145.2184
 21
144.7057
  0
LINE
  8
0
  6
CONTINUOUS
 62
     7
 10
-147.0184
 20
144.7057
 11
-147.0184
 21
145.9057
  0
LINE
  8
0
  6
CONTINUOUS
 62
     7
 10
-148.6184
 20
145.9057
 11
-145.2184
 21
145.9057
  0
LINE
  8
0
  6
CONTINUOUS
 62
     7
 10
-148.6184
 20
145.9057
 11
-148.6184
 21
147.7057
  0
LINE
  8
0
  6
CONTINUOUS
 62
     7
 10
-148.6184
 20
147.7057
 11
-145.2184
 21
147.7057
  0
LINE
  8
0
  6
CONTINUOUS
 62
     7
 10
-136.8184
 20
145.9057
 11
-136.8184
 21
147.7057
  0
LINE
  8
0
  6
CONTINUOUS
 62
     7
 10
-138.4184
 20
144.7057
 11
-138.4184
 21
145.9057
  0
LINE
  8
0
  6
CONTINUOUS
 62
     7
 10
-136.9684
 20
142.7057
 11
-136.9684
 21
144.7057
  0
LINE
  8
0
  6
CONTINUOUS
 62
     7
 10
-148.9684
 20
142.7057
 11
-145.2184
 21
142.7057
  0
LINE
  8
0
  6
CONTINUOUS
 62
     7
 10
-148.9684
 20
133.5057
 11
-148.9684
 21
142.7057
  0
LINE
  8
0
  6
CONTINUOUS
 62
     7
 10
-136.4684
 20
133.5057
 11
-136.4684
 21
142.7057
  0
LINE
  8
0
  6
CONTINUOUS
 62
     7
 10
-148.9684
 20
140.7057
 11
-147.7184
 21
140.7057
  0
LINE
  8
0
  6
CONTINUOUS
 62
     7
 10
-137.7184
 20
140.7057
 11
-136.4684
 21
140.7057
  0
LINE
  8
0
  6
CONTINUOUS
 62
     7
 10
-140.2184
 20
142.7057
 11
-136.4684
 21
142.7057
  0
LINE
  8
0
  6
CONTINUOUS
 62
     7
 10
-140.2184
 20
144.7057
 11
-136.9684
 21
144.7057
  0
LINE
  8
0
  6
CONTINUOUS
 62
     7
 10
-140.2184
 20
145.9057
 11
-136.8184
 21
145.9057
  0
LINE
  8
0
  6
CONTINUOUS
 62
     7
 10
-140.2184
 20
147.7057
 11
-136.8184
 21
147.7057
  0
LINE
  8
0
  6
CENTER
 62
     2
 10
-78.5184
 20
194.2057
 11
-78.5184
 21
179.2057
  0
LINE
  8
0
  6
CONTINUOUS
 62
     7
 10
-86.57206
 20
190.4557
 11
-83.5184
 21
190.4557
  0
LINE
  8
0
  6
CONTINUOUS
 62
     7
 10
-86.57206
 20
182.9557
 11
-83.5184
 21
182.9557
  0
LINE
  8
0
  6
CONTINUOUS
 62
     7
 10
-85.55757
 20
187.4557
 11
-84.72324
 21
187.4557
  0
LINE
  8
0
  6
CONTINUOUS
 62
     7
 10
-85.55757
 20
185.9557
 11
-84.72324
 21
185.9557
  0
LINE
  8
0
  6
CONTINUOUS
 62
     7
 10
-72.2684
 20
182.9557
 11
-72.2684
 21
190.4557
  0
LINE
  8
0
  6
CONTINUOUS
 62
     7
 10
-72.2684
 20
190.4557
 11
-73.5184
 21
190.4557
  0
LINE
  8
0
  6
CONTINUOUS
 62
     7
 10
-72.2684
 20
182.9557
 11
-73.5184
 21
182.9557
  0
LINE
  8
0
  6
CENTER
 62
     2
 10
-101.7222
 20
127.7057
 11
-67.78453
 21
127.7057
  0
LINE
  8
0
  6
CONTINUOUS
 62
     7
 10
-99.22558
 20
121.5057
 11
-73.7684
 21
121.5057
  0
LINE
  8
0
  6
CONTINUOUS
 62
     7
 10
-99.22558
 20
133.5057
 11
-84.7684
 21
133.5057
  0
LINE
  8
0
  6
CENTER
 62
     2
 10
-78.5184
 20
118.8008
 11
-78.5184
 21
150.1439
  0
LINE
  8
0
  6
CONTINUOUS
 62
     7
 10
-85.5184
 20
123.9557
 11
-72.2684
 21
123.9557
  0
LINE
  8
0
  6
CONTINUOUS
 62
     7
 10
-84.4184
 20
147.7057
 11
-72.61839
 21
147.7057
  0
LINE
  8
0
  6
CONTINUOUS
 62
     7
 10
-72.61839
 20
145.9057
 11
-72.61839
 21
147.7057
  0
LINE
  8
0
  6
CONTINUOUS
 62
     7
 10
-84.4184
 20
145.9057
 11
-84.4184
 21
147.7057
  0
LINE
  8
0
  6
CONTINUOUS
 62
     7
 10
-84.4184
 20
145.9057
 11
-72.61839
 21
145.9057
  0
LINE
  8
0
  6
CONTINUOUS
 62
     7
 10
-82.8184
 20
144.7057
 11
-82.8184
 21
145.9057
  0
LINE
  8
0
  6
CONTINUOUS
 62
     7
 10
-74.2184
 20
144.7057
 11
-74.2184
 21
145.9057
  0
LINE
  8
0
  6
CONTINUOUS
 62
     7
 10
-84.2684
 20
144.7057
 11
-72.7684
 21
144.7057
  0
LINE
  8
0
  6
CONTINUOUS
 62
     7
 10
-72.7684
 20
142.7057
 11
-72.7684
 21
144.7057
  0
LINE
  8
0
  6
CONTINUOUS
 62
     7
 10
-84.7684
 20
142.7057
 11
-72.2684
 21
142.7057
  0
LINE
  8
0
  6
CONTINUOUS
 62
     7
 10
-72.2684
 20
123.0057
 11
-72.2684
 21
142.7057
  0
LINE
  8
0
  6
CONTINUOUS
 62
     7
 10
-84.7684
 20
133.2057
 11
-84.7684
 21
142.7057
  0
LINE
  8
0
  6
CONTINUOUS
 62
     7
 10
-84.2684
 20
142.7057
 11
-84.2684
 21
144.7057
  0
LINE
  8
0
  6
CONTINUOUS
 62
     7
 10
-84.7684
 20
133.2057
 11
-72.26839
 21
133.2057
  0
LINE
  8
0
  6
CONTINUOUS
 62
     7
 10
-72.26838
 20
133.2056
 11
-74.01838
 21
131.4556
  0
LINE
  8
0
  6
CONTINUOUS
 62
     7
 10
-84.76841
 20
133.2057
 11
-83.01842
 21
131.4557
  0
LINE
  8
0
  6
CONTINUOUS
 62
     7
 10
-72.2684
 20
131.4557
 11
-74.0184
 21
131.4557
  0
LINE
  8
0
  6
CONTINUOUS
 62
     7
 10
-83.0184
 20
129.4557
 11
-83.0184
 21
131.4557
  0
LINE
  8
0
  6
CONTINUOUS
 62
     7
 10
-81.2684
 20
127.7057
 11
-75.7684
 21
127.7057
  0
LINE
  8
0
  6
CONTINUOUS
 62
     7
 10
-74.0184
 20
129.4557
 11
-74.0184
 21
131.4557
  0
LINE
  8
0
  6
CONTINUOUS
 62
     7
 10
-84.7684
 20
140.7057
 11
-72.2684
 21
140.7057
  0
LINE
  8
0
  6
CONTINUOUS
 62
     7
 10
-74.0184
 20
131.4557
 11
-83.0184
 21
131.4557
  0
LINE
  8
0
  6
CONTINUOUS
 62
     7
 10
-83.0184
 20
131.4557
 11
-85.5184
 21
131.4557
  0
LINE
  8
0
  6
CENTER
 62
     2
 10
-51.72216
 20
127.7057
 11
-33.54461
 21
127.7057
  0
LINE
  8
0
  6
CENTER
 62
     2
 10
-42.7184
 20
155.4452
 11
-42.7184
 21
110.1641
  0
LINE
  8
0
  6
CONTINUOUS
 62
     7
 10
-43.4684
 20
133.2057
 11
-48.9684
 21
133.2057
  0
LINE
  8
0
  6
CONTINUOUS
 62
     7
 10
-48.9684
 20
140.7057
 11
-36.4684
 21
140.7057
  0
LINE
  8
0
  6
CONTINUOUS
 62
     7
 10
-38.2184
 20
129.4557
 11
-38.2184
 21
131.4557
  0
LINE
  8
0
  6
CONTINUOUS
 62
     7
 10
-43.4684
 20
131.4557
 11
-47.2184
 21
131.4557
  0
LINE
  8
0
  6
CONTINUOUS
 62
     7
 10
-48.4684
 20
142.7057
 11
-48.4684
 21
144.7057
  0
LINE
  8
0
  6
CONTINUOUS
 62
     7
 10
-48.4684
 20
144.7057
 11
-36.9684
 21
144.7057
  0
LINE
  8
0
  6
CONTINUOUS
 62
     7
 10
-47.0184
 20
144.7057
 11
-47.0184
 21
145.9057
  0
LINE
  8
0
  6
CONTINUOUS
 62
     7
 10
-48.6184
 20
145.9057
 11
-36.8184
 21
145.9057
  0
LINE
  8
0
  6
CONTINUOUS
 62
     7
 10
-48.6184
 20
145.9057
 11
-48.6184
 21
147.7057
  0
LINE
  8
0
  6
CONTINUOUS
 62
     7
 10
-48.6184
 20
147.7057
 11
-36.8184
 21
147.7057
  0
LINE
  8
0
  6
CONTINUOUS
 62
     7
 10
-36.8184
 20
145.9057
 11
-36.8184
 21
147.7057
  0
LINE
  8
0
  6
CONTINUOUS
 62
     7
 10
-38.4184
 20
144.7057
 11
-38.4184
 21
145.9057
  0
LINE
  8
0
  6
CONTINUOUS
 62
     7
 10
-36.9684
 20
142.7057
 11
-36.9684
 21
144.7057
  0
LINE
  8
0
  6
CONTINUOUS
 62
     7
 10
-48.9684
 20
142.7057
 11
-36.4684
 21
142.7057
  0
LINE
  8
0
  6
CONTINUOUS
 62
     7
 10
-48.9684
 20
133.2057
 11
-48.9684
 21
142.7057
  0
LINE
  8
0
  6
CONTINUOUS
 62
     7
 10
-36.4684
 20
133.2057
 11
-38.2184
 21
131.4557
  0
LINE
  8
0
  6
CONTINUOUS
 62
     7
 10
-48.9684
 20
133.2057
 11
-47.2184
 21
131.4557
  0
LINE
  8
0
  6
CONTINUOUS
 62
     7
 10
-47.2184
 20
129.4557
 11
-47.2184
 21
131.4557
  0
LINE
  8
0
  6
CONTINUOUS
 62
     7
 10
-38.2184
 20
131.4557
 11
-41.9684
 21
131.4557
  0
LINE
  8
0
  6
CONTINUOUS
 62
     7
 10
-41.9684
 20
133.2057
 11
-36.4684
 21
133.2057
  0
LINE
  8
0
  6
CONTINUOUS
 62
     7
 10
-41.9684
 20
133.2057
 11
-41.9684
 21
131.3799
  0
LINE
  8
0
  6
CONTINUOUS
 62
     7
 10
-43.4684
 20
124.0314
 11
-43.4684
 21
121.5057
  0
LINE
  8
0
  6
CONTINUOUS
 62
     7
 10
-43.4684
 20
133.2057
 11
-43.4684
 21
131.3799
  0
LINE
  8
0
  6
CONTINUOUS
 62
     7
 10
-41.9684
 20
124.0314
 11
-41.9684
 21
121.5057
  0
LINE
  8
0
  6
CONTINUOUS
 62
     7
 10
-36.4684
 20
133.2057
 11
-36.4684
 21
142.7057
  0
LINE
  8
0
  6
CONTINUOUS
 62
     7
 10
-48.46841
 20
-16.0
 11
-48.46841
 21
-14.0
  0
LINE
  8
0
  6
CONTINUOUS
 62
     7
 10
-48.7184
 20
-14.0
 11
-36.71843
 21
-14.0
  0
LINE
  8
0
  6
CONTINUOUS
 62
     7
 10
-47.01839
 20
-14.0
 11
-47.01839
 21
-12.79999
  0
LINE
  8
0
  6
CONTINUOUS
 62
     7
 10
-48.6184
 20
-12.79999
 11
-36.8184
 21
-12.79999
  0
LINE
  8
0
  6
CONTINUOUS
 62
     7
 10
-48.6184
 20
-12.79999
 11
-48.6184
 21
-11.0
  0
LINE
  8
0
  6
CONTINUOUS
 62
     7
 10
-48.6184
 20
-11.0
 11
-36.8184
 21
-11.0
  0
LINE
  8
0
  6
CONTINUOUS
 62
     7
 10
-36.8184
 20
-12.79999
 11
-36.8184
 21
-11.0
  0
LINE
  8
0
  6
CONTINUOUS
 62
     7
 10
-38.4184
 20
-14.0
 11
-38.4184
 21
-12.79999
  0
LINE
  8
0
  6
CONTINUOUS
 62
     7
 10
-36.9684
 20
-16.0
 11
-36.9684
 21
-14.0
  0
LINE
  8
0
  6
CONTINUOUS
 62
     7
 10
-48.96841
 20
-16.0
 11
-36.4684
 21
-16.0
  0
LINE
  8
0
  6
CONTINUOUS
 62
     7
 10
-48.96841
 20
-26.0
 11
-48.96841
 21
-16.0
  0
LINE
  8
0
  6
CONTINUOUS
 62
     7
 10
-36.4684
 20
-26.0
 11
-36.4684
 21
-16.0
  0
LINE
  8
0
  6
CONTINUOUS
 62
     7
 10
-36.46839
 20
-26.0
 11
-38.2184
 21
-27.75
  0
LINE
  8
0
  6
CONTINUOUS
 62
     7
 10
-48.9684
 20
-25.99999
 11
-47.2184
 21
-27.74999
  0
LINE
  8
0
  6
CONTINUOUS
 62
     7
 10
-47.21841
 20
-29.75
 11
-47.21841
 21
-27.75
  0
LINE
  8
0
  6
CONTINUOUS
 62
     7
 10
-38.2184
 20
-27.75
 11
-41.9684
 21
-27.75
  0
LINE
  8
0
  6
CONTINUOUS
 62
     7
 10
-41.9684
 20
-26.0
 11
-36.4684
 21
-26.0
  0
LINE
  8
0
  6
CONTINUOUS
 62
     7
 10
-41.9684
 20
-26.0
 11
-41.9684
 21
-27.82578
  0
LINE
  8
0
  6
CONTINUOUS
 62
     7
 10
-43.4684
 20
-35.17423
 11
-43.4684
 21
-37.5
  0
LINE
  8
0
  6
CONTINUOUS
 62
     7
 10
-43.4684
 20
-26.0
 11
-43.4684
 21
-27.82578
  0
LINE
  8
0
  6
CONTINUOUS
 62
     7
 10
-41.9684
 20
-35.17423
 11
-41.9684
 21
-37.5
  0
LINE
  8
0
  6
CONTINUOUS
 62
     7
 10
-43.4684
 20
-26.0
 11
-48.96841
 21
-26.0
  0
LINE
  8
0
  6
CONTINUOUS
 62
     7
 10
-38.2184
 20
-29.75
 11
-38.2184
 21
-27.75
  0
LINE
  8
0
  6
CONTINUOUS
 62
     7
 10
-48.96841
 20
-18.0
 11
-36.4684
 21
-18.0
  0
LINE
  8
0
  6
CONTINUOUS
 62
     7
 10
-43.4684
 20
-27.75
 11
-47.21841
 21
-27.75
  0
LINE
  8
0
  6
CONTINUOUS
 62
     7
 10
-36.4684
 20
-19.5
 11
-35.7184
 21
-19.5
  0
LINE
  8
0
  6
CONTINUOUS
 62
     7
 10
-36.9684
 20
-14.5
 11
-36.2184
 21
-14.5
  0
LINE
  8
0
  6
CONTINUOUS
 62
     7
 10
-36.4684
 20
-17.0
 11
-36.2184
 21
-17.0
  0
LINE
  8
0
  6
CONTINUOUS
 62
     7
 10
-139.7184
 20
-11.0
 11
-136.8184
 21
-11.0
  0
LINE
  8
0
  6
CONTINUOUS
 62
     7
 10
-139.7184
 20
-12.79999
 11
-136.8184
 21
-12.79999
  0
LINE
  8
0
  6
CONTINUOUS
 62
     7
 10
-138.2184
 20
-18.0
 11
-136.4684
 21
-18.0
  0
LINE
  8
0
  6
CENTER
 62
     2
 10
-75.5184
 20
34.5
 11
-75.5184
 21
19.5
  0
LINE
  8
0
  6
CONTINUOUS
 62
     7
 10
-83.54902
 20
27.75
 11
-81.72324
 21
27.75
  0
LINE
  8
0
  6
CONTINUOUS
 62
     7
 10
-83.54902
 20
26.25
 11
-81.72324
 21
26.25
  0
LINE
  8
0
  6
CONTINUOUS
 62
     7
 10
-84.31736
 20
30.75
 11
-80.5184
 21
30.75
  0
LINE
  8
0
  6
CONTINUOUS
 62
     7
 10
-84.31736
 20
23.25
 11
-80.5184
 21
23.25
  0
LINE
  8
0
  6
CONTINUOUS
 62
     7
 10
-69.2684
 20
30.75
 11
-69.2684
 21
23.25
  0
LINE
  8
0
  6
CONTINUOUS
 62
     7
 10
-69.2684
 20
30.75
 11
-70.5184
 21
30.75
  0
LINE
  8
0
  6
CONTINUOUS
 62
     7
 10
-69.2684
 20
23.25
 11
-70.5184
 21
23.25
  0
LINE
  8
0
  6
CONTINUOUS
 62
     7
 10
104.6684
 20
-12.0
 11
119.1684
 21
-12.0
  0
LINE
  8
0
  6
CONTINUOUS
 62
     7
 10
105.0184
 20
-9.0
 11
105.0184
 21
-7.0
  0
LINE
  8
0
  6
CONTINUOUS
 62
     7
 10
105.0184
 20
-9.0
 11
118.8184
 21
-9.0
  0
LINE
  8
0
  6
CONTINUOUS
 62
     7
 10
105.0184
 20
-7.0
 11
118.8184
 21
-7.0
  0
LINE
  8
0
  6
CONTINUOUS
 62
     7
 10
104.9184
 20
-10.0
 11
118.9184
 21
-10.0
  0
LINE
  8
0
  6
CONTINUOUS
 62
     7
 10
107.1684
 20
-10.0
 11
107.1684
 21
-9.0
  0
LINE
  8
0
  6
CONTINUOUS
 62
     7
 10
116.6684
 20
-10.0
 11
116.6684
 21
-9.0
  0
LINE
  8
0
  6
CONTINUOUS
 62
     7
 10
118.8184
 20
-9.0
 11
118.8184
 21
-7.0
  0
LINE
  8
0
  6
CONTINUOUS
 62
     7
 10
118.9184
 20
-12.0
 11
118.9184
 21
-10.0
  0
LINE
  8
0
  6
CONTINUOUS
 62
     7
 10
104.9184
 20
-12.0
 11
104.9184
 21
-10.0
  0
LINE
  8
0
  6
CONTINUOUS
 62
     7
 10
104.6684
 20
-14.0
 11
119.1684
 21
-14.0
  0
LINE
  8
0
  6
CONTINUOUS
 62
     7
 10
-70.2684
 20
-131.4557
 11
-70.2684
 21
-123.9557
  0
LINE
  8
0
  6
CONTINUOUS
 62
     7
 10
104.6684
 20
-22.60001
 11
104.6684
 21
-12.0
  0
LINE
  8
0
  6
CONTINUOUS
 62
     7
 10
104.6684
 20
-22.60001
 11
119.1684
 21
-22.60001
  0
LINE
  8
0
  6
CONTINUOUS
 62
     7
 10
106.4183
 20
-24.34998
 11
104.6684
 21
-22.60001
  0
LINE
  8
0
  6
CONTINUOUS
 62
     7
 10
106.4184
 20
-24.35001
 11
117.4184
 21
-24.35001
  0
LINE
  8
0
  6
CONTINUOUS
 62
     7
 10
117.4184
 20
-24.35001
 11
119.1684
 21
-22.60001
  0
LINE
  8
0
  6
CENTER
 62
     2
 10
111.9184
 20
-39.27826
 11
111.9184
 21
-3.71631
  0
LINE
  8
0
  6
CONTINUOUS
 62
     7
 10
-149.9684
 20
-175.7057
 11
-145.2184
 21
-175.7057
  0
LINE
  8
0
  6
CONTINUOUS
 62
     7
 10
-149.6184
 20
-172.7057
 11
-149.6184
 21
-170.7057
  0
LINE
  8
0
  6
CONTINUOUS
 62
     7
 10
-149.6184
 20
-172.7057
 11
-145.2184
 21
-172.7057
  0
LINE
  8
0
  6
CONTINUOUS
 62
     7
 10
-149.7184
 20
-173.7057
 11
-145.2184
 21
-173.7057
  0
LINE
  8
0
  6
CONTINUOUS
 62
     7
 10
-147.4684
 20
-173.7057
 11
-147.4684
 21
-172.7057
  0
LINE
  8
0
  6
CONTINUOUS
 62
     7
 10
-137.9684
 20
-173.7057
 11
-137.9684
 21
-172.7057
  0
LINE
  8
0
  6
CONTINUOUS
 62
     7
 10
-135.8184
 20
-172.7057
 11
-135.8184
 21
-170.7057
  0
LINE
  8
0
  6
CONTINUOUS
 62
     7
 10
-135.7184
 20
-175.7057
 11
-135.7184
 21
-173.7057
  0
LINE
  8
0
  6
CONTINUOUS
 62
     7
 10
-149.7184
 20
-175.7057
 11
-149.7184
 21
-173.7057
  0
LINE
  8
0
  6
CONTINUOUS
 62
     7
 10
-149.9684
 20
-177.7057
 11
-147.3184
 21
-177.7057
  0
LINE
  8
0
  6
CONTINUOUS
 62
     7
 10
-135.4684
 20
-186.8057
 11
-135.4684
 21
-175.7057
  0
LINE
  8
0
  6
CONTINUOUS
 62
     7
 10
-149.9684
 20
-186.8057
 11
-149.9684
 21
-175.7057
  0
LINE
  8
0
  6
CONTINUOUS
 62
     7
 10
-135.4684
 20
-186.8057
 11
-135.8648
 21
-186.8057
  0
LINE
  8
0
  6
CONTINUOUS
 62
     7
 10
-149.9684
 20
-186.8057
 11
-149.572
 21
-186.8057
  0
LINE
  8
0
  6
CONTINUOUS
 62
     7
 10
-149.7171
 20
-187.057
 11
-149.9684
 21
-186.8057
  0
LINE
  8
0
  6
CONTINUOUS
 62
     7
 10
-135.7197
 20
-187.057
 11
-135.4684
 21
-186.8057
  0
LINE
  8
0
  6
CONTINUOUS
 62
     7
 10
108.9184
 20
-29.0
 11
114.9184
 21
-29.0
  0
LINE
  8
0
  6
CONTINUOUS
 62
     7
 10
103.7184
 20
-33.75
 11
119.1684
 21
-33.75
  0
LINE
  8
0
  6
CONTINUOUS
 62
     7
 10
103.7184
 20
-24.25
 11
106.3183
 21
-24.25
  0
LINE
  8
0
  6
CONTINUOUS
 62
     7
 10
117.5184
 20
-24.25
 11
119.1684
 21
-24.25
  0
LINE
  8
0
  6
CONTINUOUS
 62
     7
 10
41.96838
 20
122.2057
 11
43.46838
 21
122.2057
  0
LINE
  8
0
  6
CONTINUOUS
 62
     7
 10
35.46838
 20
144.7057
 11
36.21838
 21
144.7057
  0
LINE
  8
0
  6
CONTINUOUS
 62
     7
 10
35.81839
 20
147.7057
 11
35.81839
 21
149.7057
  0
LINE
  8
0
  6
CONTINUOUS
 62
     7
 10
35.81839
 20
147.7057
 11
39.71838
 21
147.7057
  0
LINE
  8
0
  6
CONTINUOUS
 62
     7
 10
35.81839
 20
149.7057
 11
39.71838
 21
149.7057
  0
LINE
  8
0
  6
CONTINUOUS
 62
     7
 10
35.71838
 20
146.7057
 11
39.71838
 21
146.7057
  0
LINE
  8
0
  6
CONTINUOUS
 62
     7
 10
37.96838
 20
146.7057
 11
37.96838
 21
147.7057
  0
LINE
  8
0
  6
CONTINUOUS
 62
     7
 10
47.46838
 20
146.7057
 11
47.46838
 21
147.7057
  0
LINE
  8
0
  6
CONTINUOUS
 62
     7
 10
49.61838
 20
147.7057
 11
49.61838
 21
149.7057
  0
LINE
  8
0
  6
CONTINUOUS
 62
     7
 10
49.71838
 20
144.7057
 11
49.71838
 21
146.7057
  0
LINE
  8
0
  6
CONTINUOUS
 62
     7
 10
35.71838
 20
144.7057
 11
35.71838
 21
146.7057
  0
LINE
  8
0
  6
CONTINUOUS
 62
     7
 10
35.46838
 20
142.7057
 11
36.21838
 21
142.7057
  0
LINE
  8
0
  6
CONTINUOUS
 62
     7
 10
49.96838
 20
134.2057
 11
49.96838
 21
144.7057
  0
LINE
  8
0
  6
CONTINUOUS
 62
     7
 10
35.46838
 20
134.2057
 11
35.46838
 21
144.7057
  0
LINE
  8
0
  6
CONTINUOUS
 62
     7
 10
-149.6184
 20
-170.7057
 11
-135.8184
 21
-170.7057
  0
LINE
  8
0
  6
CONTINUOUS
 62
     7
 10
-140.2184
 20
-172.7057
 11
-135.8184
 21
-172.7057
  0
LINE
  8
0
  6
CONTINUOUS
 62
     7
 10
-140.2184
 20
-173.7057
 11
-135.7184
 21
-173.7057
  0
LINE
  8
0
  6
CONTINUOUS
 62
     7
 10
-140.2184
 20
-175.7057
 11
-135.4684
 21
-175.7057
  0
LINE
  8
0
  6
CONTINUOUS
 62
     7
 10
-138.1184
 20
-177.7057
 11
-135.4684
 21
-177.7057
  0
LINE
  8
0
  6
CENTER
 62
     2
 10
-77.5184
 20
-118.4945
 11
-77.5184
 21
-136.4365
  0
LINE
  8
0
  6
CONTINUOUS
 62
     7
 10
-85.55757
 20
-126.9557
 11
-84.72951
 21
-126.9557
  0
LINE
  8
0
  6
CONTINUOUS
 62
     7
 10
-85.55757
 20
-128.4557
 11
-84.72951
 21
-128.4557
  0
LINE
  8
0
  6
CONTINUOUS
 62
     7
 10
-86.57206
 20
-123.9557
 11
-83.72324
 21
-123.9557
  0
LINE
  8
0
  6
CONTINUOUS
 62
     7
 10
-86.57206
 20
-131.4557
 11
-83.72324
 21
-131.4557
  0
LINE
  8
0
  6
CONTINUOUS
 62
     7
 10
119.1684
 20
-35.25
 11
119.1684
 21
-12.0
  0
LINE
  8
0
  6
CONTINUOUS
 62
     7
 10
-70.2684
 20
-123.9557
 11
-71.31357
 21
-123.9557
  0
LINE
  8
0
  6
CONTINUOUS
 62
     7
 10
-70.2684
 20
-131.4557
 11
-71.31357
 21
-131.4557
  0
LINE
  8
0
  6
CENTER
 62
     2
 10
-101.7222
 20
-192.2057
 11
-67.66438
 21
-192.2057
  0
LINE
  8
0
  6
CONTINUOUS
 62
     7
 10
-99.9184
 20
-197.0057
 11
-85.5184
 21
-197.0057
  0
LINE
  8
0
  6
CONTINUOUS
 62
     7
 10
-99.9184
 20
-187.4057
 11
-85.5184
 21
-187.4057
  0
LINE
  8
0
  6
CONTINUOUS
 62
     7
 10
-85.51839
 20
-197.0056
 11
-86.21121
 21
-198.2056
  0
LINE
  8
0
  6
CONTINUOUS
 62
     7
 10
-85.5184
 20
-195.9557
 11
-85.5184
 21
-197.0057
  0
LINE
  8
0
  6
CENTER
 62
     2
 10
-51.72216
 20
-192.2057
 11
-33.72031
 21
-192.2057
  0
LINE
  8
0
  6
CONTINUOUS
 62
     7
 10
-46.2184
 20
-166.7057
 11
-39.2184
 21
-166.7057
  0
LINE
  8
0
  6
CENTER
 62
     2
 10
-42.7184
 20
-163.8456
 11
-42.7184
 21
-209.2472
  0
LINE
  8
0
  6
CONTINUOUS
 62
     7
 10
-49.9184
 20
-187.4057
 11
-49.9184
 21
-197.0057
  0
LINE
  8
0
  6
CONTINUOUS
 62
     7
 10
-49.22556
 20
-198.2057
 11
-36.21122
 21
-198.2057
  0
LINE
  8
0
  6
CONTINUOUS
 62
     7
 10
-49.9184
 20
-197.0057
 11
-43.4684
 21
-197.0057
  0
LINE
  8
0
  6
CONTINUOUS
 62
     7
 10
-49.9184
 20
-187.4057
 11
-49.36845
 21
-187.4057
  0
LINE
  8
0
  6
CONTINUOUS
 62
     7
 10
-35.5184
 20
-187.4057
 11
-35.71971
 21
-187.057
  0
LINE
  8
0
  6
CONTINUOUS
 62
     7
 10
-49.91841
 20
-197.0057
 11
-49.22558
 21
-198.2057
  0
LINE
  8
0
  6
CONTINUOUS
 62
     7
 10
-49.9184
 20
-187.4057
 11
-49.71711
 21
-187.057
  0
LINE
  8
0
  6
CONTINUOUS
 62
     7
 10
-35.5184
 20
-197.0057
 11
-36.21122
 21
-198.2057
  0
LINE
  8
0
  6
CONTINUOUS
 62
     7
 10
-35.5184
 20
-187.4057
 11
-35.5184
 21
-197.0057
  0
LINE
  8
0
  6
CONTINUOUS
 62
     7
 10
-46.7184
 20
-167.2057
 11
-46.7184
 21
-170.2057
  0
LINE
  8
0
  6
CONTINUOUS
 62
     7
 10
-38.7184
 20
-167.2057
 11
-38.7184
 21
-170.2057
  0
LINE
  8
0
  6
CONTINUOUS
 62
     7
 10
-38.71841
 20
-167.2057
 11
-39.21841
 21
-166.7057
  0
LINE
  8
0
  6
CONTINUOUS
 62
     7
 10
-46.2184
 20
-166.7056
 11
-46.71841
 21
-167.2057
  0
LINE
  8
0
  6
CONTINUOUS
 62
     7
 10
-46.71839
 20
-170.2056
 11
-46.21839
 21
-170.7057
  0
LINE
  8
0
  6
CONTINUOUS
 62
     7
 10
-39.21841
 20
-170.7056
 11
-38.71841
 21
-170.2056
  0
LINE
  8
0
  6
CONTINUOUS
 62
     7
 10
-46.7184
 20
-167.2057
 11
-38.7184
 21
-167.2057
  0
LINE
  8
0
  6
CONTINUOUS
 62
     7
 10
-46.7184
 20
-170.2057
 11
-38.7184
 21
-170.2057
  0
LINE
  8
0
  6
CONTINUOUS
 62
     7
 10
-45.7184
 20
-167.2057
 11
-45.7184
 21
-170.2057
  0
LINE
  8
0
  6
CONTINUOUS
 62
     7
 10
-44.7184
 20
-167.2057
 11
-44.7184
 21
-170.2057
  0
LINE
  8
0
  6
CONTINUOUS
 62
     7
 10
-43.7184
 20
-167.2057
 11
-43.7184
 21
-170.2057
  0
LINE
  8
0
  6
CONTINUOUS
 62
     7
 10
-37.71377
 20
-198.2057
 11
-37.9794
 21
-206.7057
  0
LINE
  8
0
  6
CONTINUOUS
 62
     7
 10
-38.29478
 20
-198.2057
 11
-38.56041
 21
-206.7057
  0
LINE
  8
0
  6
CONTINUOUS
 62
     7
 10
-47.14202
 20
-198.2057
 11
-46.8764
 21
-206.7057
  0
LINE
  8
0
  6
CONTINUOUS
 62
     7
 10
-47.72302
 20
-198.2057
 11
-47.4574
 21
-206.7056
  0
LINE
  8
0
  6
CONTINUOUS
 62
     7
 10
-36.06837
 20
-187.4057
 11
-35.5184
 21
-187.4057
  0
LINE
  8
0
  6
CONTINUOUS
 62
     7
 10
-41.9684
 20
-197.0057
 11
-35.5184
 21
-197.0057
  0
LINE
  8
0
  6
CONTINUOUS
 62
     7
 10
-99.22558
 20
-186.2057
 11
-84.7684
 21
-186.2057
  0
LINE
  8
0
  6
CONTINUOUS
 62
     7
 10
-84.7684
 20
-175.7057
 11
-70.2684
 21
-175.7057
  0
LINE
  8
0
  6
CONTINUOUS
 62
     7
 10
-84.4184
 20
-172.7057
 11
-84.4184
 21
-170.7057
  0
LINE
  8
0
  6
CONTINUOUS
 62
     7
 10
-84.4184
 20
-172.7057
 11
-70.61839
 21
-172.7057
  0
LINE
  8
0
  6
CONTINUOUS
 62
     7
 10
-84.4184
 20
-170.7057
 11
-70.61839
 21
-170.7057
  0
LINE
  8
0
  6
CONTINUOUS
 62
     7
 10
-84.5184
 20
-173.7057
 11
-70.5184
 21
-173.7057
  0
LINE
  8
0
  6
CONTINUOUS
 62
     7
 10
-82.2684
 20
-173.7057
 11
-82.2684
 21
-172.7057
  0
LINE
  8
0
  6
CONTINUOUS
 62
     7
 10
-72.7684
 20
-173.7057
 11
-72.7684
 21
-172.7057
  0
LINE
  8
0
  6
CONTINUOUS
 62
     7
 10
-70.61839
 20
-172.7057
 11
-70.61839
 21
-170.7057
  0
LINE
  8
0
  6
CONTINUOUS
 62
     7
 10
-70.5184
 20
-175.7057
 11
-70.5184
 21
-173.7057
  0
LINE
  8
0
  6
CONTINUOUS
 62
     7
 10
-84.5184
 20
-175.7057
 11
-84.5184
 21
-173.7057
  0
LINE
  8
0
  6
CONTINUOUS
 62
     7
 10
-84.7684
 20
-177.7057
 11
-70.2684
 21
-177.7057
  0
LINE
  8
0
  6
CONTINUOUS
 62
     7
 10
-84.7684
 20
-186.8057
 11
-84.7684
 21
-175.7057
  0
LINE
  8
0
  6
CONTINUOUS
 62
     7
 10
-84.7684
 20
-186.8057
 11
-70.2684
 21
-186.8057
  0
LINE
  8
0
  6
CONTINUOUS
 62
     7
 10
-83.01846
 20
-188.5557
 11
-84.76843
 21
-186.8057
  0
LINE
  8
0
  6
CONTINUOUS
 62
     7
 10
-83.0184
 20
-188.5557
 11
-72.01839
 21
-188.5557
  0
LINE
  8
0
  6
CONTINUOUS
 62
     7
 10
-72.01839
 20
-188.5557
 11
-70.26839
 21
-186.8057
  0
LINE
  8
0
  6
CENTER
 62
     2
 10
-77.5184
 20
-201.1733
 11
-77.5184
 21
-167.422
  0
LINE
  8
0
  6
CONTINUOUS
 62
     7
 10
-83.0184
 20
-188.5557
 11
-81.40622
 21
-191.6658
  0
LINE
  8
0
  6
CONTINUOUS
 62
     7
 10
-72.01839
 20
-188.5557
 11
-73.63059
 21
-191.6659
  0
LINE
  8
0
  6
CONTINUOUS
 62
     7
 10
-80.5184
 20
-192.2057
 11
-74.5184
 21
-192.2057
  0
LINE
  8
0
  6
CONTINUOUS
 62
     7
 10
-85.5184
 20
-195.9557
 11
-70.2684
 21
-195.9557
  0
LINE
  8
0
  6
CONTINUOUS
 62
     7
 10
-85.5184
 20
-188.4557
 11
-83.11847
 21
-188.4557
  0
LINE
  8
0
  6
CONTINUOUS
 62
     7
 10
-71.91837
 20
-188.4557
 11
-70.2684
 21
-188.4557
  0
LINE
  8
0
  6
CONTINUOUS
 62
     7
 10
-85.51841
 20
-187.4057
 11
-86.21123
 21
-186.2057
  0
LINE
  8
0
  6
CONTINUOUS
 62
     7
 10
-85.5184
 20
-187.4057
 11
-85.5184
 21
-188.4557
  0
LINE
  8
0
  6
CONTINUOUS
 62
     7
 10
-99.22558
 20
-198.2057
 11
-71.7684
 21
-198.2057
  0
LINE
  8
0
  6
CONTINUOUS
 62
     7
 10
-43.4684
 20
-198.2057
 11
-41.9684
 21
-198.2057
  0
LINE
  8
0
  6
CONTINUOUS
 62
     7
 10
-49.9684
 20
-175.7057
 11
-35.4684
 21
-175.7057
  0
LINE
  8
0
  6
CONTINUOUS
 62
     7
 10
-49.61839
 20
-172.7057
 11
-49.61839
 21
-170.7057
  0
LINE
  8
0
  6
CONTINUOUS
 62
     7
 10
-49.61839
 20
-172.7057
 11
-35.8184
 21
-172.7057
  0
LINE
  8
0
  6
CONTINUOUS
 62
     7
 10
-49.61839
 20
-170.7057
 11
-35.8184
 21
-170.7057
  0
LINE
  8
0
  6
CONTINUOUS
 62
     7
 10
-49.7184
 20
-173.7057
 11
-35.7184
 21
-173.7057
  0
LINE
  8
0
  6
CONTINUOUS
 62
     7
 10
-47.4684
 20
-173.7057
 11
-47.4684
 21
-172.7057
  0
LINE
  8
0
  6
CONTINUOUS
 62
     7
 10
-37.9684
 20
-173.7057
 11
-37.9684
 21
-172.7057
  0
LINE
  8
0
  6
CONTINUOUS
 62
     7
 10
-35.8184
 20
-172.7057
 11
-35.8184
 21
-170.7057
  0
LINE
  8
0
  6
CONTINUOUS
 62
     7
 10
-35.7184
 20
-175.7057
 11
-35.7184
 21
-173.7057
  0
LINE
  8
0
  6
CONTINUOUS
 62
     7
 10
-49.7184
 20
-175.7057
 11
-49.7184
 21
-173.7057
  0
LINE
  8
0
  6
CONTINUOUS
 62
     7
 10
-49.9684
 20
-177.7057
 11
-35.4684
 21
-177.7057
  0
LINE
  8
0
  6
CONTINUOUS
 62
     7
 10
-35.4684
 20
-186.8057
 11
-35.4684
 21
-175.7057
  0
LINE
  8
0
  6
CONTINUOUS
 62
     7
 10
-49.9684
 20
-186.8057
 11
-49.9684
 21
-175.7057
  0
LINE
  8
0
  6
CONTINUOUS
 62
     7
 10
-35.4684
 20
-186.8057
 11
-41.9684
 21
-186.8057
  0
LINE
  8
0
  6
CONTINUOUS
 62
     7
 10
-41.9684
 20
-188.5314
 11
-41.9684
 21
-186.8057
  0
LINE
  8
0
  6
CONTINUOUS
 62
     7
 10
-43.4684
 20
-188.5314
 11
-43.4684
 21
-186.8057
  0
LINE
  8
0
  6
CONTINUOUS
 62
     7
 10
-49.9684
 20
-186.8057
 11
-43.4684
 21
-186.8057
  0
LINE
  8
0
  6
CONTINUOUS
 62
     7
 10
-48.21844
 20
-188.5557
 11
-49.96844
 21
-186.8057
  0
LINE
  8
0
  6
CONTINUOUS
 62
     7
 10
-48.2184
 20
-188.5557
 11
-43.57866
 21
-188.5557
  0
LINE
  8
0
  6
CONTINUOUS
 62
     7
 10
-37.2184
 20
-188.5557
 11
-41.85814
 21
-188.5557
  0
LINE
  8
0
  6
CONTINUOUS
 62
     7
 10
-37.2184
 20
-188.5557
 11
-35.46839
 21
-186.8057
  0
LINE
  8
0
  6
CONTINUOUS
 62
     7
 10
-48.2184
 20
-191.2057
 11
-48.2184
 21
-188.5557
  0
LINE
  8
0
  6
CONTINUOUS
 62
     7
 10
-37.2184
 20
-191.2057
 11
-37.2184
 21
-188.5557
  0
LINE
  8
0
  6
CONTINUOUS
 62
     7
 10
-47.2184
 20
-192.2057
 11
-46.4684
 21
-192.2057
  0
LINE
  8
0
  6
CONTINUOUS
 62
     7
 10
-38.2184
 20
-192.2057
 11
-38.9684
 21
-192.2057
  0
LINE
  8
0
  6
CONTINUOUS
 62
     7
 10
-43.4684
 20
-198.2057
 11
-43.4684
 21
-195.8799
  0
LINE
  8
0
  6
CONTINUOUS
 62
     7
 10
-41.9684
 20
-198.2057
 11
-41.9684
 21
-195.8799
  0
LINE
  8
0
  6
CONTINUOUS
 62
     7
 10
-70.2684
 20
-196.7057
 11
-70.2684
 21
-175.7057
  0
LINE
  8
0
  6
CONTINUOUS
 62
     7
 10
101.9184
 20
133.0057
 11
101.2256
 21
134.2057
  0
LINE
  8
0
  6
CONTINUOUS
 62
     7
 10
101.9184
 20
131.9557
 11
101.9184
 21
133.0057
  0
LINE
  8
0
  6
CONTINUOUS
 62
     7
 10
145.4684
 20
144.7057
 11
159.9684
 21
144.7057
  0
LINE
  8
0
  6
CONTINUOUS
 62
     7
 10
145.8184
 20
147.7057
 11
145.8184
 21
149.7057
  0
LINE
  8
0
  6
CONTINUOUS
 62
     7
 10
145.8184
 20
147.7057
 11
159.6184
 21
147.7057
  0
LINE
  8
0
  6
CONTINUOUS
 62
     7
 10
145.8184
 20
149.7057
 11
159.6184
 21
149.7057
  0
LINE
  8
0
  6
CONTINUOUS
 62
     7
 10
145.7184
 20
146.7057
 11
159.7184
 21
146.7057
  0
LINE
  8
0
  6
CONTINUOUS
 62
     7
 10
147.9684
 20
146.7057
 11
147.9684
 21
147.7057
  0
LINE
  8
0
  6
CONTINUOUS
 62
     7
 10
157.4684
 20
146.7057
 11
157.4684
 21
147.7057
  0
LINE
  8
0
  6
CONTINUOUS
 62
     7
 10
159.6184
 20
147.7057
 11
159.6184
 21
149.7057
  0
LINE
  8
0
  6
CONTINUOUS
 62
     7
 10
159.7184
 20
144.7057
 11
159.7184
 21
146.7057
  0
LINE
  8
0
  6
CONTINUOUS
 62
     7
 10
145.7184
 20
144.7057
 11
145.7184
 21
146.7057
  0
LINE
  8
0
  6
CONTINUOUS
 62
     7
 10
145.4684
 20
142.7057
 11
159.9684
 21
142.7057
  0
LINE
  8
0
  6
CONTINUOUS
 62
     7
 10
159.9684
 20
133.6057
 11
159.9684
 21
144.7057
  0
LINE
  8
0
  6
CONTINUOUS
 62
     7
 10
145.4684
 20
133.6057
 11
145.4684
 21
144.7057
  0
LINE
  8
0
  6
CONTINUOUS
 62
     7
 10
159.9684
 20
133.6057
 11
153.4684
 21
133.6057
  0
LINE
  8
0
  6
CONTINUOUS
 62
     7
 10
153.4684
 20
131.8799
 11
153.4684
 21
133.6057
  0
LINE
  8
0
  6
CONTINUOUS
 62
     7
 10
151.9684
 20
131.8799
 11
151.9684
 21
133.6057
  0
LINE
  8
0
  6
CONTINUOUS
 62
     7
 10
145.4684
 20
133.6057
 11
151.9684
 21
133.6057
  0
LINE
  8
0
  6
CONTINUOUS
 62
     7
 10
147.2184
 20
131.8557
 11
145.4684
 21
133.6057
  0
LINE
  8
0
  6
CONTINUOUS
 62
     7
 10
147.2184
 20
131.8557
 11
151.2184
 21
131.8557
  0
LINE
  8
0
  6
CONTINUOUS
 62
     7
 10
158.2184
 20
131.8557
 11
154.2184
 21
131.8557
  0
LINE
  8
0
  6
CONTINUOUS
 62
     7
 10
158.2184
 20
131.8557
 11
159.9684
 21
133.6057
  0
LINE
  8
0
  6
CONTINUOUS
 62
     7
 10
147.2184
 20
129.2057
 11
147.2184
 21
131.8557
  0
LINE
  8
0
  6
CONTINUOUS
 62
     7
 10
158.2184
 20
129.2057
 11
158.2184
 21
131.8557
  0
LINE
  8
0
  6
CONTINUOUS
 62
     7
 10
148.2184
 20
128.2057
 11
148.9684
 21
128.2057
  0
LINE
  8
0
  6
CONTINUOUS
 62
     7
 10
157.2184
 20
128.2057
 11
156.4684
 21
128.2057
  0
LINE
  8
0
  6
CONTINUOUS
 62
     7
 10
151.9684
 20
122.2057
 11
151.9684
 21
124.5314
  0
LINE
  8
0
  6
CONTINUOUS
 62
     7
 10
153.4684
 20
122.2057
 11
153.4684
 21
124.5314
  0
LINE
  8
0
  6
CONTINUOUS
 62
     7
 10
49.21838
 20
144.7057
 11
49.96838
 21
144.7057
  0
LINE
  8
0
  6
CONTINUOUS
 62
     7
 10
49.21838
 20
142.7057
 11
49.96838
 21
142.7057
  0
LINE
  8
0
  6
CONTINUOUS
 62
     7
 10
36.21838
 20
142.7057
 11
49.21838
 21
142.7057
  0
LINE
  8
0
  6
CONTINUOUS
 62
     7
 10
45.71838
 20
146.7057
 11
49.71838
 21
146.7057
  0
LINE
  8
0
  6
CONTINUOUS
 62
     7
 10
45.71838
 20
149.7057
 11
49.61838
 21
149.7057
  0
LINE
  8
0
  6
CONTINUOUS
 62
     7
 10
45.71838
 20
147.7057
 11
49.61838
 21
147.7057
  0
LINE
  8
0
  6
CENTER
 62
     2
 10
110.9184
 20
195.7057
 11
110.9184
 21
177.7057
  0
LINE
  8
0
  6
CONTINUOUS
 62
     7
 10
101.1194
 20
182.9557
 11
104.7135
 21
182.9557
  0
LINE
  8
0
  6
CONTINUOUS
 62
     7
 10
101.1194
 20
190.4557
 11
104.7135
 21
190.4557
  0
LINE
  8
0
  6
CONTINUOUS
 62
     7
 10
101.8878
 20
185.9557
 11
103.7073
 21
185.9557
  0
LINE
  8
0
  6
CONTINUOUS
 62
     7
 10
101.8878
 20
187.4557
 11
103.7073
 21
187.4557
  0
LINE
  8
0
  6
CONTINUOUS
 62
     7
 10
118.1684
 20
190.4557
 11
118.1684
 21
182.9557
  0
LINE
  8
0
  6
CONTINUOUS
 62
     7
 10
118.1684
 20
190.4557
 11
117.1232
 21
190.4557
  0
LINE
  8
0
  6
CONTINUOUS
 62
     7
 10
118.1684
 20
182.9557
 11
117.1232
 21
182.9557
  0
LINE
  8
0
  6
CONTINUOUS
 62
     7
 10
84.2112
 20
134.2057
 11
103.6684
 21
134.2057
  0
LINE
  8
0
  6
CENTER
 62
     2
 10
80.91978
 20
128.2057
 11
122.4861
 21
128.2057
  0
LINE
  8
0
  6
CONTINUOUS
 62
     7
 10
103.6684
 20
144.7057
 11
118.1684
 21
144.7057
  0
LINE
  8
0
  6
CONTINUOUS
 62
     7
 10
104.0184
 20
147.7057
 11
104.0184
 21
149.7057
  0
LINE
  8
0
  6
CONTINUOUS
 62
     7
 10
104.0184
 20
147.7057
 11
117.8184
 21
147.7057
  0
LINE
  8
0
  6
CONTINUOUS
 62
     7
 10
104.0184
 20
149.7057
 11
117.8184
 21
149.7057
  0
LINE
  8
0
  6
CONTINUOUS
 62
     7
 10
103.9184
 20
146.7057
 11
117.9184
 21
146.7057
  0
LINE
  8
0
  6
CONTINUOUS
 62
     7
 10
106.1684
 20
146.7057
 11
106.1684
 21
147.7057
  0
LINE
  8
0
  6
CONTINUOUS
 62
     7
 10
115.6684
 20
146.7057
 11
115.6684
 21
147.7057
  0
LINE
  8
0
  6
CONTINUOUS
 62
     7
 10
117.8184
 20
147.7057
 11
117.8184
 21
149.7057
  0
LINE
  8
0
  6
CONTINUOUS
 62
     7
 10
117.9184
 20
144.7057
 11
117.9184
 21
146.7057
  0
LINE
  8
0
  6
CONTINUOUS
 62
     7
 10
103.9184
 20
144.7057
 11
103.9184
 21
146.7057
  0
LINE
  8
0
  6
CONTINUOUS
 62
     7
 10
103.6684
 20
142.7057
 11
118.1684
 21
142.7057
  0
LINE
  8
0
  6
CONTINUOUS
 62
     7
 10
103.6684
 20
133.6057
 11
103.6684
 21
144.7057
  0
LINE
  8
0
  6
CONTINUOUS
 62
     7
 10
103.6684
 20
133.6057
 11
118.1684
 21
133.6057
  0
LINE
  8
0
  6
CONTINUOUS
 62
     7
 10
105.4183
 20
131.8557
 11
103.6684
 21
133.6056
  0
LINE
  8
0
  6
CONTINUOUS
 62
     7
 10
105.4184
 20
131.8557
 11
116.4184
 21
131.8557
  0
LINE
  8
0
  6
CONTINUOUS
 62
     7
 10
116.4184
 20
131.8557
 11
118.1684
 21
133.6057
  0
LINE
  8
0
  6
CENTER
 62
     2
 10
110.9184
 20
119.238
 11
110.9184
 21
152.9893
  0
LINE
  8
0
  6
CONTINUOUS
 62
     7
 10
105.4184
 20
131.8556
 11
107.0305
 21
128.7454
  0
LINE
  8
0
  6
CONTINUOUS
 62
     7
 10
116.4184
 20
131.8557
 11
114.8062
 21
128.7455
  0
LINE
  8
0
  6
CONTINUOUS
 62
     7
 10
107.9184
 20
128.2057
 11
113.9184
 21
128.2057
  0
LINE
  8
0
  6
CONTINUOUS
 62
     7
 10
101.9184
 20
124.4557
 11
118.1684
 21
124.4557
  0
LINE
  8
0
  6
CONTINUOUS
 62
     7
 10
101.9184
 20
131.9557
 11
105.3183
 21
131.9557
  0
LINE
  8
0
  6
CONTINUOUS
 62
     7
 10
116.5184
 20
131.9557
 11
118.1684
 21
131.9557
  0
LINE
  8
0
  6
CONTINUOUS
 62
     7
 10
118.1684
 20
123.7057
 11
118.1684
 21
144.7057
  0
LINE
  8
0
  6
CONTINUOUS
 62
     7
 10
117.4184
 20
-24.35
 11
115.8498
 21
-28.36398
  0
LINE
  8
0
  6
CONTINUOUS
 62
     7
 10
106.4183
 20
-24.34999
 11
107.987
 21
-28.36399
  0
LINE
  8
0
  6
CONTINUOUS
 62
     7
 10
151.9684
 20
-36.75
 11
153.4684
 21
-36.75
  0
LINE
  8
0
  6
CONTINUOUS
 62
     7
 10
145.4684
 20
-12.0
 11
159.9684
 21
-12.0
  0
LINE
  8
0
  6
CONTINUOUS
 62
     7
 10
145.8184
 20
-9.0
 11
145.8184
 21
-7.0
  0
LINE
  8
0
  6
CONTINUOUS
 62
     7
 10
145.8184
 20
-9.0
 11
159.6184
 21
-9.0
  0
LINE
  8
0
  6
CONTINUOUS
 62
     7
 10
145.8184
 20
-7.0
 11
159.6184
 21
-7.0
  0
LINE
  8
0
  6
CONTINUOUS
 62
     7
 10
145.7184
 20
-10.0
 11
159.7184
 21
-10.0
  0
LINE
  8
0
  6
CONTINUOUS
 62
     7
 10
147.9684
 20
-10.0
 11
147.9684
 21
-9.0
  0
LINE
  8
0
  6
CONTINUOUS
 62
     7
 10
157.4684
 20
-10.0
 11
157.4684
 21
-9.0
  0
LINE
  8
0
  6
CONTINUOUS
 62
     7
 10
159.6184
 20
-9.0
 11
159.6184
 21
-7.0
  0
LINE
  8
0
  6
CONTINUOUS
 62
     7
 10
159.7184
 20
-12.0
 11
159.7184
 21
-10.0
  0
LINE
  8
0
  6
CONTINUOUS
 62
     7
 10
145.7184
 20
-12.0
 11
145.7184
 21
-10.0
  0
LINE
  8
0
  6
CONTINUOUS
 62
     7
 10
145.4684
 20
-14.0
 11
159.9684
 21
-14.0
  0
LINE
  8
0
  6
CONTINUOUS
 62
     7
 10
159.9684
 20
-22.60001
 11
159.9684
 21
-12.0
  0
LINE
  8
0
  6
CONTINUOUS
 62
     7
 10
145.4684
 20
-22.60001
 11
145.4684
 21
-12.0
  0
LINE
  8
0
  6
CONTINUOUS
 62
     7
 10
159.9684
 20
-22.60001
 11
153.4684
 21
-22.60001
  0
LINE
  8
0
  6
CONTINUOUS
 62
     7
 10
153.4684
 20
-24.32576
 11
153.4684
 21
-22.60001
  0
LINE
  8
0
  6
CONTINUOUS
 62
     7
 10
151.9684
 20
-24.32576
 11
151.9684
 21
-22.60001
  0
LINE
  8
0
  6
CONTINUOUS
 62
     7
 10
145.4684
 20
-22.60001
 11
151.9684
 21
-22.60001
  0
LINE
  8
0
  6
CONTINUOUS
 62
     7
 10
147.2184
 20
-24.34999
 11
145.4684
 21
-22.59999
  0
LINE
  8
0
  6
CONTINUOUS
 62
     7
 10
147.2184
 20
-24.35001
 11
151.7488
 21
-24.35001
  0
LINE
  8
0
  6
CONTINUOUS
 62
     7
 10
158.2184
 20
-24.35001
 11
153.6879
 21
-24.35001
  0
LINE
  8
0
  6
CONTINUOUS
 62
     7
 10
158.2184
 20
-24.35003
 11
159.9684
 21
-22.60002
  0
LINE
  8
0
  6
CONTINUOUS
 62
     7
 10
147.2184
 20
-28.0
 11
147.2184
 21
-24.35001
  0
LINE
  8
0
  6
CONTINUOUS
 62
     7
 10
158.2184
 20
-28.0
 11
158.2184
 21
-24.35001
  0
LINE
  8
0
  6
CONTINUOUS
 62
     7
 10
151.9684
 20
-36.75
 11
151.9684
 21
-33.69041
  0
LINE
  8
0
  6
CONTINUOUS
 62
     7
 10
153.4684
 20
-36.75
 11
153.4684
 21
-33.69041
  0
LINE
  8
0
  6
CONTINUOUS
 62
     7
 10
41.96838
 20
-36.75
 11
43.46838
 21
-36.75
  0
LINE
  8
0
  6
CONTINUOUS
 62
     7
 10
35.81839
 20
-9.0
 11
35.81839
 21
-7.0
  0
LINE
  8
0
  6
CONTINUOUS
 62
     7
 10
35.81839
 20
-9.0
 11
37.71838
 21
-9.0
  0
LINE
  8
0
  6
CONTINUOUS
 62
     7
 10
35.81839
 20
-7.0
 11
37.71838
 21
-7.0
  0
LINE
  8
0
  6
CONTINUOUS
 62
     7
 10
49.61838
 20
-9.0
 11
49.61838
 21
-7.0
  0
LINE
  8
0
  6
CONTINUOUS
 62
     7
 10
159.9684
 20
-16.25
 11
162.2184
 21
-16.25
  0
LINE
  8
0
  6
CONTINUOUS
 62
     7
 10
159.9684
 20
-13.45
 11
160.2184
 21
-13.45
  0
LINE
  8
0
  6
CONTINUOUS
 62
     7
 10
159.9684
 20
-12.95
 11
160.7184
 21
-12.95
  0
LINE
  8
0
  6
CONTINUOUS
 62
     7
 10
159.7184
 20
-10.45
 11
160.7184
 21
-10.45
  0
LINE
  8
0
  6
CONTINUOUS
 62
     7
 10
157.4684
 20
-9.95
 11
160.2184
 21
-9.95
  0
LINE
  8
0
  6
CONTINUOUS
 62
     7
 10
159.9684
 20
-21.25
 11
162.8524
 21
-21.25
  0
LINE
  8
0
  6
CONTINUOUS
 62
     7
 10
47.71838
 20
-7.0
 11
49.61838
 21
-7.0
  0
LINE
  8
0
  6
CONTINUOUS
 62
     7
 10
47.71838
 20
-9.0
 11
49.61838
 21
-9.0
  0
LINE
  8
0
  6
CENTER
 62
     2
 10
111.9184
 20
36.0
 11
111.9184
 21
18.0
  0
LINE
  8
0
  6
CONTINUOUS
 62
     7
 10
102.64
 20
31.75
 11
106.4412
 21
31.75
  0
LINE
  8
0
  6
CONTINUOUS
 62
     7
 10
102.64
 20
22.25
 11
106.4412
 21
22.25
  0
LINE
  8
0
  6
CONTINUOUS
 62
     7
 10
103.6928
 20
27.75
 11
104.7073
 21
27.75
  0
LINE
  8
0
  6
CONTINUOUS
 62
     7
 10
103.6928
 20
26.25
 11
104.7073
 21
26.25
  0
LINE
  8
0
  6
CONTINUOUS
 62
     7
 10
119.1684
 20
31.75
 11
119.1684
 21
22.25
  0
LINE
  8
0
  6
CONTINUOUS
 62
     7
 10
119.1684
 20
31.75
 11
117.3956
 21
31.75
  0
LINE
  8
0
  6
CONTINUOUS
 62
     7
 10
119.1684
 20
22.25
 11
117.3956
 21
22.25
  0
LINE
  8
0
  6
CONTINUOUS
 62
     7
 10
285.2051
 20
150.2057
 11
302.7051
 21
150.2057
  0
LINE
  8
0
  6
CONTINUOUS
 62
     7
 10
285.5551
 20
155.2057
 11
302.3552
 21
155.2057
  0
LINE
  8
0
  6
CONTINUOUS
 62
     7
 10
285.5551
 20
153.0057
 11
285.5551
 21
155.2057
  0
LINE
  8
0
  6
CONTINUOUS
 62
     7
 10
302.3552
 20
153.0057
 11
302.3552
 21
155.2057
  0
LINE
  8
0
  6
CONTINUOUS
 62
     7
 10
285.5551
 20
153.0057
 11
302.3552
 21
153.0057
  0
LINE
  8
0
  6
CONTINUOUS
 62
     7
 10
299.9551
 20
152.2057
 11
299.9551
 21
153.0057
  0
LINE
  8
0
  6
CONTINUOUS
 62
     7
 10
287.9551
 20
152.2057
 11
287.9551
 21
153.0057
  0
LINE
  8
0
  6
CONTINUOUS
 62
     7
 10
285.4551
 20
152.2057
 11
302.4551
 21
152.2057
  0
LINE
  8
0
  6
CONTINUOUS
 62
     7
 10
285.4551
 20
150.2057
 11
285.4551
 21
152.2057
  0
LINE
  8
0
  6
CONTINUOUS
 62
     7
 10
285.2051
 20
137.7057
 11
285.2051
 21
150.2057
  0
LINE
  8
0
  6
CONTINUOUS
 62
     7
 10
302.4551
 20
150.2057
 11
302.4551
 21
152.2057
  0
LINE
  8
0
  6
CONTINUOUS
 62
     7
 10
302.7051
 20
125.9557
 11
302.7051
 21
150.2057
  0
LINE
  8
0
  6
CONTINUOUS
 62
     7
 10
302.7051
 20
137.7057
 11
285.2051
 21
137.7057
  0
LINE
  8
0
  6
CONTINUOUS
 62
     7
 10
287.7051
 20
133.2057
 11
287.7051
 21
135.2057
  0
LINE
  8
0
  6
CONTINUOUS
 62
     7
 10
285.2051
 20
148.2057
 11
302.7051
 21
148.2057
  0
LINE
  8
0
  6
CONTINUOUS
 62
     7
 10
300.2051
 20
133.2057
 11
300.2051
 21
135.2057
  0
LINE
  8
0
  6
CONTINUOUS
 62
     7
 10
285.2053
 20
137.7058
 11
287.7053
 21
135.2058
  0
LINE
  8
0
  6
CONTINUOUS
 62
     7
 10
287.7051
 20
135.2057
 11
300.2051
 21
135.2057
  0
LINE
  8
0
  6
CONTINUOUS
 62
     7
 10
302.7053
 20
137.7056
 11
300.2053
 21
135.2056
  0
LINE
  8
0
  6
CENTER
 62
     2
 10
293.9551
 20
120.7996
 11
293.9551
 21
158.6127
  0
LINE
  8
0
  6
CONTINUOUS
 62
     7
 10
351.9052
 20
137.7056
 11
349.4052
 21
135.2056
  0
LINE
  8
0
  6
CONTINUOUS
 62
     7
 10
334.4052
 20
150.2057
 11
351.9052
 21
150.2057
  0
LINE
  8
0
  6
CONTINUOUS
 62
     7
 10
334.7552
 20
155.2057
 11
351.5551
 21
155.2057
  0
LINE
  8
0
  6
CONTINUOUS
 62
     7
 10
334.7552
 20
153.0057
 11
334.7552
 21
155.2057
  0
LINE
  8
0
  6
CONTINUOUS
 62
     7
 10
351.5551
 20
153.0057
 11
351.5551
 21
155.2057
  0
LINE
  8
0
  6
CONTINUOUS
 62
     7
 10
334.7552
 20
153.0057
 11
351.5551
 21
153.0057
  0
LINE
  8
0
  6
CONTINUOUS
 62
     7
 10
349.1552
 20
152.2057
 11
349.1552
 21
153.0057
  0
LINE
  8
0
  6
CONTINUOUS
 62
     7
 10
337.1552
 20
152.2057
 11
337.1552
 21
153.0057
  0
LINE
  8
0
  6
CONTINUOUS
 62
     7
 10
334.6552
 20
152.2057
 11
351.6552
 21
152.2057
  0
LINE
  8
0
  6
CONTINUOUS
 62
     7
 10
334.6552
 20
150.2057
 11
334.6552
 21
152.2057
  0
LINE
  8
0
  6
CONTINUOUS
 62
     7
 10
334.4052
 20
137.7057
 11
334.4052
 21
150.2057
  0
LINE
  8
0
  6
CONTINUOUS
 62
     7
 10
351.6552
 20
150.2057
 11
351.6552
 21
152.2057
  0
LINE
  8
0
  6
CONTINUOUS
 62
     7
 10
351.9052
 20
137.7057
 11
351.9052
 21
150.2057
  0
LINE
  8
0
  6
CONTINUOUS
 62
     7
 10
342.4052
 20
137.7057
 11
334.4052
 21
137.7057
  0
LINE
  8
0
  6
CONTINUOUS
 62
     7
 10
334.4052
 20
148.2057
 11
351.9052
 21
148.2057
  0
LINE
  8
0
  6
CONTINUOUS
 62
     7
 10
342.4052
 20
123.9557
 11
342.4052
 21
127.0152
  0
LINE
  8
0
  6
CONTINUOUS
 62
     7
 10
343.9052
 20
123.9557
 11
343.9052
 21
127.0152
  0
LINE
  8
0
  6
CONTINUOUS
 62
     7
 10
343.9052
 20
137.7057
 11
351.9052
 21
137.7057
  0
LINE
  8
0
  6
CONTINUOUS
 62
     7
 10
334.4053
 20
137.7058
 11
336.9053
 21
135.2058
  0
LINE
  8
0
  6
CONTINUOUS
 62
     7
 10
336.9052
 20
135.2057
 11
339.9438
 21
135.2057
  0
LINE
  8
0
  6
CONTINUOUS
 62
     7
 10
349.4052
 20
135.2057
 11
346.3665
 21
135.2057
  0
LINE
  8
0
  6
CONTINUOUS
 62
     7
 10
284.1552
 20
136.4557
 11
286.4552
 21
136.4557
  0
LINE
  8
0
  6
CONTINUOUS
 62
     7
 10
284.1552
 20
126.9557
 11
302.7051
 21
126.9557
  0
LINE
  8
0
  6
CONTINUOUS
 62
     7
 10
289.2051
 20
131.7057
 11
298.7051
 21
131.7057
  0
LINE
  8
0
  6
CONTINUOUS
 62
     7
 10
301.4552
 20
136.4557
 11
302.7051
 21
136.4557
  0
LINE
  8
0
  6
CONTINUOUS
 62
     7
 10
33.96838
 20
-171.7057
 11
39.71838
 21
-171.7057
  0
LINE
  8
0
  6
CONTINUOUS
 62
     7
 10
34.31838
 20
-166.7057
 11
39.71838
 21
-166.7057
  0
LINE
  8
0
  6
CONTINUOUS
 62
     7
 10
34.31838
 20
-168.9057
 11
34.31838
 21
-166.7057
  0
LINE
  8
0
  6
CONTINUOUS
 62
     7
 10
51.11838
 20
-168.9057
 11
51.11838
 21
-166.7057
  0
LINE
  8
0
  6
CONTINUOUS
 62
     7
 10
34.31838
 20
-168.9057
 11
39.71838
 21
-168.9057
  0
LINE
  8
0
  6
CONTINUOUS
 62
     7
 10
48.71838
 20
-169.7057
 11
48.71838
 21
-168.9057
  0
LINE
  8
0
  6
CONTINUOUS
 62
     7
 10
36.71838
 20
-169.7057
 11
36.71838
 21
-168.9057
  0
LINE
  8
0
  6
CONTINUOUS
 62
     7
 10
34.21838
 20
-169.7057
 11
39.71838
 21
-169.7057
  0
LINE
  8
0
  6
CONTINUOUS
 62
     7
 10
34.21838
 20
-171.7057
 11
34.21838
 21
-169.7057
  0
LINE
  8
0
  6
CONTINUOUS
 62
     7
 10
33.96838
 20
-185.6263
 11
33.96838
 21
-171.7057
  0
LINE
  8
0
  6
CONTINUOUS
 62
     7
 10
51.21838
 20
-171.7057
 11
51.21838
 21
-169.7057
  0
LINE
  8
0
  6
CONTINUOUS
 62
     7
 10
51.46838
 20
-185.6262
 11
51.46838
 21
-171.7057
  0
LINE
  8
0
  6
CONTINUOUS
 62
     7
 10
45.71838
 20
-171.7057
 11
51.46838
 21
-171.7057
  0
LINE
  8
0
  6
CONTINUOUS
 62
     7
 10
45.71838
 20
-169.7057
 11
51.21838
 21
-169.7057
  0
LINE
  8
0
  6
CONTINUOUS
 62
     7
 10
45.71838
 20
-168.9057
 11
51.11838
 21
-168.9057
  0
LINE
  8
0
  6
CONTINUOUS
 62
     7
 10
45.71838
 20
-166.7057
 11
51.11838
 21
-166.7057
  0
LINE
  8
0
  6
CONTINUOUS
 62
     7
 10
343.9052
 20
136.3961
 11
343.9052
 21
137.7057
  0
LINE
  8
0
  6
CONTINUOUS
 62
     7
 10
342.4052
 20
136.3961
 11
342.4052
 21
137.7057
  0
LINE
  8
0
  6
CONTINUOUS
 62
     7
 10
336.9052
 20
135.2057
 11
336.9052
 21
133.2057
  0
LINE
  8
0
  6
CONTINUOUS
 62
     7
 10
349.4052
 20
135.2057
 11
349.4052
 21
133.2057
  0
LINE
  8
0
  6
CENTER
 62
     2
 10
112.5184
 20
-117.1249
 11
112.5184
 21
-138.1116
  0
LINE
  8
0
  6
CONTINUOUS
 62
     7
 10
101.1194
 20
-131.4557
 11
104.6127
 21
-131.4557
  0
LINE
  8
0
  6
CONTINUOUS
 62
     7
 10
101.1194
 20
-123.9557
 11
104.6127
 21
-123.9557
  0
LINE
  8
0
  6
CONTINUOUS
 62
     7
 10
101.8878
 20
-126.9557
 11
103.8006
 21
-126.9557
  0
LINE
  8
0
  6
CONTINUOUS
 62
     7
 10
101.8878
 20
-128.4557
 11
103.8006
 21
-128.4557
  0
LINE
  8
0
  6
CONTINUOUS
 62
     7
 10
121.2684
 20
-123.9557
 11
121.2684
 21
-131.4557
  0
LINE
  8
0
  6
CONTINUOUS
 62
     7
 10
121.2684
 20
-123.9557
 11
120.4241
 21
-123.9557
  0
LINE
  8
0
  6
CONTINUOUS
 62
     7
 10
121.2684
 20
-131.4557
 11
120.4241
 21
-131.4557
  0
LINE
  8
0
  6
CENTER
 62
     2
 10
152.7184
 20
-158.6124
 11
152.7184
 21
-211.3389
  0
LINE
  8
0
  6
CONTINUOUS
 62
     7
 10
146.3274
 20
-208.7057
 11
159.1094
 21
-208.7057
  0
LINE
  8
0
  6
CONTINUOUS
 62
     7
 10
144.2112
 20
-197.2057
 11
161.2256
 21
-197.2057
  0
LINE
  8
0
  6
CONTINUOUS
 62
     7
 10
148.2184
 20
-161.2057
 11
157.2184
 21
-161.2057
  0
LINE
  8
0
  6
CONTINUOUS
 62
     7
 10
148.2184
 20
-166.2057
 11
157.2184
 21
-166.2057
  0
LINE
  8
0
  6
CONTINUOUS
 62
     7
 10
161.9184
 20
-186.4057
 11
161.9184
 21
-196.0057
  0
LINE
  8
0
  6
CONTINUOUS
 62
     7
 10
143.5184
 20
-186.4057
 11
143.5184
 21
-196.0057
  0
LINE
  8
0
  6
CONTINUOUS
 62
     7
 10
147.7184
 20
-161.7057
 11
147.7184
 21
-165.7057
  0
LINE
  8
0
  6
CONTINUOUS
 62
     7
 10
157.7184
 20
-161.7057
 11
157.7184
 21
-165.7057
  0
LINE
  8
0
  6
CONTINUOUS
 62
     7
 10
157.7184
 20
-161.7057
 11
157.2184
 21
-161.2057
  0
LINE
  8
0
  6
CONTINUOUS
 62
     7
 10
148.2184
 20
-161.2057
 11
147.7184
 21
-161.7057
  0
LINE
  8
0
  6
CONTINUOUS
 62
     7
 10
147.7184
 20
-165.7056
 11
148.2184
 21
-166.2056
  0
LINE
  8
0
  6
CONTINUOUS
 62
     7
 10
157.2184
 20
-166.2056
 11
157.7184
 21
-165.7056
  0
LINE
  8
0
  6
CONTINUOUS
 62
     7
 10
147.7184
 20
-161.7057
 11
157.7184
 21
-161.7057
  0
LINE
  8
0
  6
CONTINUOUS
 62
     7
 10
147.7184
 20
-165.7057
 11
157.7184
 21
-165.7057
  0
LINE
  8
0
  6
CONTINUOUS
 62
     7
 10
148.7184
 20
-161.7057
 11
148.7184
 21
-165.7057
  0
LINE
  8
0
  6
CONTINUOUS
 62
     7
 10
149.7184
 20
-161.7057
 11
149.7184
 21
-165.7057
  0
LINE
  8
0
  6
CONTINUOUS
 62
     7
 10
150.7184
 20
-161.7057
 11
150.7184
 21
-165.7057
  0
LINE
  8
0
  6
CONTINUOUS
 62
     7
 10
151.7184
 20
-161.7057
 11
151.7184
 21
-165.7057
  0
LINE
  8
0
  6
CONTINUOUS
 62
     7
 10
155.7184
 20
-166.2057
 11
155.7184
 21
-166.7057
  0
LINE
  8
0
  6
CONTINUOUS
 62
     7
 10
149.7184
 20
-166.2057
 11
149.7184
 21
-166.7057
  0
LINE
  8
0
  6
CONTINUOUS
 62
     7
 10
155.2039
 20
-166.2057
 11
155.2039
 21
-166.7057
  0
LINE
  8
0
  6
CONTINUOUS
 62
     7
 10
150.2329
 20
-166.2057
 11
150.2329
 21
-166.7057
  0
LINE
  8
0
  6
CONTINUOUS
 62
     7
 10
143.5184
 20
-186.4057
 11
144.1555
 21
-186.4057
  0
LINE
  8
0
  6
CONTINUOUS
 62
     7
 10
143.5184
 20
-196.0057
 11
151.9684
 21
-196.0057
  0
LINE
  8
0
  6
CONTINUOUS
 62
     7
 10
161.9183
 20
-186.4057
 11
161.4684
 21
-185.6263
  0
LINE
  8
0
  6
CONTINUOUS
 62
     7
 10
143.5184
 20
-196.0056
 11
144.2112
 21
-197.2056
  0
LINE
  8
0
  6
CONTINUOUS
 62
     7
 10
143.5183
 20
-186.4056
 11
143.9684
 21
-185.6261
  0
LINE
  8
0
  6
CONTINUOUS
 62
     7
 10
161.9183
 20
-196.0056
 11
161.2255
 21
-197.2056
  0
LINE
  8
0
  6
CONTINUOUS
 62
     7
 10
159.4688
 20
-197.2057
 11
159.1094
 21
-208.7057
  0
LINE
  8
0
  6
CONTINUOUS
 62
     7
 10
158.6128
 20
-197.2056
 11
158.2534
 21
-208.7056
  0
LINE
  8
0
  6
CONTINUOUS
 62
     7
 10
146.8239
 20
-197.2056
 11
147.1833
 21
-208.7056
  0
LINE
  8
0
  6
CONTINUOUS
 62
     7
 10
145.968
 20
-197.2056
 11
146.3274
 21
-208.7056
  0
LINE
  8
0
  6
CENTER
 62
     2
 10
92.71838
 20
-158.4377
 11
92.71838
 21
-211.3389
  0
LINE
  8
0
  6
CONTINUOUS
 62
     7
 10
86.32738
 20
-208.7057
 11
99.10938
 21
-208.7057
  0
LINE
  8
0
  6
CONTINUOUS
 62
     7
 10
84.2112
 20
-197.2057
 11
119.7684
 21
-197.2057
  0
LINE
  8
0
  6
CONTINUOUS
 62
     7
 10
85.71839
 20
-179.2057
 11
99.71838
 21
-179.2057
  0
LINE
  8
0
  6
CONTINUOUS
 62
     7
 10
86.71838
 20
-177.2057
 11
98.71838
 21
-177.2057
  0
LINE
  8
0
  6
CONTINUOUS
 62
     7
 10
86.71838
 20
-173.7057
 11
98.71838
 21
-173.7057
  0
LINE
  8
0
  6
CONTINUOUS
 62
     7
 10
88.21838
 20
-161.2057
 11
97.21838
 21
-161.2057
  0
LINE
  8
0
  6
CONTINUOUS
 62
     7
 10
88.21838
 20
-166.2057
 11
97.21838
 21
-166.2057
  0
LINE
  8
0
  6
CONTINUOUS
 62
     7
 10
83.51839
 20
-186.4057
 11
83.51839
 21
-196.0057
  0
LINE
  8
0
  6
CONTINUOUS
 62
     7
 10
100.8013
 20
-179.8309
 11
100.8013
 21
-185.2057
  0
LINE
  8
0
  6
CONTINUOUS
 62
     7
 10
84.63548
 20
-179.8309
 11
84.63548
 21
-185.2057
  0
LINE
  8
0
  6
CONTINUOUS
 62
     7
 10
88.67693
 20
-179.8309
 11
88.67693
 21
-185.2057
  0
LINE
  8
0
  6
CONTINUOUS
 62
     7
 10
96.75983
 20
-179.8309
 11
96.75983
 21
-185.2057
  0
LINE
  8
0
  6
CONTINUOUS
 62
     7
 10
99.71838
 20
-179.2056
 11
100.8013
 21
-179.8309
  0
LINE
  8
0
  6
CONTINUOUS
 62
     7
 10
97.21838
 20
-177.2057
 11
97.21838
 21
-179.2057
  0
LINE
  8
0
  6
CONTINUOUS
 62
     7
 10
88.21838
 20
-177.2057
 11
88.21838
 21
-179.2057
  0
LINE
  8
0
  6
CONTINUOUS
 62
     7
 10
99.21838
 20
-174.2057
 11
99.21838
 21
-176.7057
  0
LINE
  8
0
  6
CONTINUOUS
 62
     7
 10
86.21838
 20
-174.2057
 11
86.21838
 21
-176.7057
  0
LINE
  8
0
  6
CONTINUOUS
 62
     7
 10
87.71838
 20
-161.7057
 11
87.71838
 21
-165.7057
  0
LINE
  8
0
  6
CONTINUOUS
 62
     7
 10
97.71838
 20
-161.7057
 11
97.71838
 21
-165.7057
  0
LINE
  8
0
  6
CONTINUOUS
 62
     7
 10
99.21836
 20
-174.2056
 11
98.71836
 21
-173.7056
  0
LINE
  8
0
  6
CONTINUOUS
 62
     7
 10
86.71837
 20
-173.7056
 11
86.21837
 21
-174.2056
  0
LINE
  8
0
  6
CONTINUOUS
 62
     7
 10
86.21838
 20
-176.7056
 11
86.71838
 21
-177.2056
  0
LINE
  8
0
  6
CONTINUOUS
 62
     7
 10
98.71838
 20
-177.2057
 11
99.21838
 21
-176.7057
  0
LINE
  8
0
  6
CONTINUOUS
 62
     7
 10
97.7184
 20
-161.7057
 11
97.2184
 21
-161.2057
  0
LINE
  8
0
  6
CONTINUOUS
 62
     7
 10
88.21837
 20
-161.2056
 11
87.71837
 21
-161.7056
  0
LINE
  8
0
  6
CONTINUOUS
 62
     7
 10
87.71838
 20
-165.7057
 11
88.21838
 21
-166.2057
  0
LINE
  8
0
  6
CONTINUOUS
 62
     7
 10
97.21837
 20
-166.2056
 11
97.71837
 21
-165.7056
  0
LINE
  8
0
  6
CONTINUOUS
 62
     7
 10
87.71838
 20
-161.7057
 11
97.71838
 21
-161.7057
  0
LINE
  8
0
  6
CONTINUOUS
 62
     7
 10
87.71838
 20
-165.7057
 11
97.71838
 21
-165.7057
  0
LINE
  8
0
  6
CONTINUOUS
 62
     7
 10
86.21838
 20
-174.2057
 11
99.21838
 21
-174.2057
  0
LINE
  8
0
  6
CONTINUOUS
 62
     7
 10
86.21838
 20
-176.7057
 11
99.21838
 21
-176.7057
  0
LINE
  8
0
  6
CONTINUOUS
 62
     7
 10
88.71838
 20
-161.7057
 11
88.71838
 21
-165.7057
  0
LINE
  8
0
  6
CONTINUOUS
 62
     7
 10
89.71838
 20
-161.7057
 11
89.71838
 21
-165.7057
  0
LINE
  8
0
  6
CONTINUOUS
 62
     7
 10
90.71838
 20
-161.7057
 11
90.71838
 21
-165.7057
  0
LINE
  8
0
  6
CONTINUOUS
 62
     7
 10
91.71838
 20
-161.7057
 11
91.71838
 21
-165.7057
  0
LINE
  8
0
  6
CONTINUOUS
 62
     7
 10
87.21838
 20
-174.2057
 11
87.21838
 21
-176.7057
  0
LINE
  8
0
  6
CONTINUOUS
 62
     7
 10
88.21838
 20
-174.2057
 11
88.21838
 21
-176.7057
  0
LINE
  8
0
  6
CONTINUOUS
 62
     7
 10
89.21838
 20
-174.2057
 11
89.21838
 21
-176.7057
  0
LINE
  8
0
  6
CONTINUOUS
 62
     7
 10
90.21838
 20
-174.2057
 11
90.21838
 21
-176.7057
  0
LINE
  8
0
  6
CONTINUOUS
 62
     7
 10
91.21838
 20
-174.2057
 11
91.21838
 21
-176.7057
  0
LINE
  8
0
  6
CONTINUOUS
 62
     7
 10
92.21838
 20
-174.2057
 11
92.21838
 21
-176.7057
  0
LINE
  8
0
  6
CONTINUOUS
 62
     7
 10
95.71838
 20
-166.2057
 11
95.71838
 21
-173.7057
  0
LINE
  8
0
  6
CONTINUOUS
 62
     7
 10
89.71838
 20
-166.2057
 11
89.71838
 21
-173.7057
  0
LINE
  8
0
  6
CONTINUOUS
 62
     7
 10
95.20388
 20
-166.2057
 11
95.20388
 21
-173.7057
  0
LINE
  8
0
  6
CONTINUOUS
 62
     7
 10
90.23289
 20
-166.2057
 11
90.23289
 21
-173.7057
  0
LINE
  8
0
  6
CONTINUOUS
 62
     7
 10
85.71838
 20
-179.2057
 11
84.63548
 21
-179.8309
  0
LINE
  8
0
  6
CONTINUOUS
 62
     7
 10
83.51839
 20
-186.4057
 11
101.9184
 21
-186.4057
  0
LINE
  8
0
  6
CONTINUOUS
 62
     7
 10
83.51839
 20
-196.0057
 11
101.9184
 21
-196.0057
  0
LINE
  8
0
  6
CONTINUOUS
 62
     7
 10
83.51838
 20
-196.0056
 11
84.2112
 21
-197.2056
  0
LINE
  8
0
  6
CONTINUOUS
 62
     7
 10
83.51836
 20
-186.4056
 11
84.21119
 21
-185.2056
  0
LINE
  8
0
  6
CONTINUOUS
 62
     7
 10
101.9184
 20
-196.0056
 11
101.2255
 21
-197.2056
  0
LINE
  8
0
  6
CONTINUOUS
 62
     7
 10
99.46876
 20
-197.2057
 11
99.10938
 21
-208.7057
  0
LINE
  8
0
  6
CONTINUOUS
 62
     7
 10
98.61276
 20
-197.2056
 11
98.25339
 21
-208.7056
  0
LINE
  8
0
  6
CONTINUOUS
 62
     7
 10
86.82397
 20
-197.2056
 11
87.18335
 21
-208.7056
  0
LINE
  8
0
  6
CONTINUOUS
 62
     7
 10
85.96801
 20
-197.2057
 11
86.32738
 21
-208.7057
  0
LINE
  8
0
  6
CENTER
 62
     2
 10
80.91978
 20
-191.2057
 11
124.424
 21
-191.2057
  0
LINE
  8
0
  6
CONTINUOUS
 62
     7
 10
101.9184
 20
-194.9557
 11
101.9184
 21
-196.0057
  0
LINE
  8
0
  6
CONTINUOUS
 62
     7
 10
161.2812
 20
-186.4057
 11
161.9184
 21
-186.4057
  0
LINE
  8
0
  6
CENTER
 62
     2
 10
140.7184
 20
-191.2057
 11
164.7184
 21
-191.2057
  0
LINE
  8
0
  6
CONTINUOUS
 62
     7
 10
84.21121
 20
-185.2057
 11
103.7684
 21
-185.2057
  0
LINE
  8
0
  6
CONTINUOUS
 62
     7
 10
103.7684
 20
-171.7057
 11
121.2684
 21
-171.7057
  0
LINE
  8
0
  6
CONTINUOUS
 62
     7
 10
104.1184
 20
-166.7057
 11
120.9184
 21
-166.7057
  0
LINE
  8
0
  6
CONTINUOUS
 62
     7
 10
104.1184
 20
-168.9057
 11
104.1184
 21
-166.7057
  0
LINE
  8
0
  6
CONTINUOUS
 62
     7
 10
120.9184
 20
-168.9057
 11
120.9184
 21
-166.7057
  0
LINE
  8
0
  6
CONTINUOUS
 62
     7
 10
104.1184
 20
-168.9057
 11
120.9184
 21
-168.9057
  0
LINE
  8
0
  6
CONTINUOUS
 62
     7
 10
118.5184
 20
-169.7057
 11
118.5184
 21
-168.9057
  0
LINE
  8
0
  6
CONTINUOUS
 62
     7
 10
106.5184
 20
-169.7057
 11
106.5184
 21
-168.9057
  0
LINE
  8
0
  6
CONTINUOUS
 62
     7
 10
104.0184
 20
-169.7057
 11
121.0184
 21
-169.7057
  0
LINE
  8
0
  6
CONTINUOUS
 62
     7
 10
104.0184
 20
-171.7057
 11
104.0184
 21
-169.7057
  0
LINE
  8
0
  6
CONTINUOUS
 62
     7
 10
103.7684
 20
-186.2057
 11
103.7684
 21
-171.7057
  0
LINE
  8
0
  6
CONTINUOUS
 62
     7
 10
121.0184
 20
-171.7057
 11
121.0184
 21
-169.7057
  0
LINE
  8
0
  6
CONTINUOUS
 62
     7
 10
121.2684
 20
-195.7057
 11
121.2684
 21
-171.7057
  0
LINE
  8
0
  6
CONTINUOUS
 62
     7
 10
121.2684
 20
-186.2057
 11
103.7684
 21
-186.2057
  0
LINE
  8
0
  6
CONTINUOUS
 62
     7
 10
106.2684
 20
-189.7057
 11
106.2684
 21
-188.7057
  0
LINE
  8
0
  6
CONTINUOUS
 62
     7
 10
103.7684
 20
-173.7057
 11
121.2684
 21
-173.7057
  0
LINE
  8
0
  6
CONTINUOUS
 62
     7
 10
118.7684
 20
-189.7057
 11
118.7684
 21
-188.7057
  0
LINE
  8
0
  6
CONTINUOUS
 62
     7
 10
103.7684
 20
-186.2057
 11
106.2684
 21
-188.7057
  0
LINE
  8
0
  6
CONTINUOUS
 62
     7
 10
106.2684
 20
-188.7057
 11
118.7684
 21
-188.7057
  0
LINE
  8
0
  6
CONTINUOUS
 62
     7
 10
121.2684
 20
-186.2057
 11
118.7684
 21
-188.7057
  0
LINE
  8
0
  6
CENTER
 62
     2
 10
112.5184
 20
-200.6117
 11
112.5184
 21
-162.7986
  0
LINE
  8
0
  6
CONTINUOUS
 62
     7
 10
161.4684
 20
-186.2057
 11
158.9684
 21
-188.7057
  0
LINE
  8
0
  6
CONTINUOUS
 62
     7
 10
143.9684
 20
-171.7057
 11
161.4684
 21
-171.7057
  0
LINE
  8
0
  6
CONTINUOUS
 62
     7
 10
144.3184
 20
-166.7057
 11
161.1184
 21
-166.7057
  0
LINE
  8
0
  6
CONTINUOUS
 62
     7
 10
144.3184
 20
-168.9057
 11
144.3184
 21
-166.7057
  0
LINE
  8
0
  6
CONTINUOUS
 62
     7
 10
161.1184
 20
-168.9057
 11
161.1184
 21
-166.7057
  0
LINE
  8
0
  6
CONTINUOUS
 62
     7
 10
144.3184
 20
-168.9057
 11
161.1184
 21
-168.9057
  0
LINE
  8
0
  6
CONTINUOUS
 62
     7
 10
158.7184
 20
-169.7057
 11
158.7184
 21
-168.9057
  0
LINE
  8
0
  6
CONTINUOUS
 62
     7
 10
146.7184
 20
-169.7057
 11
146.7184
 21
-168.9057
  0
LINE
  8
0
  6
CONTINUOUS
 62
     7
 10
144.2184
 20
-169.7057
 11
161.2184
 21
-169.7057
  0
LINE
  8
0
  6
CONTINUOUS
 62
     7
 10
144.2184
 20
-171.7057
 11
144.2184
 21
-169.7057
  0
LINE
  8
0
  6
CONTINUOUS
 62
     7
 10
143.9684
 20
-186.2056
 11
143.9684
 21
-171.7057
  0
LINE
  8
0
  6
CONTINUOUS
 62
     7
 10
161.2184
 20
-171.7057
 11
161.2184
 21
-169.7057
  0
LINE
  8
0
  6
CONTINUOUS
 62
     7
 10
161.4684
 20
-186.2057
 11
161.4684
 21
-171.7057
  0
LINE
  8
0
  6
CONTINUOUS
 62
     7
 10
151.9684
 20
-186.2057
 11
143.9684
 21
-186.2057
  0
LINE
  8
0
  6
CONTINUOUS
 62
     7
 10
143.9684
 20
-173.7057
 11
161.4684
 21
-173.7057
  0
LINE
  8
0
  6
CONTINUOUS
 62
     7
 10
151.9684
 20
-197.2057
 11
151.9684
 21
-194.8799
  0
LINE
  8
0
  6
CONTINUOUS
 62
     7
 10
153.4684
 20
-197.2057
 11
153.4684
 21
-194.8799
  0
LINE
  8
0
  6
CONTINUOUS
 62
     7
 10
153.4684
 20
-186.2057
 11
161.4684
 21
-186.2057
  0
LINE
  8
0
  6
CONTINUOUS
 62
     7
 10
143.9684
 20
-186.2057
 11
146.4684
 21
-188.7057
  0
LINE
  8
0
  6
CONTINUOUS
 62
     7
 10
146.4684
 20
-188.7057
 11
149.9233
 21
-188.7057
  0
LINE
  8
0
  6
CONTINUOUS
 62
     7
 10
158.9684
 20
-188.7057
 11
155.5135
 21
-188.7057
  0
LINE
  8
0
  6
CONTINUOUS
 62
     7
 10
101.9184
 20
-186.4057
 11
101.2256
 21
-185.2057
  0
LINE
  8
0
  6
CONTINUOUS
 62
     7
 10
101.9184
 20
-187.4557
 11
101.9184
 21
-186.4057
  0
LINE
  8
0
  6
CONTINUOUS
 62
     7
 10
101.9184
 20
-187.4557
 11
105.0184
 21
-187.4557
  0
LINE
  8
0
  6
CONTINUOUS
 62
     7
 10
101.9184
 20
-194.9557
 11
121.2684
 21
-194.9557
  0
LINE
  8
0
  6
CONTINUOUS
 62
     7
 10
107.7684
 20
-191.2057
 11
117.2684
 21
-191.2057
  0
LINE
  8
0
  6
CONTINUOUS
 62
     7
 10
120.0184
 20
-187.4557
 11
121.2684
 21
-187.4557
  0
LINE
  8
0
  6
CONTINUOUS
 62
     7
 10
153.4684
 20
-187.5314
 11
153.4684
 21
-186.2057
  0
LINE
  8
0
  6
CONTINUOUS
 62
     7
 10
151.9684
 20
-187.5314
 11
151.9684
 21
-186.2057
  0
LINE
  8
0
  6
CONTINUOUS
 62
     7
 10
147.9684
 20
-191.2057
 11
148.9684
 21
-191.2057
  0
LINE
  8
0
  6
CONTINUOUS
 62
     7
 10
157.4684
 20
-191.2057
 11
156.4684
 21
-191.2057
  0
LINE
  8
0
  6
CONTINUOUS
 62
     7
 10
146.4684
 20
-188.7057
 11
146.4684
 21
-189.7057
  0
LINE
  8
0
  6
CONTINUOUS
 62
     7
 10
158.9684
 20
-188.7057
 11
158.9684
 21
-189.7057
  0
LINE
  8
0
  6
CONTINUOUS
 62
     7
 10
153.4684
 20
-196.0057
 11
161.9184
 21
-196.0057
  0
LINE
  8
0
  6
CONTINUOUS
 62
     7
 10
284.1552
 20
135.9557
 11
284.1552
 21
137.9557
  0
LINE
  8
0
  6
CONTINUOUS
 62
     7
 10
351.9052
 20
144.4557
 11
352.6552
 21
144.4557
  0
LINE
  8
0
  6
CONTINUOUS
 62
     7
 10
214.4052
 20
150.2057
 11
215.1552
 21
150.2057
  0
LINE
  8
0
  6
CONTINUOUS
 62
     7
 10
214.7552
 20
155.2057
 11
218.1552
 21
155.2057
  0
LINE
  8
0
  6
CONTINUOUS
 62
     7
 10
214.7552
 20
153.0057
 11
214.7552
 21
155.2057
  0
LINE
  8
0
  6
CONTINUOUS
 62
     7
 10
231.5551
 20
153.0057
 11
231.5551
 21
155.2057
  0
LINE
  8
0
  6
CONTINUOUS
 62
     7
 10
214.7552
 20
153.0057
 11
218.1552
 21
153.0057
  0
LINE
  8
0
  6
CONTINUOUS
 62
     7
 10
229.1552
 20
152.2057
 11
229.1552
 21
153.0057
  0
LINE
  8
0
  6
CONTINUOUS
 62
     7
 10
217.1552
 20
152.2057
 11
217.1552
 21
153.0057
  0
LINE
  8
0
  6
CONTINUOUS
 62
     7
 10
214.6552
 20
152.2057
 11
218.1552
 21
152.2057
  0
LINE
  8
0
  6
CONTINUOUS
 62
     7
 10
214.6552
 20
150.2057
 11
214.6552
 21
152.2057
  0
LINE
  8
0
  6
CONTINUOUS
 62
     7
 10
214.4052
 20
144.4557
 11
214.4052
 21
150.2057
  0
LINE
  8
0
  6
CONTINUOUS
 62
     7
 10
231.6552
 20
150.2057
 11
231.6552
 21
152.2057
  0
LINE
  8
0
  6
CONTINUOUS
 62
     7
 10
231.9052
 20
144.4557
 11
231.9052
 21
150.2057
  0
LINE
  8
0
  6
CONTINUOUS
 62
     7
 10
214.4052
 20
148.2057
 11
215.1552
 21
148.2057
  0
LINE
  8
0
  6
CONTINUOUS
 62
     7
 10
231.1552
 20
148.2057
 11
231.9052
 21
148.2057
  0
LINE
  8
0
  6
CONTINUOUS
 62
     7
 10
231.1552
 20
150.2057
 11
231.9052
 21
150.2057
  0
LINE
  8
0
  6
CONTINUOUS
 62
     7
 10
228.1552
 20
155.2057
 11
231.5551
 21
155.2057
  0
LINE
  8
0
  6
CONTINUOUS
 62
     7
 10
228.1552
 20
153.0057
 11
231.5551
 21
153.0057
  0
LINE
  8
0
  6
CONTINUOUS
 62
     7
 10
228.1552
 20
152.2057
 11
231.6552
 21
152.2057
  0
LINE
  8
0
  6
CENTER
 62
     2
 10
293.9551
 20
198.0135
 11
293.9551
 21
176.0272
  0
LINE
  8
0
  6
CONTINUOUS
 62
     7
 10
284.1295
 20
185.9557
 11
285.2373
 21
185.9557
  0
LINE
  8
0
  6
CONTINUOUS
 62
     7
 10
284.1295
 20
187.4557
 11
285.2373
 21
187.4557
  0
LINE
  8
0
  6
CONTINUOUS
 62
     7
 10
283.0767
 20
181.9557
 11
286.6067
 21
181.9557
  0
LINE
  8
0
  6
CONTINUOUS
 62
     7
 10
283.0767
 20
191.4557
 11
286.6067
 21
191.4557
  0
LINE
  8
0
  6
CONTINUOUS
 62
     7
 10
302.7051
 20
191.4557
 11
302.7051
 21
181.9557
  0
LINE
  8
0
  6
CONTINUOUS
 62
     7
 10
302.7051
 20
191.4557
 11
301.3036
 21
191.4557
  0
LINE
  8
0
  6
CONTINUOUS
 62
     7
 10
302.7051
 20
181.9557
 11
301.3036
 21
181.9557
  0
LINE
  8
0
  6
CONTINUOUS
 62
     7
 10
215.0273
 20
-49.5
 11
231.283
 21
-49.5
  0
LINE
  8
0
  6
CONTINUOUS
 62
     7
 10
213.0212
 20
-20.25
 11
233.2891
 21
-20.25
  0
LINE
  8
0
  6
CONTINUOUS
 62
     7
 10
213.0212
 20
-35.75
 11
233.2891
 21
-35.75
  0
LINE
  8
0
  6
CONTINUOUS
 62
     7
 10
213.6552
 20
-15.25
 11
232.6552
 21
-15.25
  0
LINE
  8
0
  6
CONTINUOUS
 62
     7
 10
215.6552
 20
-12.45
 11
230.6552
 21
-12.45
  0
LINE
  8
0
  6
CONTINUOUS
 62
     7
 10
215.6552
 20
-8.95
 11
230.6552
 21
-8.95
  0
LINE
  8
0
  6
CONTINUOUS
 62
     7
 10
217.1552
 20
4.0
 11
229.1552
 21
4.0
  0
LINE
  8
0
  6
CONTINUOUS
 62
     7
 10
217.1552
 20
-1.0
 11
229.1552
 21
-1.0
  0
LINE
  8
0
  6
CENTER
 62
     2
 10
223.1552
 20
6.66667
 11
223.1552
 21
-52.33333
  0
LINE
  8
0
  6
CONTINUOUS
 62
     7
 10
234.1552
 20
-21.75
 11
234.1552
 21
-34.25
  0
LINE
  8
0
  6
CONTINUOUS
 62
     7
 10
212.1552
 20
-21.75
 11
212.1552
 21
-34.25
  0
LINE
  8
0
  6
CENTER
 62
     2
 10
273.1552
 20
39.48433
 11
273.1552
 21
14.33333
  0
LINE
  8
0
  6
CENTER
 62
     2
 10
260.3218
 20
27.0
 11
310.821
 21
27.0
  0
LINE
  8
0
  6
CONTINUOUS
 62
     7
 10
267.2007
 20
18.31351
 11
262.6552
 21
26.18659
  0
LINE
  8
0
  6
CONTINUOUS
 62
     7
 10
283.6553
 20
27.81352
 11
279.1098
 21
35.68658
  0
LINE
  8
0
  6
CONTINUOUS
 62
     7
 10
268.6096
 20
17.5
 11
277.7007
 21
17.5
  0
LINE
  8
0
  6
CONTINUOUS
 62
     7
 10
268.6096
 20
36.5
 11
277.7007
 21
36.5
  0
LINE
  8
0
  6
CONTINUOUS
 62
     7
 10
279.1096
 20
18.31346
 11
283.6552
 21
26.18654
  0
LINE
  8
0
  6
CONTINUOUS
 62
     7
 10
262.6552
 20
27.81347
 11
267.2007
 21
35.68654
  0
LINE
  8
0
  6
CONTINUOUS
 62
     7
 10
267.2007
 20
35.68658
 11
268.6096
 21
36.50006
  0
LINE
  8
0
  6
CONTINUOUS
 62
     7
 10
277.7007
 20
17.50001
 11
279.1096
 21
18.31348
  0
LINE
  8
0
  6
CONTINUOUS
 62
     7
 10
283.6552
 20
27.81347
 11
283.6552
 21
26.18653
  0
LINE
  8
0
  6
CONTINUOUS
 62
     7
 10
262.6552
 20
27.81347
 11
262.6552
 21
26.18654
  0
LINE
  8
0
  6
CONTINUOUS
 62
     7
 10
277.7007
 20
36.50002
 11
279.1096
 21
35.68654
  0
LINE
  8
0
  6
CONTINUOUS
 62
     7
 10
267.2007
 20
18.31348
 11
268.6096
 21
17.50001
  0
LINE
  8
0
  6
CONTINUOUS
 62
     7
 10
230.6552
 20
-12.45
 11
230.6552
 21
-15.25
  0
LINE
  8
0
  6
CONTINUOUS
 62
     7
 10
215.6552
 20
-12.45
 11
215.6552
 21
-15.25
  0
LINE
  8
0
  6
CONTINUOUS
 62
     7
 10
215.1552
 20
-9.45
 11
215.1552
 21
-11.95
  0
LINE
  8
0
  6
CONTINUOUS
 62
     7
 10
231.1552
 20
-9.45
 11
231.1552
 21
-11.95
  0
LINE
  8
0
  6
CONTINUOUS
 62
     7
 10
216.6552
 20
3.5
 11
216.6552
 21
-0.5
  0
LINE
  8
0
  6
CONTINUOUS
 62
     7
 10
229.6552
 20
3.5
 11
229.6552
 21
-0.5
  0
LINE
  8
0
  6
CONTINUOUS
 62
     7
 10
229.6551
 20
3.49993
 11
229.1551
 21
3.99993
  0
LINE
  8
0
  6
CONTINUOUS
 62
     7
 10
217.1551
 20
4.00001
 11
216.6551
 21
3.50001
  0
LINE
  8
0
  6
CONTINUOUS
 62
     7
 10
216.6552
 20
-0.50001
 11
217.1552
 21
-1.00001
  0
LINE
  8
0
  6
CONTINUOUS
 62
     7
 10
229.1551
 20
-0.99999
 11
229.6551
 21
-0.49999
  0
LINE
  8
0
  6
CONTINUOUS
 62
     7
 10
215.6552
 20
-8.95
 11
215.1551
 21
-9.45001
  0
LINE
  8
0
  6
CONTINUOUS
 62
     7
 10
215.1551
 20
-11.95
 11
215.6551
 21
-12.44999
  0
LINE
  8
0
  6
CONTINUOUS
 62
     7
 10
231.1551
 20
-9.44999
 11
230.6551
 21
-8.94999
  0
LINE
  8
0
  6
CONTINUOUS
 62
     7
 10
230.6551
 20
-12.44999
 11
231.1551
 21
-11.94999
  0
LINE
  8
0
  6
CONTINUOUS
 62
     7
 10
215.1552
 20
-9.45
 11
231.1552
 21
-9.45
  0
LINE
  8
0
  6
CONTINUOUS
 62
     7
 10
215.1552
 20
-11.95
 11
231.1552
 21
-11.95
  0
LINE
  8
0
  6
CONTINUOUS
 62
     7
 10
216.6552
 20
3.5
 11
229.6552
 21
3.5
  0
LINE
  8
0
  6
CONTINUOUS
 62
     7
 10
216.6552
 20
-0.5
 11
229.6552
 21
-0.5
  0
LINE
  8
0
  6
CONTINUOUS
 62
     7
 10
217.6552
 20
3.5
 11
217.6552
 21
-0.5
  0
LINE
  8
0
  6
CONTINUOUS
 62
     7
 10
218.6552
 20
3.5
 11
218.6552
 21
-0.5
  0
LINE
  8
0
  6
CONTINUOUS
 62
     7
 10
219.6552
 20
3.5
 11
219.6552
 21
-0.5
  0
LINE
  8
0
  6
CONTINUOUS
 62
     7
 10
220.6552
 20
3.5
 11
220.6552
 21
-0.5
  0
LINE
  8
0
  6
CONTINUOUS
 62
     7
 10
221.6552
 20
3.5
 11
221.6552
 21
-0.5
  0
LINE
  8
0
  6
CONTINUOUS
 62
     7
 10
222.6552
 20
3.5
 11
222.6552
 21
-0.5
  0
LINE
  8
0
  6
CONTINUOUS
 62
     7
 10
216.1552
 20
-9.45
 11
216.1552
 21
-11.95
  0
LINE
  8
0
  6
CONTINUOUS
 62
     7
 10
217.1552
 20
-9.45
 11
217.1552
 21
-11.95
  0
LINE
  8
0
  6
CONTINUOUS
 62
     7
 10
218.1552
 20
-9.45
 11
218.1552
 21
-11.95
  0
LINE
  8
0
  6
CONTINUOUS
 62
     7
 10
219.1552
 20
-9.45
 11
219.1552
 21
-11.95
  0
LINE
  8
0
  6
CONTINUOUS
 62
     7
 10
220.1552
 20
-9.45
 11
220.1552
 21
-11.95
  0
LINE
  8
0
  6
CONTINUOUS
 62
     7
 10
221.1552
 20
-9.45
 11
221.1552
 21
-11.95
  0
LINE
  8
0
  6
CONTINUOUS
 62
     7
 10
222.1552
 20
-9.45
 11
222.1552
 21
-11.95
  0
LINE
  8
0
  6
CONTINUOUS
 62
     7
 10
218.1552
 20
-1.0
 11
218.1552
 21
-8.95
  0
LINE
  8
0
  6
CONTINUOUS
 62
     7
 10
228.1552
 20
-1.0
 11
228.1552
 21
-8.95
  0
LINE
  8
0
  6
CONTINUOUS
 62
     7
 10
218.9671
 20
-1.0
 11
218.9671
 21
-8.95
  0
LINE
  8
0
  6
CONTINUOUS
 62
     7
 10
227.3432
 20
-1.0
 11
227.3432
 21
-8.95
  0
LINE
  8
0
  6
CONTINUOUS
 62
     7
 10
212.1552
 20
-21.75
 11
234.1552
 21
-21.75
  0
LINE
  8
0
  6
CONTINUOUS
 62
     7
 10
212.1552
 20
-34.25
 11
234.1552
 21
-34.25
  0
LINE
  8
0
  6
CONTINUOUS
 62
     7
 10
234.1552
 20
-21.74999
 11
233.2891
 21
-20.24998
  0
LINE
  8
0
  6
CONTINUOUS
 62
     7
 10
212.1551
 20
-34.25002
 11
213.0211
 21
-35.75002
  0
LINE
  8
0
  6
CONTINUOUS
 62
     7
 10
212.1551
 20
-21.75002
 11
213.0212
 21
-20.25001
  0
LINE
  8
0
  6
CONTINUOUS
 62
     7
 10
234.1552
 20
-34.24997
 11
233.2891
 21
-35.74997
  0
LINE
  8
0
  6
CONTINUOUS
 62
     7
 10
231.7127
 20
-35.75
 11
231.2831
 21
-49.5
  0
LINE
  8
0
  6
CONTINUOUS
 62
     7
 10
230.8567
 20
-35.75
 11
230.427
 21
-49.5
  0
LINE
  8
0
  6
CONTINUOUS
 62
     7
 10
215.4536
 20
-35.75
 11
215.8833
 21
-49.5
  0
LINE
  8
0
  6
CONTINUOUS
 62
     7
 10
214.5976
 20
-35.75
 11
215.0273
 21
-49.5
  0
LINE
  8
0
  6
CONTINUOUS
 62
     7
 10
265.0273
 20
-49.5
 11
281.283
 21
-49.5
  0
LINE
  8
0
  6
CONTINUOUS
 62
     7
 10
262.6552
 20
-20.25
 11
284.9551
 21
-20.25
  0
LINE
  8
0
  6
CONTINUOUS
 62
     7
 10
263.0212
 20
-35.75
 11
306.3552
 21
-35.75
  0
LINE
  8
0
  6
CONTINUOUS
 62
     7
 10
263.6552
 20
-15.25
 11
282.6552
 21
-15.25
  0
LINE
  8
0
  6
CONTINUOUS
 62
     7
 10
265.6552
 20
-12.45
 11
280.6552
 21
-12.45
  0
LINE
  8
0
  6
CONTINUOUS
 62
     7
 10
265.6552
 20
-8.95
 11
280.6552
 21
-8.95
  0
LINE
  8
0
  6
CONTINUOUS
 62
     7
 10
267.1552
 20
4.0
 11
279.1552
 21
4.0
  0
LINE
  8
0
  6
CONTINUOUS
 62
     7
 10
267.1552
 20
-1.0
 11
279.1552
 21
-1.0
  0
LINE
  8
0
  6
CENTER
 62
     2
 10
273.1552
 20
6.66667
 11
273.1552
 21
-52.33333
  0
LINE
  8
0
  6
CONTINUOUS
 62
     7
 10
262.1552
 20
-21.75
 11
262.1552
 21
-34.25
  0
LINE
  8
0
  6
CONTINUOUS
 62
     7
 10
283.6552
 20
-15.82735
 11
283.6552
 21
-20.25
  0
LINE
  8
0
  6
CONTINUOUS
 62
     7
 10
279.1096
 20
-15.82735
 11
279.1096
 21
-20.25
  0
LINE
  8
0
  6
CONTINUOUS
 62
     7
 10
277.7007
 20
-15.82735
 11
277.7007
 21
-20.25
  0
LINE
  8
0
  6
CONTINUOUS
 62
     7
 10
268.6096
 20
-15.82735
 11
268.6096
 21
-20.25
  0
LINE
  8
0
  6
CONTINUOUS
 62
     7
 10
267.2007
 20
-15.82735
 11
267.2007
 21
-20.25
  0
LINE
  8
0
  6
CONTINUOUS
 62
     7
 10
262.6552
 20
-15.82735
 11
262.6552
 21
-20.25
  0
LINE
  8
0
  6
CONTINUOUS
 62
     7
 10
282.6551
 20
-15.25007
 11
283.6551
 21
-15.82742
  0
LINE
  8
0
  6
CONTINUOUS
 62
     7
 10
263.6551
 20
-15.25001
 11
262.6552
 21
-15.82736
  0
LINE
  8
0
  6
CONTINUOUS
 62
     7
 10
267.2007
 20
-15.82735
 11
268.6096
 21
-15.82735
  0
LINE
  8
0
  6
CONTINUOUS
 62
     7
 10
277.7007
 20
-15.82735
 11
279.1096
 21
-15.82735
  0
LINE
  8
0
  6
CONTINUOUS
 62
     7
 10
280.6552
 20
-12.45
 11
280.6552
 21
-15.25
  0
LINE
  8
0
  6
CONTINUOUS
 62
     7
 10
265.6552
 20
-12.45
 11
265.6552
 21
-15.25
  0
LINE
  8
0
  6
CONTINUOUS
 62
     7
 10
265.1552
 20
-9.45
 11
265.1552
 21
-11.95
  0
LINE
  8
0
  6
CONTINUOUS
 62
     7
 10
281.1552
 20
-9.45
 11
281.1552
 21
-11.95
  0
LINE
  8
0
  6
CONTINUOUS
 62
     7
 10
266.6552
 20
3.5
 11
266.6552
 21
-0.5
  0
LINE
  8
0
  6
CONTINUOUS
 62
     7
 10
279.6552
 20
3.5
 11
279.6552
 21
-0.5
  0
LINE
  8
0
  6
CONTINUOUS
 62
     7
 10
279.6551
 20
3.49991
 11
279.1551
 21
3.99991
  0
LINE
  8
0
  6
CONTINUOUS
 62
     7
 10
267.1552
 20
4.00003
 11
266.6552
 21
3.50003
  0
LINE
  8
0
  6
CONTINUOUS
 62
     7
 10
266.6551
 20
-0.50003
 11
267.1551
 21
-1.00003
  0
LINE
  8
0
  6
CONTINUOUS
 62
     7
 10
279.1551
 20
-0.99999
 11
279.6551
 21
-0.49998
  0
LINE
  8
0
  6
CONTINUOUS
 62
     7
 10
265.6552
 20
-8.95001
 11
265.1552
 21
-9.45001
  0
LINE
  8
0
  6
CONTINUOUS
 62
     7
 10
265.1551
 20
-11.94999
 11
265.6551
 21
-12.45
  0
LINE
  8
0
  6
CONTINUOUS
 62
     7
 10
281.1551
 20
-9.45
 11
280.6551
 21
-8.95
  0
LINE
  8
0
  6
CONTINUOUS
 62
     7
 10
280.6551
 20
-12.44999
 11
281.1551
 21
-11.94999
  0
LINE
  8
0
  6
CONTINUOUS
 62
     7
 10
265.1552
 20
-9.45
 11
281.1552
 21
-9.45
  0
LINE
  8
0
  6
CONTINUOUS
 62
     7
 10
265.1552
 20
-11.95
 11
281.1552
 21
-11.95
  0
LINE
  8
0
  6
CONTINUOUS
 62
     7
 10
266.6552
 20
3.5
 11
279.6552
 21
3.5
  0
LINE
  8
0
  6
CONTINUOUS
 62
     7
 10
266.6552
 20
-0.5
 11
279.6552
 21
-0.5
  0
LINE
  8
0
  6
CONTINUOUS
 62
     7
 10
267.6552
 20
3.5
 11
267.6552
 21
-0.5
  0
LINE
  8
0
  6
CONTINUOUS
 62
     7
 10
268.6552
 20
3.5
 11
268.6552
 21
-0.5
  0
LINE
  8
0
  6
CONTINUOUS
 62
     7
 10
269.6552
 20
3.5
 11
269.6552
 21
-0.5
  0
LINE
  8
0
  6
CONTINUOUS
 62
     7
 10
270.6552
 20
3.5
 11
270.6552
 21
-0.5
  0
LINE
  8
0
  6
CONTINUOUS
 62
     7
 10
271.6552
 20
3.5
 11
271.6552
 21
-0.5
  0
LINE
  8
0
  6
CONTINUOUS
 62
     7
 10
272.6552
 20
3.5
 11
272.6552
 21
-0.5
  0
LINE
  8
0
  6
CONTINUOUS
 62
     7
 10
266.1552
 20
-9.45
 11
266.1552
 21
-11.95
  0
LINE
  8
0
  6
CONTINUOUS
 62
     7
 10
267.1552
 20
-9.45
 11
267.1552
 21
-11.95
  0
LINE
  8
0
  6
CONTINUOUS
 62
     7
 10
268.1552
 20
-9.45
 11
268.1552
 21
-11.95
  0
LINE
  8
0
  6
CONTINUOUS
 62
     7
 10
269.1552
 20
-9.45
 11
269.1552
 21
-11.95
  0
LINE
  8
0
  6
CONTINUOUS
 62
     7
 10
270.1552
 20
-9.45
 11
270.1552
 21
-11.95
  0
LINE
  8
0
  6
CONTINUOUS
 62
     7
 10
271.1552
 20
-9.45
 11
271.1552
 21
-11.95
  0
LINE
  8
0
  6
CONTINUOUS
 62
     7
 10
272.1552
 20
-9.45
 11
272.1552
 21
-11.95
  0
LINE
  8
0
  6
CONTINUOUS
 62
     7
 10
268.1552
 20
-1.0
 11
268.1552
 21
-8.95
  0
LINE
  8
0
  6
CONTINUOUS
 62
     7
 10
278.1552
 20
-1.0
 11
278.1552
 21
-8.95
  0
LINE
  8
0
  6
CONTINUOUS
 62
     7
 10
268.9672
 20
-1.0
 11
268.9672
 21
-8.95
  0
LINE
  8
0
  6
CONTINUOUS
 62
     7
 10
277.3431
 20
-1.0
 11
277.3431
 21
-8.95
  0
LINE
  8
0
  6
CONTINUOUS
 62
     7
 10
262.1552
 20
-21.75
 11
284.1552
 21
-21.75
  0
LINE
  8
0
  6
CONTINUOUS
 62
     7
 10
262.1552
 20
-34.25
 11
284.1552
 21
-34.25
  0
LINE
  8
0
  6
CONTINUOUS
 62
     7
 10
262.1551
 20
-34.25002
 11
263.0211
 21
-35.75
  0
LINE
  8
0
  6
CONTINUOUS
 62
     7
 10
262.1551
 20
-21.74997
 11
263.0211
 21
-20.24997
  0
LINE
  8
0
  6
CONTINUOUS
 62
     7
 10
284.1551
 20
-34.24997
 11
283.2891
 21
-35.74997
  0
LINE
  8
0
  6
CONTINUOUS
 62
     7
 10
281.7127
 20
-35.75
 11
281.283
 21
-49.5
  0
LINE
  8
0
  6
CONTINUOUS
 62
     7
 10
280.8567
 20
-35.75
 11
280.427
 21
-49.5
  0
LINE
  8
0
  6
CONTINUOUS
 62
     7
 10
265.4537
 20
-35.75001
 11
265.8834
 21
-49.50001
  0
LINE
  8
0
  6
CONTINUOUS
 62
     7
 10
264.5976
 20
-35.75
 11
265.0273
 21
-49.49999
  0
LINE
  8
0
  6
CONTINUOUS
 62
     7
 10
213.6552
 20
-15.25
 11
213.6552
 21
-20.25
  0
LINE
  8
0
  6
CONTINUOUS
 62
     7
 10
232.6552
 20
-15.25
 11
232.6552
 21
-20.25
  0
LINE
  8
0
  6
CONTINUOUS
 62
     7
 10
222.3401
 20
-15.82735
 11
222.3401
 21
-20.25
  0
LINE
  8
0
  6
CONTINUOUS
 62
     7
 10
223.9702
 20
-15.82735
 11
223.9702
 21
-20.25
  0
LINE
  8
0
  6
CONTINUOUS
 62
     7
 10
231.8452
 20
-15.82735
 11
231.8452
 21
-20.25
  0
LINE
  8
0
  6
CONTINUOUS
 62
     7
 10
214.4651
 20
-15.82735
 11
214.4651
 21
-20.25
  0
LINE
  8
0
  6
CONTINUOUS
 62
     7
 10
214.4651
 20
-15.82735
 11
213.6552
 21
-15.82735
  0
LINE
  8
0
  6
CONTINUOUS
 62
     7
 10
223.9702
 20
-15.82735
 11
222.3401
 21
-15.82735
  0
LINE
  8
0
  6
CONTINUOUS
 62
     7
 10
231.8452
 20
-15.82735
 11
232.6552
 21
-15.82735
  0
LINE
  8
0
  6
CONTINUOUS
 62
     7
 10
324.8907
 20
-49.5
 11
341.1465
 21
-49.5
  0
LINE
  8
0
  6
CENTER
 62
     2
 10
295.6552
 20
13.73065
 11
295.6552
 21
40.15641
  0
LINE
  8
0
  6
CONTINUOUS
 62
     7
 10
327.0186
 20
4.0
 11
339.0186
 21
4.0
  0
LINE
  8
0
  6
CONTINUOUS
 62
     7
 10
327.0186
 20
-1.0
 11
339.0186
 21
-1.0
  0
LINE
  8
0
  6
CENTER
 62
     2
 10
333.0186
 20
6.66667
 11
333.0186
 21
-52.33333
  0
LINE
  8
0
  6
CONTINUOUS
 62
     7
 10
344.0186
 20
-21.75
 11
344.0186
 21
-34.25
  0
LINE
  8
0
  6
CONTINUOUS
 62
     7
 10
322.0186
 20
-21.75
 11
322.0186
 21
-34.25
  0
LINE
  8
0
  6
CONTINUOUS
 62
     7
 10
326.5186
 20
3.5
 11
326.5186
 21
-0.5
  0
LINE
  8
0
  6
CONTINUOUS
 62
     7
 10
339.5186
 20
3.5
 11
339.5186
 21
-0.5
  0
LINE
  8
0
  6
CONTINUOUS
 62
     7
 10
339.5184
 20
3.49987
 11
339.0184
 21
3.99987
  0
LINE
  8
0
  6
CONTINUOUS
 62
     7
 10
327.0186
 20
4.0
 11
326.5186
 21
3.5
  0
LINE
  8
0
  6
CONTINUOUS
 62
     7
 10
326.5186
 20
-0.50003
 11
327.0186
 21
-1.00003
  0
LINE
  8
0
  6
CONTINUOUS
 62
     7
 10
339.0186
 20
-0.99999
 11
339.5186
 21
-0.49999
  0
LINE
  8
0
  6
CONTINUOUS
 62
     7
 10
326.5186
 20
3.5
 11
339.5186
 21
3.5
  0
LINE
  8
0
  6
CONTINUOUS
 62
     7
 10
326.5186
 20
-0.5
 11
339.5186
 21
-0.5
  0
LINE
  8
0
  6
CONTINUOUS
 62
     7
 10
327.5186
 20
3.5
 11
327.5186
 21
-0.5
  0
LINE
  8
0
  6
CONTINUOUS
 62
     7
 10
328.5186
 20
3.5
 11
328.5186
 21
-0.5
  0
LINE
  8
0
  6
CONTINUOUS
 62
     7
 10
329.5186
 20
3.5
 11
329.5186
 21
-0.5
  0
LINE
  8
0
  6
CONTINUOUS
 62
     7
 10
330.5186
 20
3.5
 11
330.5186
 21
-0.5
  0
LINE
  8
0
  6
CONTINUOUS
 62
     7
 10
331.5186
 20
3.5
 11
331.5186
 21
-0.5
  0
LINE
  8
0
  6
CONTINUOUS
 62
     7
 10
332.5186
 20
3.5
 11
332.5186
 21
-0.5
  0
LINE
  8
0
  6
CONTINUOUS
 62
     7
 10
328.0186
 20
-1.0
 11
328.0186
 21
-2.0
  0
LINE
  8
0
  6
CONTINUOUS
 62
     7
 10
338.0186
 20
-1.0
 11
338.0186
 21
-2.0
  0
LINE
  8
0
  6
CONTINUOUS
 62
     7
 10
328.8306
 20
-1.0
 11
328.8306
 21
-2.0
  0
LINE
  8
0
  6
CONTINUOUS
 62
     7
 10
337.2066
 20
-1.0
 11
337.2066
 21
-2.0
  0
LINE
  8
0
  6
CONTINUOUS
 62
     7
 10
322.0186
 20
-21.75
 11
322.3186
 21
-21.75
  0
LINE
  8
0
  6
CONTINUOUS
 62
     7
 10
322.0186
 20
-34.25
 11
332.2186
 21
-34.25
  0
LINE
  8
0
  6
CONTINUOUS
 62
     7
 10
344.0186
 20
-21.75
 11
343.7186
 21
-21.2304
  0
LINE
  8
0
  6
CONTINUOUS
 62
     7
 10
322.0186
 20
-34.25
 11
322.8846
 21
-35.75
  0
LINE
  8
0
  6
CONTINUOUS
 62
     7
 10
322.0186
 20
-21.74999
 11
322.3186
 21
-21.2303
  0
LINE
  8
0
  6
CONTINUOUS
 62
     7
 10
344.0186
 20
-34.24998
 11
343.1526
 21
-35.74998
  0
LINE
  8
0
  6
CONTINUOUS
 62
     7
 10
341.5762
 20
-35.75
 11
341.1465
 21
-49.5
  0
LINE
  8
0
  6
CONTINUOUS
 62
     7
 10
340.7201
 20
-35.75
 11
340.2904
 21
-49.5
  0
LINE
  8
0
  6
CONTINUOUS
 62
     7
 10
325.3173
 20
-35.75
 11
325.747
 21
-49.5
  0
LINE
  8
0
  6
CONTINUOUS
 62
     7
 10
324.4611
 20
-35.75
 11
324.8907
 21
-49.5
  0
LINE
  8
0
  6
CONTINUOUS
 62
     7
 10
343.7186
 20
-21.75
 11
344.0186
 21
-21.75
  0
LINE
  8
0
  6
CONTINUOUS
 62
     7
 10
333.8186
 20
-34.25
 11
344.0186
 21
-34.25
  0
LINE
  8
0
  6
CONTINUOUS
 62
     7
 10
322.8846
 20
-35.75
 11
343.1526
 21
-35.75
  0
LINE
  8
0
  6
CONTINUOUS
 62
     7
 10
322.5186
 20
-2.0
 11
343.5186
 21
-2.0
  0
LINE
  8
0
  6
CONTINUOUS
 62
     7
 10
322.5186
 20
-4.20001
 11
343.5186
 21
-4.20001
  0
LINE
  8
0
  6
CONTINUOUS
 62
     7
 10
322.3186
 20
-22.5
 11
343.7186
 21
-22.5
  0
LINE
  8
0
  6
CONTINUOUS
 62
     7
 10
322.3186
 20
-7.10001
 11
343.7186
 21
-7.10001
  0
LINE
  8
0
  6
CONTINUOUS
 62
     7
 10
323.0186
 20
-5.5
 11
343.0186
 21
-5.5
  0
LINE
  8
0
  6
CONTINUOUS
 62
     7
 10
322.5186
 20
-4.20001
 11
322.5186
 21
-2.0
  0
LINE
  8
0
  6
CONTINUOUS
 62
     7
 10
343.5186
 20
-4.20001
 11
343.5186
 21
-2.0
  0
LINE
  8
0
  6
CONTINUOUS
 62
     7
 10
343.0186
 20
-7.10001
 11
343.0186
 21
-5.5
  0
LINE
  8
0
  6
CONTINUOUS
 62
     7
 10
323.0186
 20
-7.10001
 11
323.0186
 21
-5.5
  0
LINE
  8
0
  6
CONTINUOUS
 62
     7
 10
343.7186
 20
-22.50001
 11
343.7186
 21
-7.10001
  0
LINE
  8
0
  6
CONTINUOUS
 62
     7
 10
322.3186
 20
-22.5
 11
322.3186
 21
-7.10001
  0
LINE
  8
0
  6
CONTINUOUS
 62
     7
 10
325.5186
 20
-5.5
 11
325.5186
 21
-4.20001
  0
LINE
  8
0
  6
CONTINUOUS
 62
     7
 10
340.5186
 20
-5.5
 11
340.5186
 21
-4.20001
  0
LINE
  8
0
  6
CONTINUOUS
 62
     7
 10
336.6833
 20
-24.90002
 11
340.5186
 21
-24.90002
  0
LINE
  8
0
  6
CONTINUOUS
 62
     7
 10
325.5186
 20
-27.0
 11
325.5186
 21
-24.90002
  0
LINE
  8
0
  6
CONTINUOUS
 62
     7
 10
340.5186
 20
-27.0
 11
340.5186
 21
-24.90002
  0
LINE
  8
0
  6
CONTINUOUS
 62
     7
 10
325.5188
 20
-24.89991
 11
322.3188
 21
-22.49991
  0
LINE
  8
0
  6
CONTINUOUS
 62
     7
 10
340.5186
 20
-24.89999
 11
343.7186
 21
-22.49999
  0
LINE
  8
0
  6
CONTINUOUS
 62
     7
 10
284.1552
 20
-21.74998
 11
283.2891
 21
-20.24997
  0
LINE
  8
0
  6
CONTINUOUS
 62
     7
 10
284.1552
 20
-21.75
 11
284.1552
 21
-23.2
  0
LINE
  8
0
  6
CENTER
 62
     2
 10
208.1168
 20
-28.0
 11
238.2449
 21
-28.0
  0
LINE
  8
0
  6
CONTINUOUS
 62
     7
 10
284.1552
 20
-23.2
 11
286.0343
 21
-23.2
  0
LINE
  8
0
  6
CONTINUOUS
 62
     7
 10
284.1552
 20
-32.8
 11
306.3552
 21
-32.8
  0
LINE
  8
0
  6
CONTINUOUS
 62
     7
 10
305.276
 20
-23.2
 11
306.3552
 21
-23.2
  0
LINE
  8
0
  6
CENTER
 62
     2
 10
295.6552
 20
-40.81212
 11
295.6552
 21
1.22366
  0
LINE
  8
0
  6
CONTINUOUS
 62
     7
 10
228.1552
 20
-2.0
 11
233.6552
 21
-2.0
  0
LINE
  8
0
  6
CONTINUOUS
 62
     7
 10
228.1552
 20
-4.20001
 11
233.6552
 21
-4.20001
  0
LINE
  8
0
  6
CONTINUOUS
 62
     7
 10
228.1552
 20
-7.10001
 11
233.8551
 21
-7.10001
  0
LINE
  8
0
  6
CONTINUOUS
 62
     7
 10
228.1552
 20
-5.5
 11
233.1552
 21
-5.5
  0
LINE
  8
0
  6
CONTINUOUS
 62
     7
 10
212.6552
 20
-4.20001
 11
212.6552
 21
-2.0
  0
LINE
  8
0
  6
CONTINUOUS
 62
     7
 10
233.6552
 20
-4.20001
 11
233.6552
 21
-2.0
  0
LINE
  8
0
  6
CONTINUOUS
 62
     7
 10
233.1552
 20
-7.10001
 11
233.1552
 21
-5.5
  0
LINE
  8
0
  6
CONTINUOUS
 62
     7
 10
213.1552
 20
-7.10001
 11
213.1552
 21
-5.5
  0
LINE
  8
0
  6
CONTINUOUS
 62
     7
 10
233.8551
 20
-21.23036
 11
233.8551
 21
-7.10001
  0
LINE
  8
0
  6
CONTINUOUS
 62
     7
 10
212.4551
 20
-21.23038
 11
212.4551
 21
-7.10001
  0
LINE
  8
0
  6
CONTINUOUS
 62
     7
 10
215.6552
 20
-5.5
 11
215.6552
 21
-4.20001
  0
LINE
  8
0
  6
CONTINUOUS
 62
     7
 10
230.6552
 20
-5.5
 11
230.6552
 21
-4.20001
  0
LINE
  8
0
  6
CONTINUOUS
 62
     7
 10
284.9551
 20
-22.5
 11
306.3552
 21
-22.5
  0
LINE
  8
0
  6
CONTINUOUS
 62
     7
 10
288.6552
 20
-24.90002
 11
302.6552
 21
-24.90002
  0
LINE
  8
0
  6
CONTINUOUS
 62
     7
 10
333.8186
 20
-35.75
 11
333.8186
 21
-32.73286
  0
LINE
  8
0
  6
CONTINUOUS
 62
     7
 10
332.2186
 20
-35.75
 11
332.2186
 21
-32.73286
  0
LINE
  8
0
  6
CONTINUOUS
 62
     7
 10
332.2186
 20
-23.26714
 11
332.2186
 21
-22.5
  0
LINE
  8
0
  6
CONTINUOUS
 62
     7
 10
333.8186
 20
-23.26714
 11
333.8186
 21
-22.5
  0
LINE
  8
0
  6
CONTINUOUS
 62
     7
 10
337.8186
 20
-28.0
 11
339.5186
 21
-28.0
  0
LINE
  8
0
  6
CONTINUOUS
 62
     7
 10
328.2186
 20
-28.0
 11
326.5186
 21
-28.0
  0
LINE
  8
0
  6
CONTINUOUS
 62
     7
 10
329.3539
 20
-24.90002
 11
325.5186
 21
-24.90002
  0
LINE
  8
0
  6
CONTINUOUS
 62
     7
 10
288.6552
 20
-24.90002
 11
290.1552
 21
-28.0
  0
LINE
  8
0
  6
CONTINUOUS
 62
     7
 10
288.6551
 20
-24.90002
 11
284.9551
 21
-22.5
  0
LINE
  8
0
  6
CONTINUOUS
 62
     7
 10
302.6551
 20
-24.90002
 11
306.3551
 21
-22.5
  0
LINE
  8
0
  6
CONTINUOUS
 62
     7
 10
302.6552
 20
-24.90003
 11
301.1552
 21
-28.0
  0
LINE
  8
0
  6
CONTINUOUS
 62
     7
 10
290.1552
 20
-28.0
 11
301.1552
 21
-28.0
  0
LINE
  8
0
  6
CONTINUOUS
 62
     7
 10
306.3552
 20
31.8
 11
306.3552
 21
22.2
  0
LINE
  8
0
  6
CONTINUOUS
 62
     7
 10
283.0526
 20
22.2
 11
286.3165
 21
22.2
  0
LINE
  8
0
  6
CONTINUOUS
 62
     7
 10
283.0526
 20
31.8
 11
286.3165
 21
31.8
  0
LINE
  8
0
  6
CONTINUOUS
 62
     7
 10
284.126
 20
27.8
 11
285.1857
 21
27.8
  0
LINE
  8
0
  6
CONTINUOUS
 62
     7
 10
284.126
 20
26.2
 11
285.1857
 21
26.2
  0
LINE
  8
0
  6
CONTINUOUS
 62
     7
 10
304.9938
 20
31.8
 11
306.3552
 21
31.8
  0
LINE
  8
0
  6
CONTINUOUS
 62
     7
 10
304.9938
 20
22.2
 11
306.3552
 21
22.2
  0
LINE
  8
0
  6
CENTER
 62
     2
 10
318.6552
 20
-28.0
 11
346.9885
 21
-28.0
  0
LINE
  8
0
  6
CONTINUOUS
 62
     7
 10
285.1552
 20
-2.0
 11
306.1552
 21
-2.0
  0
LINE
  8
0
  6
CONTINUOUS
 62
     7
 10
285.1552
 20
-4.20001
 11
306.1552
 21
-4.20001
  0
LINE
  8
0
  6
CONTINUOUS
 62
     7
 10
284.9551
 20
-7.10001
 11
306.3552
 21
-7.10001
  0
LINE
  8
0
  6
CONTINUOUS
 62
     7
 10
285.6552
 20
-5.5
 11
305.6552
 21
-5.5
  0
LINE
  8
0
  6
CONTINUOUS
 62
     7
 10
285.1552
 20
-4.20001
 11
285.1552
 21
-2.0
  0
LINE
  8
0
  6
CONTINUOUS
 62
     7
 10
306.1552
 20
-4.20001
 11
306.1552
 21
-2.0
  0
LINE
  8
0
  6
CONTINUOUS
 62
     7
 10
305.6552
 20
-7.10001
 11
305.6552
 21
-5.5
  0
LINE
  8
0
  6
CONTINUOUS
 62
     7
 10
285.6552
 20
-7.10001
 11
285.6552
 21
-5.5
  0
LINE
  8
0
  6
CONTINUOUS
 62
     7
 10
306.3552
 20
-35.75
 11
306.3552
 21
-7.10001
  0
LINE
  8
0
  6
CONTINUOUS
 62
     7
 10
284.9551
 20
-22.5
 11
284.9551
 21
-7.10001
  0
LINE
  8
0
  6
CONTINUOUS
 62
     7
 10
288.1552
 20
-5.5
 11
288.1552
 21
-4.20001
  0
LINE
  8
0
  6
CONTINUOUS
 62
     7
 10
303.1552
 20
-5.5
 11
303.1552
 21
-4.20001
  0
LINE
  8
0
  6
CONTINUOUS
 62
     7
 10
218.1552
 20
-2.0
 11
212.6552
 21
-2.0
  0
LINE
  8
0
  6
CONTINUOUS
 62
     7
 10
218.1552
 20
-4.20001
 11
212.6552
 21
-4.20001
  0
LINE
  8
0
  6
CONTINUOUS
 62
     7
 10
218.1552
 20
-5.5
 11
213.1552
 21
-5.5
  0
LINE
  8
0
  6
CONTINUOUS
 62
     7
 10
218.1552
 20
-7.10001
 11
212.4552
 21
-7.10001
  0
LINE
  8
0
  6
CONTINUOUS
 62
     7
 10
322.3186
 20
-9.10001
 11
343.7186
 21
-9.10001
  0
LINE
  8
0
  6
CONTINUOUS
 62
     7
 10
284.9551
 20
-9.10001
 11
306.3552
 21
-9.10001
  0
LINE
  8
0
  6
CONTINUOUS
 62
     7
 10
230.8051
 20
-9.10001
 11
233.8551
 21
-9.10001
  0
LINE
  8
0
  6
CONTINUOUS
 62
     7
 10
215.5052
 20
-9.10001
 11
212.4552
 21
-9.10001
  0
LINE
  8
0
  6
CONTINUOUS
 62
     7
 10
284.1552
 20
-32.8
 11
284.1552
 21
-34.25
  0
LINE
  8
0
  6
CENTER
 62
     2
 10
223.1552
 20
-142.1897
 11
223.1552
 21
-208.7104
  0
LINE
  8
0
  6
CONTINUOUS
 62
     7
 10
212.9277
 20
-205.7057
 11
233.3827
 21
-205.7057
  0
LINE
  8
0
  6
CONTINUOUS
 62
     7
 10
210.0212
 20
-188.8057
 11
236.2891
 21
-188.8057
  0
LINE
  8
0
  6
CONTINUOUS
 62
     7
 10
209.9552
 20
-171.1057
 11
236.3551
 21
-171.1057
  0
LINE
  8
0
  6
CONTINUOUS
 62
     7
 10
211.1552
 20
-165.1057
 11
235.1552
 21
-165.1057
  0
LINE
  8
0
  6
CONTINUOUS
 62
     7
 10
215.6552
 20
-163.0057
 11
230.6552
 21
-163.0057
  0
LINE
  8
0
  6
CONTINUOUS
 62
     7
 10
215.6552
 20
-159.5057
 11
230.6552
 21
-159.5057
  0
LINE
  8
0
  6
CONTINUOUS
 62
     7
 10
217.1552
 20
-145.7057
 11
229.1552
 21
-145.7057
  0
LINE
  8
0
  6
CONTINUOUS
 62
     7
 10
217.1552
 20
-150.7057
 11
229.1552
 21
-150.7057
  0
LINE
  8
0
  6
CONTINUOUS
 62
     7
 10
209.1552
 20
-172.6057
 11
209.1552
 21
-187.3057
  0
LINE
  8
0
  6
CONTINUOUS
 62
     7
 10
237.1552
 20
-172.6057
 11
237.1552
 21
-187.3057
  0
LINE
  8
0
  6
CENTER
 62
     2
 10
273.1552
 20
-101.337
 11
273.1552
 21
-133.904
  0
LINE
  8
0
  6
CENTER
 62
     2
 10
256.2498
 20
-117.7057
 11
312.6552
 21
-117.7057
  0
LINE
  8
0
  6
CONTINUOUS
 62
     7
 10
265.5706
 20
-128.5687
 11
259.9552
 21
-118.8426
  0
LINE
  8
0
  6
CONTINUOUS
 62
     7
 10
286.3552
 20
-116.5687
 11
280.7398
 21
-106.8426
  0
LINE
  8
0
  6
CONTINUOUS
 62
     7
 10
267.5398
 20
-129.7057
 11
278.7705
 21
-129.7057
  0
LINE
  8
0
  6
CONTINUOUS
 62
     7
 10
267.5398
 20
-105.7057
 11
278.7705
 21
-105.7057
  0
LINE
  8
0
  6
CONTINUOUS
 62
     7
 10
280.7398
 20
-128.5688
 11
286.3552
 21
-118.8426
  0
LINE
  8
0
  6
CONTINUOUS
 62
     7
 10
259.9552
 20
-116.5687
 11
265.5706
 21
-106.8426
  0
LINE
  8
0
  6
CONTINUOUS
 62
     7
 10
278.7705
 20
-129.7057
 11
280.7397
 21
-128.5688
  0
LINE
  8
0
  6
CONTINUOUS
 62
     7
 10
265.5706
 20
-106.8426
 11
267.5398
 21
-105.7057
  0
LINE
  8
0
  6
CONTINUOUS
 62
     7
 10
286.3552
 20
-116.5687
 11
286.3552
 21
-118.8426
  0
LINE
  8
0
  6
CONTINUOUS
 62
     7
 10
259.9551
 20
-116.5687
 11
259.9551
 21
-118.8426
  0
LINE
  8
0
  6
CONTINUOUS
 62
     7
 10
278.7706
 20
-105.7057
 11
280.7398
 21
-106.8426
  0
LINE
  8
0
  6
CONTINUOUS
 62
     7
 10
265.5706
 20
-128.5687
 11
267.5398
 21
-129.7057
  0
LINE
  8
0
  6
CONTINUOUS
 62
     7
 10
230.1552
 20
-163.0057
 11
230.1552
 21
-165.1057
  0
LINE
  8
0
  6
CONTINUOUS
 62
     7
 10
216.1552
 20
-163.0057
 11
216.1552
 21
-165.1057
  0
LINE
  8
0
  6
CONTINUOUS
 62
     7
 10
215.1552
 20
-160.0057
 11
215.1552
 21
-162.5057
  0
LINE
  8
0
  6
CONTINUOUS
 62
     7
 10
231.1552
 20
-160.0057
 11
231.1552
 21
-162.5057
  0
LINE
  8
0
  6
CONTINUOUS
 62
     7
 10
216.6552
 20
-146.2057
 11
216.6552
 21
-150.2057
  0
LINE
  8
0
  6
CONTINUOUS
 62
     7
 10
229.6552
 20
-146.2057
 11
229.6552
 21
-150.2057
  0
LINE
  8
0
  6
CONTINUOUS
 62
     7
 10
217.1552
 20
-145.7056
 11
216.6552
 21
-146.2056
  0
LINE
  8
0
  6
CONTINUOUS
 62
     7
 10
216.6551
 20
-150.2057
 11
217.1551
 21
-150.7056
  0
LINE
  8
0
  6
CONTINUOUS
 62
     7
 10
229.1551
 20
-150.7056
 11
229.6551
 21
-150.2056
  0
LINE
  8
0
  6
CONTINUOUS
 62
     7
 10
229.6551
 20
-146.2057
 11
229.1551
 21
-145.7057
  0
LINE
  8
0
  6
CONTINUOUS
 62
     7
 10
215.6551
 20
-159.5056
 11
215.1551
 21
-160.0057
  0
LINE
  8
0
  6
CONTINUOUS
 62
     7
 10
215.1551
 20
-162.5057
 11
215.6552
 21
-163.0057
  0
LINE
  8
0
  6
CONTINUOUS
 62
     7
 10
231.1551
 20
-160.0057
 11
230.6551
 21
-159.5057
  0
LINE
  8
0
  6
CONTINUOUS
 62
     7
 10
230.6552
 20
-163.0057
 11
231.1552
 21
-162.5057
  0
LINE
  8
0
  6
CONTINUOUS
 62
     7
 10
215.1552
 20
-160.0057
 11
231.1552
 21
-160.0057
  0
LINE
  8
0
  6
CONTINUOUS
 62
     7
 10
215.1552
 20
-162.5057
 11
231.1552
 21
-162.5057
  0
LINE
  8
0
  6
CONTINUOUS
 62
     7
 10
216.6552
 20
-146.2057
 11
229.6552
 21
-146.2057
  0
LINE
  8
0
  6
CONTINUOUS
 62
     7
 10
216.6552
 20
-150.2057
 11
229.6552
 21
-150.2057
  0
LINE
  8
0
  6
CONTINUOUS
 62
     7
 10
217.6552
 20
-146.2057
 11
217.6552
 21
-150.2057
  0
LINE
  8
0
  6
CONTINUOUS
 62
     7
 10
218.6552
 20
-146.2057
 11
218.6552
 21
-150.2057
  0
LINE
  8
0
  6
CONTINUOUS
 62
     7
 10
219.6552
 20
-146.2057
 11
219.6552
 21
-150.2057
  0
LINE
  8
0
  6
CONTINUOUS
 62
     7
 10
220.6552
 20
-146.2057
 11
220.6552
 21
-150.2057
  0
LINE
  8
0
  6
CONTINUOUS
 62
     7
 10
221.6552
 20
-146.2057
 11
221.6552
 21
-150.2057
  0
LINE
  8
0
  6
CONTINUOUS
 62
     7
 10
222.6552
 20
-146.2057
 11
222.6552
 21
-150.2057
  0
LINE
  8
0
  6
CONTINUOUS
 62
     7
 10
216.1552
 20
-160.0057
 11
216.1552
 21
-162.5057
  0
LINE
  8
0
  6
CONTINUOUS
 62
     7
 10
217.1552
 20
-160.0057
 11
217.1552
 21
-162.5057
  0
LINE
  8
0
  6
CONTINUOUS
 62
     7
 10
218.1552
 20
-160.0057
 11
218.1552
 21
-162.5057
  0
LINE
  8
0
  6
CONTINUOUS
 62
     7
 10
219.1552
 20
-160.0057
 11
219.1552
 21
-162.5057
  0
LINE
  8
0
  6
CONTINUOUS
 62
     7
 10
220.1552
 20
-160.0057
 11
220.1552
 21
-162.5057
  0
LINE
  8
0
  6
CONTINUOUS
 62
     7
 10
221.1552
 20
-160.0057
 11
221.1552
 21
-162.5057
  0
LINE
  8
0
  6
CONTINUOUS
 62
     7
 10
222.1552
 20
-160.0057
 11
222.1552
 21
-162.5057
  0
LINE
  8
0
  6
CONTINUOUS
 62
     7
 10
218.1552
 20
-150.7057
 11
218.1552
 21
-159.5057
  0
LINE
  8
0
  6
CONTINUOUS
 62
     7
 10
228.1552
 20
-150.7057
 11
228.1552
 21
-159.5057
  0
LINE
  8
0
  6
CONTINUOUS
 62
     7
 10
218.9671
 20
-150.7057
 11
218.9671
 21
-159.5057
  0
LINE
  8
0
  6
CONTINUOUS
 62
     7
 10
227.3432
 20
-150.7057
 11
227.3432
 21
-159.5057
  0
LINE
  8
0
  6
CONTINUOUS
 62
     7
 10
233.9108
 20
-188.8056
 11
233.3826
 21
-205.7056
  0
LINE
  8
0
  6
CONTINUOUS
 62
     7
 10
232.7488
 20
-188.8056
 11
232.2207
 21
-205.7057
  0
LINE
  8
0
  6
CONTINUOUS
 62
     7
 10
212.3995
 20
-188.8056
 11
212.9276
 21
-205.7056
  0
LINE
  8
0
  6
CONTINUOUS
 62
     7
 10
213.5615
 20
-188.8056
 11
214.0896
 21
-205.7056
  0
LINE
  8
0
  6
CONTINUOUS
 62
     7
 10
209.1552
 20
-172.6057
 11
237.1552
 21
-172.6057
  0
LINE
  8
0
  6
CONTINUOUS
 62
     7
 10
209.1552
 20
-187.3057
 11
237.1552
 21
-187.3057
  0
LINE
  8
0
  6
CONTINUOUS
 62
     7
 10
237.1552
 20
-172.6057
 11
236.2891
 21
-171.1057
  0
LINE
  8
0
  6
CONTINUOUS
 62
     7
 10
209.1551
 20
-187.3056
 11
210.0212
 21
-188.8056
  0
LINE
  8
0
  6
CONTINUOUS
 62
     7
 10
209.1551
 20
-172.6056
 11
210.0211
 21
-171.1056
  0
LINE
  8
0
  6
CONTINUOUS
 62
     7
 10
237.1551
 20
-187.3056
 11
236.2891
 21
-188.8056
  0
LINE
  8
0
  6
CENTER
 62
     2
 10
273.1552
 20
-142.1897
 11
273.1552
 21
-208.7104
  0
LINE
  8
0
  6
CONTINUOUS
 62
     7
 10
262.9276
 20
-205.7057
 11
283.3827
 21
-205.7057
  0
LINE
  8
0
  6
CONTINUOUS
 62
     7
 10
260.0212
 20
-188.8057
 11
309.3552
 21
-188.8057
  0
LINE
  8
0
  6
CONTINUOUS
 62
     7
 10
259.9551
 20
-171.1057
 11
287.9551
 21
-171.1057
  0
LINE
  8
0
  6
CONTINUOUS
 62
     7
 10
261.1552
 20
-165.1057
 11
285.1552
 21
-165.1057
  0
LINE
  8
0
  6
CONTINUOUS
 62
     7
 10
265.6552
 20
-163.0057
 11
280.6552
 21
-163.0057
  0
LINE
  8
0
  6
CONTINUOUS
 62
     7
 10
265.6552
 20
-159.5057
 11
280.6552
 21
-159.5057
  0
LINE
  8
0
  6
CONTINUOUS
 62
     7
 10
267.1552
 20
-145.7057
 11
279.1552
 21
-145.7057
  0
LINE
  8
0
  6
CONTINUOUS
 62
     7
 10
267.1552
 20
-150.7057
 11
279.1552
 21
-150.7057
  0
LINE
  8
0
  6
CONTINUOUS
 62
     7
 10
287.1552
 20
-172.6057
 11
287.1552
 21
-173.2556
  0
LINE
  8
0
  6
CONTINUOUS
 62
     7
 10
286.3552
 20
-165.7985
 11
286.3552
 21
-171.1057
  0
LINE
  8
0
  6
CONTINUOUS
 62
     7
 10
280.7397
 20
-165.7985
 11
280.7397
 21
-171.1057
  0
LINE
  8
0
  6
CONTINUOUS
 62
     7
 10
278.7705
 20
-165.7985
 11
278.7705
 21
-171.1057
  0
LINE
  8
0
  6
CONTINUOUS
 62
     7
 10
267.5398
 20
-165.7985
 11
267.5398
 21
-171.1057
  0
LINE
  8
0
  6
CONTINUOUS
 62
     7
 10
265.5705
 20
-165.7985
 11
265.5705
 21
-171.1057
  0
LINE
  8
0
  6
CONTINUOUS
 62
     7
 10
259.9551
 20
-165.7985
 11
259.9551
 21
-171.1057
  0
LINE
  8
0
  6
CONTINUOUS
 62
     7
 10
285.1551
 20
-165.1057
 11
286.3551
 21
-165.7985
  0
LINE
  8
0
  6
CONTINUOUS
 62
     7
 10
261.1551
 20
-165.1056
 11
259.9551
 21
-165.7984
  0
LINE
  8
0
  6
CONTINUOUS
 62
     7
 10
278.7705
 20
-165.7985
 11
280.7397
 21
-165.7985
  0
LINE
  8
0
  6
CONTINUOUS
 62
     7
 10
265.5705
 20
-165.7985
 11
267.5398
 21
-165.7985
  0
LINE
  8
0
  6
CONTINUOUS
 62
     7
 10
280.1552
 20
-163.0057
 11
280.1552
 21
-165.1057
  0
LINE
  8
0
  6
CONTINUOUS
 62
     7
 10
266.1552
 20
-163.0057
 11
266.1552
 21
-165.1057
  0
LINE
  8
0
  6
CONTINUOUS
 62
     7
 10
265.1552
 20
-160.0057
 11
265.1552
 21
-162.5057
  0
LINE
  8
0
  6
CONTINUOUS
 62
     7
 10
281.1552
 20
-160.0057
 11
281.1552
 21
-162.5057
  0
LINE
  8
0
  6
CONTINUOUS
 62
     7
 10
266.6552
 20
-146.2057
 11
266.6552
 21
-150.2057
  0
LINE
  8
0
  6
CONTINUOUS
 62
     7
 10
279.6552
 20
-146.2057
 11
279.6552
 21
-150.2057
  0
LINE
  8
0
  6
CONTINUOUS
 62
     7
 10
267.1552
 20
-145.7056
 11
266.6552
 21
-146.2056
  0
LINE
  8
0
  6
CONTINUOUS
 62
     7
 10
266.6551
 20
-150.2056
 11
267.1551
 21
-150.7056
  0
LINE
  8
0
  6
CONTINUOUS
 62
     7
 10
279.1551
 20
-150.7056
 11
279.6551
 21
-150.2056
  0
LINE
  8
0
  6
CONTINUOUS
 62
     7
 10
279.6552
 20
-146.2056
 11
279.1552
 21
-145.7057
  0
LINE
  8
0
  6
CONTINUOUS
 62
     7
 10
265.6551
 20
-159.5056
 11
265.1551
 21
-160.0056
  0
LINE
  8
0
  6
CONTINUOUS
 62
     7
 10
265.1551
 20
-162.5057
 11
265.6551
 21
-163.0057
  0
LINE
  8
0
  6
CONTINUOUS
 62
     7
 10
281.1552
 20
-160.0057
 11
280.6552
 21
-159.5057
  0
LINE
  8
0
  6
CONTINUOUS
 62
     7
 10
280.6551
 20
-163.0056
 11
281.1551
 21
-162.5056
  0
LINE
  8
0
  6
CONTINUOUS
 62
     7
 10
265.1552
 20
-160.0057
 11
281.1552
 21
-160.0057
  0
LINE
  8
0
  6
CONTINUOUS
 62
     7
 10
265.1552
 20
-162.5057
 11
281.1552
 21
-162.5057
  0
LINE
  8
0
  6
CONTINUOUS
 62
     7
 10
266.6552
 20
-146.2057
 11
279.6552
 21
-146.2057
  0
LINE
  8
0
  6
CONTINUOUS
 62
     7
 10
266.6552
 20
-150.2057
 11
279.6552
 21
-150.2057
  0
LINE
  8
0
  6
CONTINUOUS
 62
     7
 10
267.6552
 20
-146.2057
 11
267.6552
 21
-150.2057
  0
LINE
  8
0
  6
CONTINUOUS
 62
     7
 10
268.6552
 20
-146.2057
 11
268.6552
 21
-150.2057
  0
LINE
  8
0
  6
CONTINUOUS
 62
     7
 10
269.6552
 20
-146.2057
 11
269.6552
 21
-150.2057
  0
LINE
  8
0
  6
CONTINUOUS
 62
     7
 10
270.6552
 20
-146.2057
 11
270.6552
 21
-150.2057
  0
LINE
  8
0
  6
CONTINUOUS
 62
     7
 10
271.6552
 20
-146.2057
 11
271.6552
 21
-150.2057
  0
LINE
  8
0
  6
CONTINUOUS
 62
     7
 10
272.6552
 20
-146.2057
 11
272.6552
 21
-150.2057
  0
LINE
  8
0
  6
CONTINUOUS
 62
     7
 10
266.1552
 20
-160.0057
 11
266.1552
 21
-162.5057
  0
LINE
  8
0
  6
CONTINUOUS
 62
     7
 10
267.1552
 20
-160.0057
 11
267.1552
 21
-162.5057
  0
LINE
  8
0
  6
CONTINUOUS
 62
     7
 10
268.1552
 20
-160.0057
 11
268.1552
 21
-162.5057
  0
LINE
  8
0
  6
CONTINUOUS
 62
     7
 10
269.1552
 20
-160.0057
 11
269.1552
 21
-162.5057
  0
LINE
  8
0
  6
CONTINUOUS
 62
     7
 10
270.1552
 20
-160.0057
 11
270.1552
 21
-162.5057
  0
LINE
  8
0
  6
CONTINUOUS
 62
     7
 10
271.1552
 20
-160.0057
 11
271.1552
 21
-162.5057
  0
LINE
  8
0
  6
CONTINUOUS
 62
     7
 10
272.1552
 20
-160.0057
 11
272.1552
 21
-162.5057
  0
LINE
  8
0
  6
CONTINUOUS
 62
     7
 10
268.1552
 20
-150.7057
 11
268.1552
 21
-159.5057
  0
LINE
  8
0
  6
CONTINUOUS
 62
     7
 10
278.1552
 20
-150.7057
 11
278.1552
 21
-159.5057
  0
LINE
  8
0
  6
CONTINUOUS
 62
     7
 10
268.9672
 20
-150.7057
 11
268.9672
 21
-159.5057
  0
LINE
  8
0
  6
CONTINUOUS
 62
     7
 10
277.3431
 20
-150.7057
 11
277.3431
 21
-159.5057
  0
LINE
  8
0
  6
CONTINUOUS
 62
     7
 10
283.9108
 20
-188.8056
 11
283.3826
 21
-205.7056
  0
LINE
  8
0
  6
CONTINUOUS
 62
     7
 10
282.7487
 20
-188.8057
 11
282.2206
 21
-205.7057
  0
LINE
  8
0
  6
CONTINUOUS
 62
     7
 10
262.3995
 20
-188.8056
 11
262.9276
 21
-205.7056
  0
LINE
  8
0
  6
CONTINUOUS
 62
     7
 10
263.5614
 20
-188.8056
 11
264.0895
 21
-205.7056
  0
LINE
  8
0
  6
CONTINUOUS
 62
     7
 10
259.1552
 20
-172.6057
 11
287.1552
 21
-172.6057
  0
LINE
  8
0
  6
CONTINUOUS
 62
     7
 10
259.1552
 20
-187.3057
 11
287.1552
 21
-187.3057
  0
LINE
  8
0
  6
CONTINUOUS
 62
     7
 10
287.1552
 20
-172.6057
 11
286.2892
 21
-171.1056
  0
LINE
  8
0
  6
CONTINUOUS
 62
     7
 10
287.1551
 20
-187.3056
 11
286.2891
 21
-188.8056
  0
LINE
  8
0
  6
CONTINUOUS
 62
     7
 10
222.0152
 20
-165.7985
 11
222.0152
 21
-171.1057
  0
LINE
  8
0
  6
CONTINUOUS
 62
     7
 10
224.2952
 20
-165.7985
 11
224.2952
 21
-171.1057
  0
LINE
  8
0
  6
CONTINUOUS
 62
     7
 10
212.2952
 20
-165.7985
 11
212.2952
 21
-171.1057
  0
LINE
  8
0
  6
CONTINUOUS
 62
     7
 10
234.0152
 20
-165.7985
 11
234.0152
 21
-171.1057
  0
LINE
  8
0
  6
CONTINUOUS
 62
     7
 10
211.1552
 20
-165.1057
 11
211.1552
 21
-171.1057
  0
LINE
  8
0
  6
CONTINUOUS
 62
     7
 10
235.1552
 20
-165.1057
 11
235.1552
 21
-171.1057
  0
LINE
  8
0
  6
CONTINUOUS
 62
     7
 10
234.0152
 20
-165.7985
 11
235.1552
 21
-165.7985
  0
LINE
  8
0
  6
CONTINUOUS
 62
     7
 10
224.2952
 20
-165.7985
 11
222.0152
 21
-165.7985
  0
LINE
  8
0
  6
CONTINUOUS
 62
     7
 10
212.2952
 20
-165.7985
 11
211.1552
 21
-165.7985
  0
LINE
  8
0
  6
CENTER
 62
     2
 10
340.2438
 20
-142.1897
 11
340.2438
 21
-208.7104
  0
LINE
  8
0
  6
CONTINUOUS
 62
     7
 10
330.0163
 20
-205.7057
 11
350.4713
 21
-205.7057
  0
LINE
  8
0
  6
CONTINUOUS
 62
     7
 10
327.1098
 20
-188.8057
 11
353.3777
 21
-188.8057
  0
LINE
  8
0
  6
CONTINUOUS
 62
     7
 10
327.0438
 20
-171.1057
 11
329.5438
 21
-171.1057
  0
LINE
  8
0
  6
CONTINUOUS
 62
     7
 10
350.9438
 20
-165.1057
 11
352.2438
 21
-165.1057
  0
LINE
  8
0
  6
CONTINUOUS
 62
     7
 10
334.2438
 20
-145.7057
 11
346.2438
 21
-145.7057
  0
LINE
  8
0
  6
CONTINUOUS
 62
     7
 10
334.2438
 20
-150.7057
 11
346.2438
 21
-150.7057
  0
LINE
  8
0
  6
CONTINUOUS
 62
     7
 10
326.2438
 20
-172.6057
 11
326.2438
 21
-187.3057
  0
LINE
  8
0
  6
CONTINUOUS
 62
     7
 10
354.2438
 20
-172.6057
 11
354.2438
 21
-187.3057
  0
LINE
  8
0
  6
CONTINUOUS
 62
     7
 10
333.7438
 20
-146.2057
 11
333.7438
 21
-150.2057
  0
LINE
  8
0
  6
CONTINUOUS
 62
     7
 10
346.7438
 20
-146.2057
 11
346.7438
 21
-150.2057
  0
LINE
  8
0
  6
CONTINUOUS
 62
     7
 10
334.2437
 20
-145.7057
 11
333.7437
 21
-146.2056
  0
LINE
  8
0
  6
CONTINUOUS
 62
     7
 10
333.7438
 20
-150.2056
 11
334.2437
 21
-150.7056
  0
LINE
  8
0
  6
CONTINUOUS
 62
     7
 10
346.2437
 20
-150.7056
 11
346.7438
 21
-150.2056
  0
LINE
  8
0
  6
CONTINUOUS
 62
     7
 10
346.7437
 20
-146.2057
 11
346.2437
 21
-145.7057
  0
LINE
  8
0
  6
CONTINUOUS
 62
     7
 10
333.7438
 20
-146.2057
 11
346.7438
 21
-146.2057
  0
LINE
  8
0
  6
CONTINUOUS
 62
     7
 10
333.7438
 20
-150.2057
 11
346.7438
 21
-150.2057
  0
LINE
  8
0
  6
CONTINUOUS
 62
     7
 10
334.7438
 20
-146.2057
 11
334.7438
 21
-150.2057
  0
LINE
  8
0
  6
CONTINUOUS
 62
     7
 10
335.7438
 20
-146.2057
 11
335.7438
 21
-150.2057
  0
LINE
  8
0
  6
CONTINUOUS
 62
     7
 10
336.7438
 20
-146.2057
 11
336.7438
 21
-150.2057
  0
LINE
  8
0
  6
CONTINUOUS
 62
     7
 10
337.7438
 20
-146.2057
 11
337.7438
 21
-150.2057
  0
LINE
  8
0
  6
CONTINUOUS
 62
     7
 10
338.7438
 20
-146.2057
 11
338.7438
 21
-150.2057
  0
LINE
  8
0
  6
CONTINUOUS
 62
     7
 10
339.7438
 20
-146.2057
 11
339.7438
 21
-150.2057
  0
LINE
  8
0
  6
CONTINUOUS
 62
     7
 10
335.2438
 20
-150.7057
 11
335.2438
 21
-151.7057
  0
LINE
  8
0
  6
CONTINUOUS
 62
     7
 10
345.2438
 20
-150.7057
 11
345.2438
 21
-151.7057
  0
LINE
  8
0
  6
CONTINUOUS
 62
     7
 10
336.0558
 20
-150.7057
 11
336.0558
 21
-151.7057
  0
LINE
  8
0
  6
CONTINUOUS
 62
     7
 10
344.4318
 20
-150.7057
 11
344.4318
 21
-151.7057
  0
LINE
  8
0
  6
CONTINUOUS
 62
     7
 10
350.9994
 20
-188.8056
 11
350.4713
 21
-205.7057
  0
LINE
  8
0
  6
CONTINUOUS
 62
     7
 10
349.8374
 20
-188.8057
 11
349.3093
 21
-205.7057
  0
LINE
  8
0
  6
CONTINUOUS
 62
     7
 10
329.488
 20
-188.8056
 11
330.0161
 21
-205.7056
  0
LINE
  8
0
  6
CONTINUOUS
 62
     7
 10
330.65
 20
-188.8056
 11
331.1781
 21
-205.7056
  0
LINE
  8
0
  6
CONTINUOUS
 62
     7
 10
326.2438
 20
-172.6057
 11
329.5438
 21
-172.6057
  0
LINE
  8
0
  6
CONTINUOUS
 62
     7
 10
326.2438
 20
-187.3057
 11
339.4438
 21
-187.3057
  0
LINE
  8
0
  6
CONTINUOUS
 62
     7
 10
354.2437
 20
-172.6057
 11
353.3777
 21
-171.1057
  0
LINE
  8
0
  6
CONTINUOUS
 62
     7
 10
326.2437
 20
-187.3057
 11
327.1097
 21
-188.8057
  0
LINE
  8
0
  6
CONTINUOUS
 62
     7
 10
326.2437
 20
-172.6056
 11
327.1098
 21
-171.1056
  0
LINE
  8
0
  6
CONTINUOUS
 62
     7
 10
354.2437
 20
-187.3056
 11
353.3776
 21
-188.8056
  0
LINE
  8
0
  6
CONTINUOUS
 62
     7
 10
329.3838
 20
-165.7985
 11
329.3838
 21
-171.1057
  0
LINE
  8
0
  6
CONTINUOUS
 62
     7
 10
351.1038
 20
-165.7985
 11
351.1038
 21
-171.1057
  0
LINE
  8
0
  6
CONTINUOUS
 62
     7
 10
328.2438
 20
-165.1057
 11
328.2438
 21
-171.1057
  0
LINE
  8
0
  6
CONTINUOUS
 62
     7
 10
352.2438
 20
-165.1057
 11
352.2438
 21
-171.1057
  0
LINE
  8
0
  6
CONTINUOUS
 62
     7
 10
351.1038
 20
-165.7985
 11
352.2438
 21
-165.7985
  0
LINE
  8
0
  6
CONTINUOUS
 62
     7
 10
329.3838
 20
-165.7985
 11
328.2438
 21
-165.7985
  0
LINE
  8
0
  6
CONTINUOUS
 62
     7
 10
329.7438
 20
-153.9057
 11
350.7438
 21
-153.9057
  0
LINE
  8
0
  6
CONTINUOUS
 62
     7
 10
332.5438
 20
-175.1057
 11
335.6212
 21
-175.1057
  0
LINE
  8
0
  6
CONTINUOUS
 62
     7
 10
329.5438
 20
-172.7057
 11
350.9438
 21
-172.7057
  0
LINE
  8
0
  6
CONTINUOUS
 62
     7
 10
329.5438
 20
-156.8057
 11
350.9438
 21
-156.8057
  0
LINE
  8
0
  6
CONTINUOUS
 62
     7
 10
330.2438
 20
-155.2057
 11
350.2438
 21
-155.2057
  0
LINE
  8
0
  6
CONTINUOUS
 62
     7
 10
329.7438
 20
-153.9057
 11
329.7438
 21
-151.7057
  0
LINE
  8
0
  6
CONTINUOUS
 62
     7
 10
350.7438
 20
-153.9057
 11
350.7438
 21
-151.7057
  0
LINE
  8
0
  6
CONTINUOUS
 62
     7
 10
350.2438
 20
-156.8057
 11
350.2438
 21
-155.2057
  0
LINE
  8
0
  6
CONTINUOUS
 62
     7
 10
330.2438
 20
-156.8057
 11
330.2438
 21
-155.2057
  0
LINE
  8
0
  6
CONTINUOUS
 62
     7
 10
350.9438
 20
-172.7057
 11
350.9438
 21
-156.8057
  0
LINE
  8
0
  6
CONTINUOUS
 62
     7
 10
329.5438
 20
-172.7057
 11
329.5438
 21
-156.8057
  0
LINE
  8
0
  6
CONTINUOUS
 62
     7
 10
332.7438
 20
-155.2057
 11
332.7438
 21
-153.9057
  0
LINE
  8
0
  6
CONTINUOUS
 62
     7
 10
347.7438
 20
-155.2057
 11
347.7438
 21
-153.9057
  0
LINE
  8
0
  6
CONTINUOUS
 62
     7
 10
347.9438
 20
-175.1057
 11
350.9438
 21
-172.7057
  0
LINE
  8
0
  6
CONTINUOUS
 62
     7
 10
344.8663
 20
-175.1057
 11
347.9438
 21
-175.1057
  0
LINE
  8
0
  6
CONTINUOUS
 62
     7
 10
350.9438
 20
-171.1057
 11
353.4438
 21
-171.1057
  0
LINE
  8
0
  6
CONTINUOUS
 62
     7
 10
350.9438
 20
-172.6057
 11
354.2438
 21
-172.6057
  0
LINE
  8
0
  6
CONTINUOUS
 62
     7
 10
341.0438
 20
-187.3057
 11
354.2438
 21
-187.3057
  0
LINE
  8
0
  6
CONTINUOUS
 62
     7
 10
329.7438
 20
-151.7057
 11
350.7438
 21
-151.7057
  0
LINE
  8
0
  6
CENTER
 62
     2
 10
298.6552
 20
-148.1665
 11
298.6552
 21
-192.3422
  0
LINE
  8
0
  6
CONTINUOUS
 62
     7
 10
259.1551
 20
-172.6057
 11
260.0211
 21
-171.1057
  0
LINE
  8
0
  6
CONTINUOUS
 62
     7
 10
259.1552
 20
-172.6057
 11
259.1552
 21
-187.3057
  0
LINE
  8
0
  6
CONTINUOUS
 62
     7
 10
259.1552
 20
-187.3057
 11
260.0211
 21
-188.8057
  0
LINE
  8
0
  6
CONTINUOUS
 62
     7
 10
332.5438
 20
-178.9557
 11
332.5438
 21
-175.1057
  0
LINE
  8
0
  6
CONTINUOUS
 62
     7
 10
332.5438
 20
-175.1057
 11
329.5438
 21
-172.7057
  0
LINE
  8
0
  6
CENTER
 62
     2
 10
205.8244
 20
-179.9557
 11
240.319
 21
-179.9557
  0
LINE
  8
0
  6
CONTINUOUS
 62
     7
 10
287.1552
 20
-186.6557
 11
309.3552
 21
-186.6557
  0
LINE
  8
0
  6
CONTINUOUS
 62
     7
 10
287.1552
 20
-173.2556
 11
289.1468
 21
-173.2556
  0
LINE
  8
0
  6
CONTINUOUS
 62
     7
 10
341.0438
 20
-172.7057
 11
341.0438
 21
-173.3036
  0
LINE
  8
0
  6
CONTINUOUS
 62
     7
 10
339.4438
 20
-172.7057
 11
339.4438
 21
-173.3036
  0
LINE
  8
0
  6
CONTINUOUS
 62
     7
 10
212.6552
 20
-153.9057
 11
212.6552
 21
-151.7057
  0
LINE
  8
0
  6
CONTINUOUS
 62
     7
 10
228.1552
 20
-151.7057
 11
233.6552
 21
-151.7057
  0
LINE
  8
0
  6
CONTINUOUS
 62
     7
 10
233.6552
 20
-153.9057
 11
233.6552
 21
-151.7057
  0
LINE
  8
0
  6
CONTINUOUS
 62
     7
 10
228.1552
 20
-153.9057
 11
233.6552
 21
-153.9057
  0
LINE
  8
0
  6
CONTINUOUS
 62
     7
 10
230.6552
 20
-155.2057
 11
230.6552
 21
-153.9057
  0
LINE
  8
0
  6
CONTINUOUS
 62
     7
 10
215.6552
 20
-155.2057
 11
215.6552
 21
-153.9057
  0
LINE
  8
0
  6
CONTINUOUS
 62
     7
 10
213.1552
 20
-156.8057
 11
213.1552
 21
-155.2057
  0
LINE
  8
0
  6
CONTINUOUS
 62
     7
 10
228.1552
 20
-155.2057
 11
233.1552
 21
-155.2057
  0
LINE
  8
0
  6
CONTINUOUS
 62
     7
 10
233.1552
 20
-156.8057
 11
233.1552
 21
-155.2057
  0
LINE
  8
0
  6
CONTINUOUS
 62
     7
 10
228.1552
 20
-156.8057
 11
233.8552
 21
-156.8057
  0
LINE
  8
0
  6
CONTINUOUS
 62
     7
 10
233.8552
 20
-165.1057
 11
233.8552
 21
-156.8057
  0
LINE
  8
0
  6
CONTINUOUS
 62
     7
 10
212.4551
 20
-165.1057
 11
212.4551
 21
-156.8057
  0
LINE
  8
0
  6
CONTINUOUS
 62
     7
 10
287.9551
 20
-172.7057
 11
309.3552
 21
-172.7057
  0
LINE
  8
0
  6
CONTINUOUS
 62
     7
 10
293.1552
 20
-175.1057
 11
304.1552
 21
-175.1057
  0
LINE
  8
0
  6
CONTINUOUS
 62
     7
 10
309.3552
 20
-173.2556
 11
308.1636
 21
-173.2556
  0
LINE
  8
0
  6
CONTINUOUS
 62
     7
 10
339.4438
 20
-186.6077
 11
339.4438
 21
-188.8057
  0
LINE
  8
0
  6
CONTINUOUS
 62
     7
 10
341.0438
 20
-186.6077
 11
341.0438
 21
-188.8057
  0
LINE
  8
0
  6
CONTINUOUS
 62
     7
 10
347.9438
 20
-178.9557
 11
347.9438
 21
-175.1057
  0
LINE
  8
0
  6
CONTINUOUS
 62
     7
 10
309.3552
 20
-172.7057
 11
304.1552
 21
-175.1057
  0
LINE
  8
0
  6
CONTINUOUS
 62
     7
 10
304.1552
 20
-175.1057
 11
302.1552
 21
-179.9557
  0
LINE
  8
0
  6
CONTINUOUS
 62
     7
 10
287.9552
 20
-172.7057
 11
293.1552
 21
-175.1057
  0
LINE
  8
0
  6
CONTINUOUS
 62
     7
 10
293.1552
 20
-175.1057
 11
295.1552
 21
-179.9557
  0
LINE
  8
0
  6
CONTINUOUS
 62
     7
 10
295.1552
 20
-179.9557
 11
302.1552
 21
-179.9557
  0
LINE
  8
0
  6
CONTINUOUS
 62
     7
 10
285.4478
 20
-124.4057
 11
290.5706
 21
-124.4057
  0
LINE
  8
0
  6
CONTINUOUS
 62
     7
 10
285.4478
 20
-111.0057
 11
290.5706
 21
-111.0057
  0
LINE
  8
0
  6
CONTINUOUS
 62
     7
 10
309.3552
 20
-111.0057
 11
309.3552
 21
-124.4057
  0
LINE
  8
0
  6
CONTINUOUS
 62
     7
 10
306.7397
 20
-124.4057
 11
309.3552
 21
-124.4057
  0
LINE
  8
0
  6
CONTINUOUS
 62
     7
 10
306.7397
 20
-111.0057
 11
309.3552
 21
-111.0057
  0
LINE
  8
0
  6
CONTINUOUS
 62
     7
 10
287.1323
 20
-118.5057
 11
288.1857
 21
-118.5057
  0
LINE
  8
0
  6
CONTINUOUS
 62
     7
 10
287.1323
 20
-116.9057
 11
288.1857
 21
-116.9057
  0
LINE
  8
0
  6
CONTINUOUS
 62
     7
 10
329.5438
 20
-165.1057
 11
328.2438
 21
-165.1057
  0
LINE
  8
0
  6
CONTINUOUS
 62
     7
 10
288.1552
 20
-153.9057
 11
288.1552
 21
-151.7057
  0
LINE
  8
0
  6
CONTINUOUS
 62
     7
 10
288.1552
 20
-151.7057
 11
309.1552
 21
-151.7057
  0
LINE
  8
0
  6
CONTINUOUS
 62
     7
 10
309.1552
 20
-153.9057
 11
309.1552
 21
-151.7057
  0
LINE
  8
0
  6
CONTINUOUS
 62
     7
 10
288.1552
 20
-153.9057
 11
309.1552
 21
-153.9057
  0
LINE
  8
0
  6
CONTINUOUS
 62
     7
 10
306.1552
 20
-155.2057
 11
306.1552
 21
-153.9057
  0
LINE
  8
0
  6
CONTINUOUS
 62
     7
 10
291.1552
 20
-155.2057
 11
291.1552
 21
-153.9057
  0
LINE
  8
0
  6
CONTINUOUS
 62
     7
 10
288.6552
 20
-156.8057
 11
288.6552
 21
-155.2057
  0
LINE
  8
0
  6
CONTINUOUS
 62
     7
 10
288.6552
 20
-155.2057
 11
308.6552
 21
-155.2057
  0
LINE
  8
0
  6
CONTINUOUS
 62
     7
 10
308.6552
 20
-156.8057
 11
308.6552
 21
-155.2057
  0
LINE
  8
0
  6
CONTINUOUS
 62
     7
 10
287.9551
 20
-156.8057
 11
309.3552
 21
-156.8057
  0
LINE
  8
0
  6
CONTINUOUS
 62
     7
 10
309.3552
 20
-188.8057
 11
309.3552
 21
-156.8057
  0
LINE
  8
0
  6
CONTINUOUS
 62
     7
 10
287.9551
 20
-172.7057
 11
287.9551
 21
-156.8057
  0
LINE
  8
0
  6
CONTINUOUS
 62
     7
 10
218.1552
 20
-151.7057
 11
212.6552
 21
-151.7057
  0
LINE
  8
0
  6
CONTINUOUS
 62
     7
 10
218.1552
 20
-153.9057
 11
212.6552
 21
-153.9057
  0
LINE
  8
0
  6
CONTINUOUS
 62
     7
 10
218.1552
 20
-155.2057
 11
213.1552
 21
-155.2057
  0
LINE
  8
0
  6
CONTINUOUS
 62
     7
 10
218.1552
 20
-156.8057
 11
212.4551
 21
-156.8057
  0
LINE
  8
0
  6
CENTER
 62
     2
 10
298.6552
 20
-103.7057
 11
298.6552
 21
-131.7057
  0
LINE
  8
0
  6
CENTER
 62
     2
 10
322.6552
 20
-179.9557
 11
357.9885
 21
-179.9557
  0
LINE
  8
0
  6
CONTINUOUS
 62
     7
 10
287.1552
 20
-186.6557
 11
287.1552
 21
-187.3057
  0
LINE
  8
0
  6
CONTINUOUS
 62
     7
 10
329.5438
 20
-158.8057
 11
350.9438
 21
-158.8057
  0
LINE
  8
0
  6
CONTINUOUS
 62
     7
 10
287.9551
 20
-158.8057
 11
309.3552
 21
-158.8057
  0
LINE
  8
0
  6
CONTINUOUS
 62
     7
 10
228.1552
 20
-158.8057
 11
233.8552
 21
-158.8057
  0
LINE
  8
0
  6
CONTINUOUS
 62
     7
 10
218.1552
 20
-158.8057
 11
212.4551
 21
-158.8057
  0
LINE
  8
0
  6
CENTER
 62
     2
 10
258.3304
 20
-28.0
 11
310.511
 21
-28.0
  0
LINE
  8
0
  6
CENTER
 62
     2
 10
255.8197
 20
-179.9557
 11
312.2145
 21
-179.9557
  0
ARC
  8
0
  6
CONTINUOUS
 62
     7
 10
273.0354
 20
-235.0457
 40
2.21188
 50
0.0
 51
89.99999
  0
ARC
  8
0
  6
CONTINUOUS
 62
     7
 10
291.2836
 20
-246.9346
 40
2.2119
 50
270.0
 51
0.0
  0
ARC
  8
0
  6
CONTINUOUS
 62
     7
 10
290.1776
 20
-236.1516
 40
3.31784
 50
0.0
 51
89.99999
  0
ARC
  8
0
  6
CONTINUOUS
 62
     7
 10
310.3611
 20
-236.8128
 40
2.21189
 50
295.0
 51
0.0
  0
ARC
  8
0
  6
CONTINUOUS
 62
     7
 10
310.3611
 20
-235.0457
 40
2.21188
 50
0.0
 51
89.99999
  0
ARC
  8
0
  6
CONTINUOUS
 62
     7
 10
327.5034
 20
-232.8338
 40
3.31784
 50
291.6884
 51
0.0
  0
ARC
  8
0
  6
CONTINUOUS
 62
     7
 10
326.3973
 20
-232.0834
 40
1.10595
 50
291.689
 51
0.0
  0
CIRCLE
  8
0
  6
CONTINUOUS
 62
     7
 10
-278.1552
 20
187.2057
 40
2.5
  0
CIRCLE
  8
0
  6
CONTINUOUS
 62
     7
 10
-278.1552
 20
187.2057
 40
4.0
  0
CIRCLE
  8
0
  6
CONTINUOUS
 62
     7
 10
-278.1552
 20
187.2057
 40
4.9
  0
ARC
  8
0
  6
CONTINUOUS
 62
     7
 10
-281.6193
 20
129.761
 40
2.04465
 50
55.61592
 51
124.3841
  0
ARC
  8
0
  6
CONTINUOUS
 62
     7
 10
-274.6911
 20
129.761
 40
2.04465
 50
55.61592
 51
124.3841
  0
ARC
  8
0
  6
CONTINUOUS
 62
     7
 10
-278.1552
 20
124.1629
 40
7.64272
 50
72.41212
 51
107.5881
  0
ARC
  8
0
  6
CONTINUOUS
 62
     7
 10
-326.1552
 20
126.0289
 40
5.77671
 50
69.74386
 51
110.2561
  0
ARC
  8
0
  6
CONTINUOUS
 62
     7
 10
-330.1552
 20
126.0289
 40
5.77671
 50
69.74386
 51
110.2561
  0
CIRCLE
  8
0
  6
CONTINUOUS
 62
     7
 10
-278.1552
 20
27.0
 40
7.2
  0
CIRCLE
  8
0
  6
CONTINUOUS
 62
     7
 10
-278.1552
 20
27.0
 40
5.0
  0
CIRCLE
  8
0
  6
CONTINUOUS
 62
     7
 10
-278.1552
 20
27.0
 40
4.0
  0
ARC
  8
0
  6
CONTINUOUS
 62
     7
 10
-323.825
 20
-24.55342
 40
2.15992
 50
108.0672
 51
131.9327
  0
ARC
  8
0
  6
CONTINUOUS
 62
     7
 10
-332.4853
 20
-24.55342
 40
2.15993
 50
48.06726
 51
71.93279
  0
ARC
  8
0
  6
CONTINUOUS
 62
     7
 10
-328.1552
 20
-32.05341
 40
9.55341
 50
72.41204
 51
107.588
  0
ARC
  8
0
  6
CONTINUOUS
 62
     7
 10
-273.825
 20
-24.55342
 40
2.15992
 50
108.0672
 51
131.9327
  0
ARC
  8
0
  6
CONTINUOUS
 62
     7
 10
-282.4853
 20
-24.55342
 40
2.15993
 50
48.06726
 51
71.93279
  0
ARC
  8
0
  6
CONTINUOUS
 62
     7
 10
-278.1552
 20
-32.05341
 40
9.55341
 50
72.41204
 51
107.588
  0
CIRCLE
  8
0
  6
CONTINUOUS
 62
     7
 10
-278.1552
 20
-127.2057
 40
2.5
  0
CIRCLE
  8
0
  6
CONTINUOUS
 62
     7
 10
-278.1552
 20
-127.2057
 40
4.0
  0
CIRCLE
  8
0
  6
CONTINUOUS
 62
     7
 10
-278.1552
 20
-127.2057
 40
4.9
  0
ARC
  8
0
  6
CONTINUOUS
 62
     7
 10
-281.6193
 20
-189.6503
 40
2.04465
 50
55.61592
 51
124.3841
  0
ARC
  8
0
  6
CONTINUOUS
 62
     7
 10
-274.6911
 20
-189.6503
 40
2.04465
 50
55.61592
 51
124.3841
  0
ARC
  8
0
  6
CONTINUOUS
 62
     7
 10
-278.1552
 20
-195.2484
 40
7.64272
 50
72.41212
 51
107.5881
  0
ARC
  8
0
  6
CONTINUOUS
 62
     7
 10
-326.1552
 20
-193.3824
 40
5.77671
 50
69.74386
 51
110.2561
  0
ARC
  8
0
  6
CONTINUOUS
 62
     7
 10
-330.1552
 20
-193.3824
 40
5.77671
 50
69.74386
 51
110.2561
  0
CIRCLE
  8
0
  6
CONTINUOUS
 62
     7
 10
-92.7184
 20
186.7057
 40
7.2
  0
CIRCLE
  8
0
  6
CONTINUOUS
 62
     7
 10
-92.7184
 20
186.7057
 40
5.0
  0
CIRCLE
  8
0
  6
CONTINUOUS
 62
     7
 10
-92.7184
 20
186.7057
 40
4.0
  0
ARC
  8
0
  6
CONTINUOUS
 62
     7
 10
-88.38828
 20
135.4522
 40
2.15992
 50
108.0674
 51
131.9323
  0
ARC
  8
0
  6
CONTINUOUS
 62
     7
 10
-97.04852
 20
135.4522
 40
2.15992
 50
48.06767
 51
71.9326
  0
ARC
  8
0
  6
CONTINUOUS
 62
     7
 10
-92.7184
 20
127.9522
 40
9.55342
 50
72.41206
 51
107.588
  0
ARC
  8
0
  6
CONTINUOUS
 62
     7
 10
-140.2184
 20
130.2848
 40
7.2209
 50
69.7439
 51
110.2561
  0
ARC
  8
0
  6
CONTINUOUS
 62
     7
 10
-145.2184
 20
130.2848
 40
7.2209
 50
69.7439
 51
110.2561
  0
CIRCLE
  8
0
  6
CONTINUOUS
 62
     7
 10
-92.7184
 20
27.0
 40
9.2
  0
CIRCLE
  8
0
  6
CONTINUOUS
 62
     7
 10
-92.7184
 20
27.0
 40
7.0
  0
ARC
  8
0
  6
CONTINUOUS
 62
     7
 10
-86.65622
 20
-22.37479
 40
3.02389
 50
108.0675
 51
131.9325
  0
ARC
  8
0
  6
CONTINUOUS
 62
     7
 10
-98.78058
 20
-22.37479
 40
3.02389
 50
48.06752
 51
71.93237
  0
ARC
  8
0
  6
CONTINUOUS
 62
     7
 10
-92.7184
 20
-32.87481
 40
13.37481
 50
72.41208
 51
107.588
  0
ARC
  8
0
  6
CONTINUOUS
 62
     7
 10
-39.2184
 20
-29.60926
 40
10.10926
 50
69.74388
 51
74.21503
  0
ARC
  8
0
  6
CONTINUOUS
 62
     7
 10
-46.2184
 20
-29.60926
 40
10.10926
 50
105.785
 51
110.2561
  0
ARC
  8
0
  6
CONTINUOUS
 62
     7
 10
-139.2184
 20
-29.60926
 40
10.10926
 50
69.74388
 51
110.2561
  0
ARC
  8
0
  6
CONTINUOUS
 62
     7
 10
-146.2184
 20
-29.60926
 40
10.10926
 50
69.74379
 51
110.2561
  0
CIRCLE
  8
0
  6
CONTINUOUS
 62
     7
 10
-92.7184
 20
-127.7057
 40
7.2
  0
CIRCLE
  8
0
  6
CONTINUOUS
 62
     7
 10
-92.7184
 20
-127.7057
 40
5.0
  0
CIRCLE
  8
0
  6
CONTINUOUS
 62
     7
 10
-92.7184
 20
-127.7057
 40
4.0
  0
ARC
  8
0
  6
CONTINUOUS
 62
     7
 10
-88.38828
 20
-184.2591
 40
2.15992
 50
108.0674
 51
131.9323
  0
ARC
  8
0
  6
CONTINUOUS
 62
     7
 10
-97.04852
 20
-184.2591
 40
2.15992
 50
48.06767
 51
71.9326
  0
ARC
  8
0
  6
CONTINUOUS
 62
     7
 10
-92.7184
 20
-191.7591
 40
9.55341
 50
72.41204
 51
107.588
  0
ARC
  8
0
  6
CONTINUOUS
 62
     7
 10
-140.2184
 20
-189.4265
 40
7.22087
 50
69.7438
 51
110.2562
  0
ARC
  8
0
  6
CONTINUOUS
 62
     7
 10
-145.2184
 20
-189.4265
 40
7.22087
 50
69.7438
 51
110.2562
  0
CIRCLE
  8
0
  6
CONTINUOUS
 62
     7
 10
92.71838
 20
186.7057
 40
9.2
  0
CIRCLE
  8
0
  6
CONTINUOUS
 62
     7
 10
92.71838
 20
186.7057
 40
7.0
  0
ARC
  8
0
  6
CONTINUOUS
 62
     7
 10
98.78056
 20
137.3309
 40
3.02389
 50
108.0675
 51
131.9325
  0
ARC
  8
0
  6
CONTINUOUS
 62
     7
 10
86.6562
 20
137.3309
 40
3.02389
 50
48.06752
 51
71.93237
  0
ARC
  8
0
  6
CONTINUOUS
 62
     7
 10
92.71838
 20
126.8309
 40
13.3748
 50
72.41207
 51
107.588
  0
ARC
  8
0
  6
CONTINUOUS
 62
     7
 10
46.21838
 20
130.0964
 40
10.10925
 50
69.74387
 51
110.2561
  0
ARC
  8
0
  6
CONTINUOUS
 62
     7
 10
39.21838
 20
130.0964
 40
10.10926
 50
69.74383
 51
110.2561
  0
CIRCLE
  8
0
  6
CONTINUOUS
 62
     7
 10
92.71838
 20
186.7057
 40
5.0
  0
CIRCLE
  8
0
  6
CONTINUOUS
 62
     7
 10
92.71838
 20
186.7057
 40
6.5
  0
CIRCLE
  8
0
  6
CONTINUOUS
 62
     7
 10
92.71838
 20
27.0
 40
9.5
  0
ARC
  8
0
  6
CONTINUOUS
 62
     7
 10
100.9456
 20
-19.60919
 40
3.59223
 50
110.7512
 51
129.2487
  0
ARC
  8
0
  6
CONTINUOUS
 62
     7
 10
92.71838
 20
-34.43231
 40
18.18231
 50
75.52268
 51
104.4773
  0
ARC
  8
0
  6
CONTINUOUS
 62
     7
 10
84.49115
 20
-19.60919
 40
3.59223
 50
50.75114
 51
69.24876
  0
ARC
  8
0
  6
CONTINUOUS
 62
     7
 10
47.47089
 20
-29.9654
 40
13.7154
 50
73.31642
 51
106.6836
  0
ARC
  8
0
  6
CONTINUOUS
 62
     7
 10
37.96588
 20
-29.9654
 40
13.7154
 50
73.31637
 51
106.6835
  0
ARC
  8
0
  6
CONTINUOUS
 62
     7
 10
157.4709
 20
-29.9654
 40
13.7154
 50
73.31642
 51
79.50822
  0
ARC
  8
0
  6
CONTINUOUS
 62
     7
 10
147.9659
 20
-29.9654
 40
13.7154
 50
100.4918
 51
106.6835
  0
CIRCLE
  8
0
  6
CONTINUOUS
 62
     7
 10
92.71838
 20
27.0
 40
11.0
  0
CIRCLE
  8
0
  6
CONTINUOUS
 62
     7
 10
92.71838
 20
27.0
 40
8.0
  0
CIRCLE
  8
0
  6
CONTINUOUS
 62
     7
 10
92.71838
 20
27.0
 40
6.5
  0
CIRCLE
  8
0
  6
CONTINUOUS
 62
     7
 10
92.71838
 20
-127.7057
 40
9.2
  0
CIRCLE
  8
0
  6
CONTINUOUS
 62
     7
 10
92.71838
 20
-127.7057
 40
7.0
  0
ARC
  8
0
  6
CONTINUOUS
 62
     7
 10
46.21838
 20
-189.3149
 40
10.10925
 50
69.74387
 51
110.2561
  0
ARC
  8
0
  6
CONTINUOUS
 62
     7
 10
39.21838
 20
-189.3149
 40
10.10926
 50
69.74383
 51
110.2561
  0
CIRCLE
  8
0
  6
CONTINUOUS
 62
     7
 10
92.71838
 20
-127.7057
 40
6.5
  0
CIRCLE
  8
0
  6
CONTINUOUS
 62
     7
 10
92.71838
 20
-127.7057
 40
5.0
  0
CIRCLE
  8
0
  6
CONTINUOUS
 62
     7
 10
273.1552
 20
186.7057
 40
9.5
  0
ARC
  8
0
  6
CONTINUOUS
 62
     7
 10
281.3824
 20
141.0965
 40
3.59223
 50
110.7512
 51
129.2488
  0
ARC
  8
0
  6
CONTINUOUS
 62
     7
 10
273.1552
 20
126.2733
 40
18.18232
 50
75.52264
 51
104.4774
  0
ARC
  8
0
  6
CONTINUOUS
 62
     7
 10
264.9279
 20
141.0965
 40
3.59223
 50
50.75119
 51
69.24877
  0
ARC
  8
0
  6
CONTINUOUS
 62
     7
 10
227.9077
 20
130.7403
 40
13.7154
 50
73.31642
 51
106.6836
  0
ARC
  8
0
  6
CONTINUOUS
 62
     7
 10
218.4026
 20
130.7403
 40
13.7154
 50
73.31635
 51
106.6835
  0
CIRCLE
  8
0
  6
CONTINUOUS
 62
     7
 10
273.1552
 20
186.7057
 40
11.0
  0
CIRCLE
  8
0
  6
CONTINUOUS
 62
     7
 10
273.1552
 20
186.7057
 40
8.0
  0
CIRCLE
  8
0
  6
CONTINUOUS
 62
     7
 10
273.1552
 20
186.7057
 40
6.5
  0
ARC
  8
0
  6
CONTINUOUS
 62
     7
 10
-228.1552
 20
123.8057
 40
2.75
 50
105.8266
 51
254.1734
  0
ARC
  8
0
  6
CONTINUOUS
 62
     7
 10
-225.4052
 20
124.5557
 40
0.75
 50
270.0
 51
0.0
  0
ARC
  8
0
  6
CONTINUOUS
 62
     7
 10
-230.9052
 20
124.5557
 40
0.75
 50
180.0
 51
270.0
  0
ARC
  8
0
  6
CONTINUOUS
 62
     7
 10
-228.1552
 20
123.8057
 40
2.75
 50
285.8266
 51
74.17338
  0
ARC
  8
0
  6
CONTINUOUS
 62
     7
 10
-267.6552
 20
126.9079
 40
3.60227
 50
193.6855
 51
346.3145
  0
ARC
  8
0
  6
CONTINUOUS
 62
     7
 10
-269.1996
 20
123.3057
 40
4.89999
 50
145.8594
 51
214.1406
  0
CIRCLE
  8
0
  6
CONTINUOUS
 62
     7
 10
-267.6552
 20
187.2057
 40
5.0
  0
CIRCLE
  8
0
  6
CONTINUOUS
 62
     7
 10
-267.6552
 20
187.2057
 40
2.1
  0
ARC
  8
0
  6
CONTINUOUS
 62
     7
 10
-265.1552
 20
-27.89773
 40
3.60227
 50
193.6855
 51
346.3145
  0
ARC
  8
0
  6
CONTINUOUS
 62
     7
 10
-265.6959
 20
-32.0
 40
6.45932
 50
144.5103
 51
215.4897
  0
ARC
  8
0
  6
CONTINUOUS
 62
     7
 10
-261.6552
 20
-37.0
 40
1.5
 50
270.0
 51
0.0
  0
ARC
  8
0
  6
CONTINUOUS
 62
     7
 10
-228.1552
 20
-32.0
 40
3.75
 50
101.537
 51
258.463
  0
ARC
  8
0
  6
CONTINUOUS
 62
     7
 10
-228.1552
 20
-32.0
 40
3.75
 50
281.537
 51
78.46304
  0
CIRCLE
  8
0
  6
CONTINUOUS
 62
     7
 10
-265.1552
 20
27.0
 40
5.0
  0
CIRCLE
  8
0
  6
CONTINUOUS
 62
     7
 10
-265.1552
 20
27.0
 40
2.1
  0
ARC
  8
0
  6
CONTINUOUS
 62
     7
 10
-263.2052
 20
-194.3557
 40
1.75
 50
270.0
 51
0.0
  0
ARC
  8
0
  6
CONTINUOUS
 62
     7
 10
-268.7052
 20
-194.3557
 40
1.75
 50
180.0
 51
270.0
  0
ARC
  8
0
  6
CONTINUOUS
 62
     7
 10
-225.4052
 20
-194.3557
 40
1.75
 50
270.0
 51
0.0
  0
ARC
  8
0
  6
CONTINUOUS
 62
     7
 10
-228.1552
 20
-196.1057
 40
2.75
 50
105.8266
 51
254.1734
  0
ARC
  8
0
  6
CONTINUOUS
 62
     7
 10
-228.1552
 20
-196.1057
 40
2.75
 50
285.8266
 51
74.17338
  0
ARC
  8
0
  6
CONTINUOUS
 62
     7
 10
-230.9052
 20
-194.3557
 40
1.75
 50
180.0
 51
270.0
  0
CIRCLE
  8
0
  6
CONTINUOUS
 62
     7
 10
-265.9552
 20
-127.2057
 40
6.25
  0
CIRCLE
  8
0
  6
CONTINUOUS
 62
     7
 10
-265.9552
 20
-127.2057
 40
3.1
  0
ARC
  8
0
  6
CONTINUOUS
 62
     7
 10
-72.7684
 20
-29.75
 40
1.75
 50
270.0
 51
0.0
  0
ARC
  8
0
  6
CONTINUOUS
 62
     7
 10
-78.2684
 20
-29.75
 40
1.75
 50
180.0
 51
270.0
  0
ARC
  8
0
  6
CONTINUOUS
 62
     7
 10
-81.00278
 20
-31.5
 40
4.51563
 50
123.855
 51
236.145
  0
CIRCLE
  8
0
  6
CONTINUOUS
 62
     7
 10
-78.5184
 20
186.7057
 40
6.25
  0
CIRCLE
  8
0
  6
CONTINUOUS
 62
     7
 10
-78.5184
 20
186.7057
 40
3.1
  0
ARC
  8
0
  6
CONTINUOUS
 62
     7
 10
-75.7684
 20
129.4557
 40
1.75
 50
270.0
 51
0.0
  0
ARC
  8
0
  6
CONTINUOUS
 62
     7
 10
-81.2684
 20
129.4557
 40
1.75
 50
180.0
 51
270.0
  0
ARC
  8
0
  6
CONTINUOUS
 62
     7
 10
-73.7684
 20
123.0057
 40
1.5
 50
270.0
 51
0.0
  0
ARC
  8
0
  6
CONTINUOUS
 62
     7
 10
-83.00278
 20
127.7057
 40
4.51563
 50
123.855
 51
236.145
  0
ARC
  8
0
  6
CONTINUOUS
 62
     7
 10
-42.7184
 20
127.7057
 40
3.75001
 50
101.5369
 51
258.463
  0
ARC
  8
0
  6
CONTINUOUS
 62
     7
 10
-39.9684
 20
129.4557
 40
1.75001
 50
304.3548
 51
0.0
  0
ARC
  8
0
  6
CONTINUOUS
 62
     7
 10
-42.7184
 20
127.7057
 40
3.75
 50
281.537
 51
78.46305
  0
ARC
  8
0
  6
CONTINUOUS
 62
     7
 10
-45.4684
 20
129.4557
 40
1.75
 50
180.0
 51
235.6452
  0
ARC
  8
0
  6
CONTINUOUS
 62
     7
 10
-70.7684
 20
-36.0
 40
1.5
 50
270.0
 51
0.0
  0
ARC
  8
0
  6
CONTINUOUS
 62
     7
 10
-42.7184
 20
-31.5
 40
3.75
 50
281.537
 51
78.46304
  0
ARC
  8
0
  6
CONTINUOUS
 62
     7
 10
-45.46841
 20
-29.75
 40
1.75
 50
180.0
 51
235.6451
  0
ARC
  8
0
  6
CONTINUOUS
 62
     7
 10
-42.7184
 20
-31.5
 40
3.75
 50
101.537
 51
258.463
  0
ARC
  8
0
  6
CONTINUOUS
 62
     7
 10
-39.9684
 20
-29.75
 40
1.75
 50
304.3549
 51
0.0
  0
CIRCLE
  8
0
  6
CONTINUOUS
 62
     7
 10
-92.7184
 20
27.0
 40
5.0
  0
CIRCLE
  8
0
  6
CONTINUOUS
 62
     7
 10
-92.7184
 20
27.0
 40
6.5
  0
CIRCLE
  8
0
  6
CONTINUOUS
 62
     7
 10
-75.5184
 20
27.0
 40
6.25
  0
CIRCLE
  8
0
  6
CONTINUOUS
 62
     7
 10
-75.5184
 20
27.0
 40
3.1
  0
ARC
  8
0
  6
CONTINUOUS
 62
     7
 10
108.9184
 20
-28.0
 40
1.0
 50
207.4001
 51
270.0
  0
ARC
  8
0
  6
CONTINUOUS
 62
     7
 10
114.9184
 20
-28.0
 40
1.0
 50
270.0
 51
332.5995
  0
ARC
  8
0
  6
CONTINUOUS
 62
     7
 10
104.434
 20
128.2057
 40
4.51563
 50
123.855
 51
236.145
  0
CIRCLE
  8
0
  6
CONTINUOUS
 62
     7
 10
-77.5184
 20
-127.7057
 40
7.25
  0
CIRCLE
  8
0
  6
CONTINUOUS
 62
     7
 10
-77.5184
 20
-127.7057
 40
4.1
  0
ARC
  8
0
  6
CONTINUOUS
 62
     7
 10
-80.5184
 20
-191.2057
 40
1.0
 50
207.4002
 51
270.0
  0
ARC
  8
0
  6
CONTINUOUS
 62
     7
 10
-74.5184
 20
-191.2057
 40
1.0
 50
270.0
 51
332.5996
  0
ARC
  8
0
  6
CONTINUOUS
 62
     7
 10
-71.7684
 20
-196.7057
 40
1.5
 50
270.0
 51
0.0
  0
ARC
  8
0
  6
CONTINUOUS
 62
     7
 10
-83.00278
 20
-192.2057
 40
4.51563
 50
123.855
 51
236.145
  0
CIRCLE
  8
0
  6
CONTINUOUS
 62
     7
 10
-42.7184
 20
-192.2057
 40
3.75
  0
ARC
  8
0
  6
CONTINUOUS
 62
     7
 10
-47.2184
 20
-191.2057
 40
1.0
 50
180.0
 51
270.0
  0
ARC
  8
0
  6
CONTINUOUS
 62
     7
 10
-38.2184
 20
-191.2057
 40
1.0
 50
270.0
 51
0.0
  0
ARC
  8
0
  6
CONTINUOUS
 62
     7
 10
116.6684
 20
123.7057
 40
1.5
 50
270.0
 51
0.0
  0
CIRCLE
  8
0
  6
CONTINUOUS
 62
     7
 10
152.7184
 20
128.2057
 40
3.75
  0
ARC
  8
0
  6
CONTINUOUS
 62
     7
 10
148.2184
 20
129.2057
 40
1.0
 50
180.0
 51
270.0
  0
ARC
  8
0
  6
CONTINUOUS
 62
     7
 10
157.2184
 20
129.2057
 40
1.0
 50
270.0
 51
0.0
  0
CIRCLE
  8
0
  6
CONTINUOUS
 62
     7
 10
110.9184
 20
186.7057
 40
7.25
  0
CIRCLE
  8
0
  6
CONTINUOUS
 62
     7
 10
110.9184
 20
186.7057
 40
4.1
  0
ARC
  8
0
  6
CONTINUOUS
 62
     7
 10
113.9184
 20
129.2057
 40
1.0
 50
270.0
 51
332.5996
  0
ARC
  8
0
  6
CONTINUOUS
 62
     7
 10
107.9184
 20
129.2057
 40
1.0
 50
207.4002
 51
270.0
  0
ARC
  8
0
  6
CONTINUOUS
 62
     7
 10
117.6684
 20
-35.25
 40
1.5
 50
270.0
 51
0.0
  0
ARC
  8
0
  6
CONTINUOUS
 62
     7
 10
108.359
 20
-29.0
 40
6.64062
 50
134.3327
 51
225.6673
  0
ARC
  8
0
  6
CONTINUOUS
 62
     7
 10
152.7184
 20
-29.0
 40
4.75
 50
0.63565
 51
360.0
  0
ARC
  8
0
  6
CONTINUOUS
 62
     7
 10
148.2184
 20
-28.0
 40
1.0
 50
180.0
 51
255.5288
  0
ARC
  8
0
  6
CONTINUOUS
 62
     7
 10
157.2184
 20
-28.0
 40
1.0
 50
284.4712
 51
0.0
  0
CIRCLE
  8
0
  6
CONTINUOUS
 62
     7
 10
111.9184
 20
27.0
 40
7.25
  0
CIRCLE
  8
0
  6
CONTINUOUS
 62
     7
 10
111.9184
 20
27.0
 40
4.1
  0
ARC
  8
0
  6
CONTINUOUS
 62
     7
 10
289.2051
 20
133.2057
 40
1.5
 50
180.0
 51
270.0
  0
ARC
  8
0
  6
CONTINUOUS
 62
     7
 10
298.7051
 20
133.2057
 40
1.5
 50
270.0
 51
0.0
  0
ARC
  8
0
  6
CONTINUOUS
 62
     7
 10
338.4052
 20
133.2057
 40
1.5
 50
180.0
 51
270.0
  0
ARC
  8
0
  6
CONTINUOUS
 62
     7
 10
347.9052
 20
133.2057
 40
1.5
 50
270.0
 51
0.0
  0
CIRCLE
  8
0
  6
CONTINUOUS
 62
     7
 10
112.5184
 20
-127.7057
 40
8.75
  0
CIRCLE
  8
0
  6
CONTINUOUS
 62
     7
 10
112.5184
 20
-127.7057
 40
5.2
  0
ARC
  8
0
  6
CONTINUOUS
 62
     7
 10
98.78056
 20
-182.0804
 40
3.02389
 50
108.0675
 51
131.9325
  0
ARC
  8
0
  6
CONTINUOUS
 62
     7
 10
86.6562
 20
-182.0804
 40
3.02389
 50
48.06752
 51
71.93237
  0
ARC
  8
0
  6
CONTINUOUS
 62
     7
 10
92.71838
 20
-192.5805
 40
13.3748
 50
72.41207
 51
107.588
  0
ARC
  8
0
  6
CONTINUOUS
 62
     7
 10
104.434
 20
-191.2057
 40
4.51563
 50
123.855
 51
236.145
  0
ARC
  8
0
  6
CONTINUOUS
 62
     7
 10
107.7684
 20
-189.7057
 40
1.5
 50
180.0
 51
270.0
  0
ARC
  8
0
  6
CONTINUOUS
 62
     7
 10
117.2684
 20
-189.7057
 40
1.5
 50
270.0
 51
0.0
  0
ARC
  8
0
  6
CONTINUOUS
 62
     7
 10
119.7684
 20
-195.7057
 40
1.5
 50
270.0
 51
0.0
  0
CIRCLE
  8
0
  6
CONTINUOUS
 62
     7
 10
152.7184
 20
-191.2057
 40
3.75
  0
ARC
  8
0
  6
CONTINUOUS
 62
     7
 10
147.9684
 20
-189.7057
 40
1.5
 50
180.0
 51
270.0
  0
ARC
  8
0
  6
CONTINUOUS
 62
     7
 10
157.4684
 20
-189.7057
 40
1.5
 50
270.0
 51
0.0
  0
CIRCLE
  8
0
  6
CONTINUOUS
 62
     7
 10
343.1552
 20
131.7057
 40
4.75
  0
ARC
  8
0
  6
CONTINUOUS
 62
     7
 10
288.7958
 20
131.2057
 40
6.64063
 50
134.3327
 51
225.6673
  0
ARC
  8
0
  6
CONTINUOUS
 62
     7
 10
301.2051
 20
125.4557
 40
1.5
 50
270.0
 51
0.0
  0
CIRCLE
  8
0
  6
CONTINUOUS
 62
     7
 10
293.9551
 20
186.7057
 40
8.75
  0
CIRCLE
  8
0
  6
CONTINUOUS
 62
     7
 10
293.9551
 20
186.7057
 40
5.2
  0
CIRCLE
  8
0
  6
CONTINUOUS
 62
     7
 10
273.1552
 20
27.0
 40
9.5
  0
ARC
  8
0
  6
CONTINUOUS
 62
     7
 10
281.3824
 20
-18.60919
 40
3.59223
 50
110.7512
 51
129.2489
  0
ARC
  8
0
  6
CONTINUOUS
 62
     7
 10
273.1552
 20
-33.43231
 40
18.18231
 50
75.52264
 51
104.4774
  0
ARC
  8
0
  6
CONTINUOUS
 62
     7
 10
264.9279
 20
-18.60919
 40
3.59223
 50
50.75114
 51
69.24876
  0
ARC
  8
0
  6
CONTINUOUS
 62
     7
 10
227.9077
 20
-28.9654
 40
13.7154
 50
73.31642
 51
106.6836
  0
ARC
  8
0
  6
CONTINUOUS
 62
     7
 10
218.4026
 20
-28.9654
 40
13.7154
 50
73.31635
 51
106.6835
  0
CIRCLE
  8
0
  6
CONTINUOUS
 62
     7
 10
273.1552
 20
27.0
 40
11.0
  0
CIRCLE
  8
0
  6
CONTINUOUS
 62
     7
 10
273.1552
 20
27.0
 40
8.0
  0
CIRCLE
  8
0
  6
CONTINUOUS
 62
     7
 10
273.1552
 20
27.0
 40
6.5
  0
CIRCLE
  8
0
  6
CONTINUOUS
 62
     7
 10
295.6552
 20
27.0
 40
10.5
  0
CIRCLE
  8
0
  6
CONTINUOUS
 62
     7
 10
295.6552
 20
27.0
 40
6.2
  0
CIRCLE
  8
0
  6
CONTINUOUS
 62
     7
 10
333.0186
 20
-28.0
 40
4.8
  0
ARC
  8
0
  6
CONTINUOUS
 62
     7
 10
339.5186
 20
-27.0
 40
1.0
 50
270.0
 51
0.0
  0
ARC
  8
0
  6
CONTINUOUS
 62
     7
 10
326.5186
 20
-27.0
 40
1.0
 50
180.0
 51
270.0
  0
ARC
  8
0
  6
CONTINUOUS
 62
     7
 10
288.9152
 20
-28.0
 40
6.76
 50
134.7603
 51
225.2396
  0
CIRCLE
  8
0
  6
CONTINUOUS
 62
     7
 10
273.1552
 20
-117.7057
 40
12.0
  0
ARC
  8
0
  6
CONTINUOUS
 62
     7
 10
283.5475
 20
-169.2759
 40
4.46942
 50
111.0824
 51
128.9177
  0
ARC
  8
0
  6
CONTINUOUS
 62
     7
 10
262.7628
 20
-169.2759
 40
4.46943
 50
51.08229
 51
68.9176
  0
ARC
  8
0
  6
CONTINUOUS
 62
     7
 10
273.1552
 20
-188.2088
 40
23.10313
 50
75.93293
 51
104.0671
  0
ARC
  8
0
  6
CONTINUOUS
 62
     7
 10
229.1552
 20
-182.498
 40
17.39236
 50
73.77363
 51
106.2264
  0
ARC
  8
0
  6
CONTINUOUS
 62
     7
 10
217.1552
 20
-182.498
 40
17.39236
 50
73.77363
 51
106.2264
  0
CIRCLE
  8
0
  6
CONTINUOUS
 62
     7
 10
273.1552
 20
-117.7057
 40
14.0
  0
CIRCLE
  8
0
  6
CONTINUOUS
 62
     7
 10
298.6552
 20
-117.7057
 40
10.5
  0
CIRCLE
  8
0
  6
CONTINUOUS
 62
     7
 10
298.6552
 20
-117.7057
 40
6.2
  0
CIRCLE
  8
0
  6
CONTINUOUS
 62
     7
 10
273.1552
 20
-117.7057
 40
8.0
  0
CIRCLE
  8
0
  6
CONTINUOUS
 62
     7
 10
273.1552
 20
-117.7057
 40
6.5
  0
CIRCLE
  8
0
  6
CONTINUOUS
 62
     7
 10
340.2438
 20
-179.9557
 40
6.7
  0
ARC
  8
0
  6
CONTINUOUS
 62
     7
 10
333.5438
 20
-178.9557
 40
1.0
 50
180.0
 51
270.0
  0
ARC
  8
0
  6
CONTINUOUS
 62
     7
 10
346.9438
 20
-178.9557
 40
1.0
 50
270.0
 51
0.0
  0
ARC
  8
0
  6
CONTINUOUS
 62
     7
 10
297.3777
 20
-179.9557
 40
12.2225
 50
146.7585
 51
213.2415
  0
TEXT
  8
0
  6
CONTINUOUS
 62
     7
 10
229.0661
 20
236.2625
 40
8.5
  1
DATE : SEP ,1988
 41
0.8
  7
STANDARD
  0
TEXT
  8
0
  6
CONTINUOUS
 62
     7
 10
-370.6947
 20
235.5575
 40
10.0
  1
SPEED CONTROLLER SS-Q
 41
0.58914
  7
STANDARD
  0
TEXT
  8
0
  6
CONTINUOUS
 62
     7
 10
-328.0236
 20
208.2685
 40
7.0
  1
MODEL : SS4-M5A
 41
0.8
  7
STANDARD
  0
TEXT
  8
0
  6
CONTINUOUS
 62
     7
 10
-328.0236
 20
53.56283
 40
7.0
  1
MODEL : SS4-01A
 41
0.8
  7
STANDARD
  0
TEXT
  8
0
  6
CONTINUOUS
 62
     7
 10
-328.0236
 20
-101.1428
 40
7.0
  1
MODEL : SS6-M5A
 41
0.8
  7
STANDARD
  0
TEXT
  8
0
  6
CONTINUOUS
 62
     7
 10
-142.5868
 20
208.2685
 40
7.0
  1
MODEL : SS6-01A
 41
0.8
  7
STANDARD
  0
TEXT
  8
0
  6
CONTINUOUS
 62
     7
 10
-142.5868
 20
53.56283
 40
7.0
  1
MODEL : SS6-02A
 41
0.8
  7
STANDARD
  0
TEXT
  8
0
  6
CONTINUOUS
 62
     7
 10
-142.5868
 20
-101.1428
 40
7.0
  1
MODEL : SS8-01A
 41
0.8
  7
STANDARD
  0
TEXT
  8
0
  6
CONTINUOUS
 62
     7
 10
42.85
 20
208.2685
 40
7.0
  1
MODEL : SS8-02A
 41
0.8
  7
STANDARD
  0
TEXT
  8
0
  6
CONTINUOUS
 62
     7
 10
42.85
 20
53.56283
 40
7.0
  1
MODEL : SS8-03A
 41
0.8
  7
STANDARD
  0
TEXT
  8
0
  6
CONTINUOUS
 62
     7
 10
42.85
 20
-101.1428
 40
7.0
  1
MODEL : SS10-02A
 41
0.8
  7
STANDARD
  0
TEXT
  8
0
  6
CONTINUOUS
 62
     7
 10
228.2868
 20
208.2685
 40
7.0
  1
MODEL : SS10-03A
 41
0.8
  7
STANDARD
  0
TEXT
  8
0
  6
CONTINUOUS
 62
     7
 10
228.2868
 20
53.56283
 40
7.0
  1
MODEL : SS12-03A
 41
0.8
  7
STANDARD
  0
TEXT
  8
0
  6
CONTINUOUS
 62
     7
 10
228.2868
 20
-96.14283
 40
7.0
  1
MODEL : SS12-04A
 41
0.8
  7
STANDARD
  0
ENDSEC
  0
EOF
