  0
SECTION
  2
HEADER
  9
$ACADVER
  1
AC1002
  9
$INSBASE
 10
0.0
 20
0.0
  9
$EXTMIN
 10
-262.2472
 20
-180.0
  9
$EXTMAX
 10
262.2472
 20
180.0
  9
$LIMMIN
 10
0.0
 20
0.0
  9
$LIMMAX
 10
12.0
 20
9.0
  9
$VIEWCTR
 10
20.22981726
 20
0.0
  9
$VIEWSIZE
 40
360.0
  9
$SNAPMODE
 70
     0
  9
$SNAPUNIT
 10
1.0
 20
1.0
  9
$SNAPBASE
 10
0.0
 20
0.0
  9
$SNAPANG
 50
0.0
  9
$SNAPSTYLE
 70
     0
  9
$SNAPISOPAIR
 70
     0
  9
$GRIDMODE
 70
     0
  9
$GRIDUNIT
 10
0.0
 20
0.0
  9
$ORTHOMODE
 70
     0
  9
$REGENMODE
 70
     1
  9
$FILLMODE
 70
     1
  9
$QTEXTMODE
 70
     0
  9
$DRAGMODE
 70
     2
  9
$LTSCALE
 40
1.0
  9
$OSMODE
 70
     0
  9
$ATTMODE
 70
     1
  9
$TEXTSIZE
 40
0.2
  9
$TRACEWID
 40
0.05
  9
$TEXTSTYLE
  7
AAA
  9
$CLAYER
  8
0
  9
$CELTYPE
  6
BYLAYER
  9
$CECOLOR
 62
   256
  9
$DIMSCALE
 40
1.0
  9
$DIMASZ
 40
0.18
  9
$DIMEXO
 40
0.0625
  9
$DIMDLI
 40
0.38
  9
$DIMRND
 40
0.0
  9
$DIMDLE
 40
0.0
  9
$DIMEXE
 40
0.18
  9
$DIMTP
 40
0.0
  9
$DIMTM
 40
0.0
  9
$DIMTXT
 40
0.18
  9
$DIMCEN
 40
0.09
  9
$DIMTSZ
 40
0.0
  9
$DIMTOL
 70
     0
  9
$DIMLIM
 70
     0
  9
$DIMTIH
 70
     1
  9
$DIMTOH
 70
     1
  9
$DIMSE1
 70
     0
  9
$DIMSE2
 70
     0
  9
$DIMTAD
 70
     0
  9
$DIMZIN
 70
     0
  9
$DIMBLK
  1

  9
$LUNITS
 70
     2
  9
$LUPREC
 70
     4
  9
$AXISMODE
 70
     0
  9
$AXISUNIT
 10
0.0
 20
0.0
  9
$SKETCHINC
 40
0.1
  9
$FILLETRAD
 40
0.0
  9
$AUNITS
 70
     0
  9
$AUPREC
 70
     0
  9
$MENU
  1
ACAD
  9
$ELEVATION
 40
0.0
  9
$THICKNESS
 40
0.0
  9
$VIEWDIR
 10
0.0
 20
0.0
 30
1.0
  9
$LIMCHECK
 70
     0
  9
$BLIPMODE
 70
     1
  9
$CHAMFERA
 40
0.0
  9
$CHAMFERB
 40
0.0
  9
$FASTZOOM
 70
     1
  9
$SKPOLY
 70
     0
  9
$TDCREATE
 40
2447820.6582292161
  9
$TDUPDATE
 40
2447820.6582292161
  9
$TDINDWG
 40
0.0034375000
  9
$TDUSRTIMER
 40
0.0034375000
  9
$USRTIMER
 70
     1
  9
$ANGBASE
 50
0.0
  9
$ANGDIR
 70
     0
  9
$PDMODE
 70
     0
  9
$PDSIZE
 40
0.0
  9
$PLINEWID
 40
0.0
  9
$COORDS
 70
     0
  9
$USERI1
 70
     0
  9
$USERI2
 70
     0
  9
$USERI3
 70
     0
  9
$USERI4
 70
     0
  9
$USERI5
 70
     0
  9
$USERR1
 40
0.0
  9
$USERR2
 40
0.0
  9
$USERR3
 40
0.0
  9
$USERR4
 40
0.0
  9
$USERR5
 40
0.0
  0
ENDSEC
  0
SECTION
  2
TABLES
  0
TABLE
  2
LTYPE
 70
     2
  0
LTYPE
  2
CONTINUOUS
 70
    64
  3
SOLID
 72
    65
 73
     0
 40
0.0
  0
LTYPE
  2
CENTER
 70
    64
  3
CENTER
 72
    65
 73
     4
 40
2.0
 49
1.25
 49
-0.25
 49
0.25
 49
-0.25
  0
ENDTAB
  0
TABLE
  2
LAYER
 70
     1
  0
LAYER
  2
0
 70
    64
 62
     7
  6
CONTINUOUS
  0
ENDTAB
  0
TABLE
  2
STYLE
 70
     2
  0
STYLE
  2
AAA
 70
     0
 40
0.0
 41
1.0
 50
0.0
 71
     0
 42
0.2
  3
TXT
  4

  0
STYLE
  2
STANDARD
 70
    64
 40
0.0
 41
1.0
 50
0.0
 71
     0
 42
0.2
  3
TXT
  4
BIGFONT
  0
ENDTAB
  0
TABLE
  2
VIEW
 70
     0
  0
ENDTAB
  0
ENDSEC
  0
SECTION
  2
BLOCKS
  0
ENDSEC
  0
SECTION
  2
ENTITIES
  0
POINT
  8
0
  6
CONTINUOUS
 62
     7
 10
-210.1854
 20
71.88764
  0
POINT
  8
0
  6
CONTINUOUS
 62
     7
 10
-207.6854
 20
71.88764
  0
POINT
  8
0
  6
CONTINUOUS
 62
     7
 10
-137.1854
 20
71.88764
  0
POINT
  8
0
  6
CONTINUOUS
 62
     7
 10
-124.1854
 20
71.88764
  0
POINT
  8
0
  6
CONTINUOUS
 62
     7
 10
-124.1854
 20
118.0876
  0
POINT
  8
0
  6
CONTINUOUS
 62
     7
 10
-137.1854
 20
118.0876
  0
POINT
  8
0
  6
CONTINUOUS
 62
     7
 10
-58.18542
 20
71.88764
  0
POINT
  8
0
  6
CONTINUOUS
 62
     7
 10
-55.68542
 20
71.88764
  0
POINT
  8
0
  6
CONTINUOUS
 62
     7
 10
-124.1855
 20
22.08765
  0
POINT
  8
0
  6
CONTINUOUS
 62
     7
 10
-137.1855
 20
22.08765
  0
POINT
  8
0
  6
CONTINUOUS
 62
     7
 10
-129.0854
 20
-42.61238
  0
POINT
  8
0
  6
CONTINUOUS
 62
     7
 10
-122.5854
 20
-42.61238
  0
POINT
  8
0
  6
CONTINUOUS
 62
     7
 10
-210.1854
 20
-109.4124
  0
POINT
  8
0
  6
CONTINUOUS
 62
     7
 10
-207.6854
 20
-109.4124
  0
POINT
  8
0
  6
CONTINUOUS
 62
     7
 10
-129.0854
 20
-109.4124
  0
POINT
  8
0
  6
CONTINUOUS
 62
     7
 10
-122.5854
 20
-109.4124
  0
POINT
  8
0
  6
CONTINUOUS
 62
     7
 10
-58.18542
 20
-109.4124
  0
POINT
  8
0
  6
CONTINUOUS
 62
     7
 10
-55.68542
 20
-109.4124
  0
POINT
  8
0
  6
CONTINUOUS
 62
     7
 10
-129.0854
 20
-152.9124
  0
POINT
  8
0
  6
CONTINUOUS
 62
     7
 10
-122.5854
 20
-152.9124
  0
POINT
  8
0
  6
CONTINUOUS
 62
     7
 10
49.8382
 20
74.88764
  0
POINT
  8
0
  6
CONTINUOUS
 62
     7
 10
57.93819
 20
74.88764
  0
POINT
  8
0
  6
CONTINUOUS
 62
     7
 10
123.4382
 20
127.3877
  0
POINT
  8
0
  6
CONTINUOUS
 62
     7
 10
125.9382
 20
127.3877
  0
POINT
  8
0
  6
CONTINUOUS
 62
     7
 10
123.4382
 20
74.88764
  0
POINT
  8
0
  6
CONTINUOUS
 62
     7
 10
133.2382
 20
74.88764
  0
POINT
  8
0
  6
CONTINUOUS
 62
     7
 10
201.8382
 20
74.88766
  0
POINT
  8
0
  6
CONTINUOUS
 62
     7
 10
205.0382
 20
74.88766
  0
POINT
  8
0
  6
CONTINUOUS
 62
     7
 10
123.4382
 20
27.08765
  0
POINT
  8
0
  6
CONTINUOUS
 62
     7
 10
125.9382
 20
27.08765
  0
POINT
  8
0
  6
CONTINUOUS
 62
     7
 10
124.7303
 20
-42.61242
  0
POINT
  8
0
  6
CONTINUOUS
 62
     7
 10
135.0303
 20
-42.61242
  0
POINT
  8
0
  6
CONTINUOUS
 62
     7
 10
52.63033
 20
-109.4124
  0
POINT
  8
0
  6
CONTINUOUS
 62
     7
 10
55.13033
 20
-109.4124
  0
POINT
  8
0
  6
CONTINUOUS
 62
     7
 10
124.7303
 20
-109.4124
  0
POINT
  8
0
  6
CONTINUOUS
 62
     7
 10
127.2303
 20
-109.4124
  0
POINT
  8
0
  6
CONTINUOUS
 62
     7
 10
203.6304
 20
-109.4124
  0
POINT
  8
0
  6
CONTINUOUS
 62
     7
 10
206.1304
 20
-109.4124
  0
LINE
  8
0
  6
CONTINUOUS
 62
     7
 10
-262.2472
 20
-180.0
 11
-262.2472
 21
180.0
  0
LINE
  8
0
  6
CONTINUOUS
 62
     7
 10
262.2472
 20
180.0
 11
262.2472
 21
-180.0
  0
LINE
  8
0
  6
CONTINUOUS
 62
     7
 10
-262.2472
 20
-180.0
 11
262.2472
 21
-180.0
  0
LINE
  8
0
  6
CONTINUOUS
 62
     7
 10
-262.2472
 20
180.0
 11
262.2472
 21
180.0
  0
LINE
  8
0
  6
CONTINUOUS
 62
     7
 10
-262.2472
 20
159.7753
 11
-154.382
 21
159.7753
  0
LINE
  8
0
  6
CONTINUOUS
 62
     7
 10
-154.382
 20
159.7753
 11
-154.382
 21
180.0
  0
LINE
  8
0
  6
CONTINUOUS
 62
     7
 10
154.382
 20
-159.7753
 11
262.2472
 21
-159.7753
  0
LINE
  8
0
  6
CONTINUOUS
 62
     7
 10
182.7034
 20
-164.6383
 11
193.0652
 21
-164.6383
  0
LINE
  8
0
  6
CONTINUOUS
 62
     7
 10
182.7034
 20
-173.8271
 11
191.5012
 21
-173.8271
  0
LINE
  8
0
  6
CONTINUOUS
 62
     7
 10
182.7034
 20
-176.1732
 11
194.6293
 21
-176.1732
  0
LINE
  8
0
  6
CONTINUOUS
 62
     7
 10
182.7034
 20
-166.9844
 11
191.5012
 21
-166.9844
  0
LINE
  8
0
  6
CONTINUOUS
 62
     7
 10
182.7034
 20
-164.6383
 11
182.7034
 21
-166.9844
  0
LINE
  8
0
  6
CONTINUOUS
 62
     7
 10
194.6293
 20
-166.2024
 11
194.6293
 21
-176.1732
  0
LINE
  8
0
  6
CONTINUOUS
 62
     7
 10
191.5012
 20
-166.9844
 11
191.5012
 21
-173.8271
  0
LINE
  8
0
  6
CONTINUOUS
 62
     7
 10
196.3888
 20
-164.6383
 11
196.3888
 21
-166.9844
  0
LINE
  8
0
  6
CONTINUOUS
 62
     7
 10
207.5326
 20
-166.9844
 11
207.5326
 21
-174.6092
  0
LINE
  8
0
  6
CONTINUOUS
 62
     7
 10
204.4045
 20
-166.9844
 11
204.4045
 21
-173.8271
  0
LINE
  8
0
  6
CONTINUOUS
 62
     7
 10
182.7034
 20
-173.8271
 11
182.7034
 21
-176.1732
  0
LINE
  8
0
  6
CONTINUOUS
 62
     7
 10
196.3888
 20
-164.6383
 11
199.4796
 21
-164.6383
  0
LINE
  8
0
  6
CONTINUOUS
 62
     7
 10
196.3888
 20
-176.1732
 11
198.8176
 21
-176.1732
  0
LINE
  8
0
  6
CONTINUOUS
 62
     7
 10
196.3887
 20
-176.1731
 11
198.8509
 21
-166.9843
  0
LINE
  8
0
  6
CONTINUOUS
 62
     7
 10
196.3888
 20
-166.9844
 11
198.8509
 21
-166.9844
  0
LINE
  8
0
  6
CONTINUOUS
 62
     7
 10
198.8178
 20
-176.1733
 11
201.2799
 21
-166.9845
  0
LINE
  8
0
  6
CONTINUOUS
 62
     7
 10
202.0584
 20
-173.8271
 11
204.4045
 21
-173.8271
  0
LINE
  8
0
  6
CONTINUOUS
 62
     7
 10
202.0583
 20
-173.8271
 11
202.6869
 21
-176.1731
  0
LINE
  8
0
  6
CONTINUOUS
 62
     7
 10
202.6871
 20
-176.1732
 11
205.9686
 21
-176.1732
  0
LINE
  8
0
  6
CONTINUOUS
 62
     7
 10
201.2798
 20
-166.9844
 11
204.4045
 21
-166.9844
  0
LINE
  8
0
  6
CONTINUOUS
 62
     7
 10
201.9084
 20
-164.6383
 11
205.1865
 21
-164.6383
  0
LINE
  8
0
  6
CONTINUOUS
 62
     7
 10
199.4796
 20
-164.6384
 11
199.9458
 21
-162.8984
  0
LINE
  8
0
  6
CONTINUOUS
 62
     7
 10
201.9082
 20
-164.6382
 11
202.3744
 21
-162.8982
  0
LINE
  8
0
  6
CONTINUOUS
 62
     7
 10
209.4877
 20
-164.6383
 11
213.2023
 21
-164.6383
  0
LINE
  8
0
  6
CONTINUOUS
 62
     7
 10
209.4877
 20
-166.9844
 11
218.6106
 21
-166.9844
  0
LINE
  8
0
  6
CONTINUOUS
 62
     7
 10
213.2023
 20
-176.1732
 11
216.3303
 21
-176.1732
  0
LINE
  8
0
  6
CONTINUOUS
 62
     7
 10
209.4877
 20
-164.6383
 11
209.4877
 21
-166.9844
  0
LINE
  8
0
  6
CONTINUOUS
 62
     7
 10
221.0225
 20
-171.2385
 11
221.0225
 21
-173.8271
  0
LINE
  8
0
  6
CONTINUOUS
 62
     7
 10
209.4875
 20
-173.827
 11
213.2022
 21
-172.0948
  0
LINE
  8
0
  6
CONTINUOUS
 62
     7
 10
209.4879
 20
-171.2387
 11
218.6108
 21
-166.9846
  0
LINE
  8
0
  6
CONTINUOUS
 62
     7
 10
209.4877
 20
-171.2385
 11
209.4877
 21
-173.8271
  0
LINE
  8
0
  6
CONTINUOUS
 62
     7
 10
216.3302
 20
-171.6391
 11
221.0225
 21
-173.827
  0
LINE
  8
0
  6
CONTINUOUS
 62
     7
 10
218.0311
 20
-169.8436
 11
221.0228
 21
-171.2387
  0
LINE
  8
0
  6
CONTINUOUS
 62
     7
 10
221.0225
 20
-166.2024
 11
221.0225
 21
-167.4519
  0
LINE
  8
0
  6
CONTINUOUS
 62
     7
 10
213.2023
 20
-162.8984
 11
213.2023
 21
-164.6383
  0
LINE
  8
0
  6
CONTINUOUS
 62
     7
 10
216.3303
 20
-162.8984
 11
216.3303
 21
-164.6383
  0
LINE
  8
0
  6
CONTINUOUS
 62
     7
 10
216.3303
 20
-164.6383
 11
219.4585
 21
-164.6383
  0
LINE
  8
0
  6
CONTINUOUS
 62
     7
 10
213.2023
 20
-172.095
 11
213.2023
 21
-176.1732
  0
LINE
  8
0
  6
CONTINUOUS
 62
     7
 10
216.3303
 20
-171.6392
 11
216.3303
 21
-176.1732
  0
LINE
  8
0
  6
CONTINUOUS
 62
     7
 10
218.031
 20
-169.8436
 11
220.1197
 21
-168.8696
  0
LINE
  8
0
  6
CONTINUOUS
 62
     7
 10
231.5798
 20
-163.6022
 11
233.9258
 21
-163.6022
  0
LINE
  8
0
  6
CONTINUOUS
 62
     7
 10
222.0001
 20
-168.4483
 11
222.0001
 21
-170.9731
  0
LINE
  8
0
  6
CONTINUOUS
 62
     7
 10
233.9258
 20
-163.6022
 11
233.9258
 21
-164.6383
  0
LINE
  8
0
  6
CONTINUOUS
 62
     7
 10
231.5798
 20
-163.6022
 11
231.5798
 21
-164.1077
  0
LINE
  8
0
  6
CONTINUOUS
 62
     7
 10
228.4517
 20
-168.4072
 11
228.4517
 21
-176.1732
  0
LINE
  8
0
  6
CONTINUOUS
 62
     7
 10
222.0001
 20
-168.4484
 11
231.0869
 21
-164.8345
  0
LINE
  8
0
  6
CONTINUOUS
 62
     7
 10
222.0001
 20
-170.9732
 11
228.4517
 21
-168.4073
  0
LINE
  8
0
  6
CONTINUOUS
 62
     7
 10
228.4517
 20
-176.1732
 11
231.5798
 21
-176.1732
  0
LINE
  8
0
  6
CONTINUOUS
 62
     7
 10
231.5798
 20
-167.1632
 11
231.5798
 21
-176.1732
  0
LINE
  8
0
  6
CONTINUOUS
 62
     7
 10
231.5801
 20
-167.1633
 11
232.4471
 21
-166.8185
  0
LINE
  8
0
  6
CONTINUOUS
 62
     7
 10
199.7572
 20
-162.8984
 11
202.3746
 21
-162.8984
  0
LINE
  8
0
  6
CONTINUOUS
 62
     7
 10
206.2618
 20
-162.8984
 11
207.2589
 21
-162.8984
  0
LINE
  8
0
  6
CONTINUOUS
 62
     7
 10
213.2023
 20
-162.8984
 11
216.3303
 21
-162.8984
  0
LINE
  8
0
  6
CONTINUOUS
 62
     7
 10
206.2618
 20
-164.4624
 11
207.2589
 21
-164.4624
  0
LINE
  8
0
  6
CONTINUOUS
 62
     7
 10
206.2618
 20
-162.8984
 11
206.2618
 21
-164.4624
  0
LINE
  8
0
  6
CONTINUOUS
 62
     7
 10
207.2589
 20
-162.8984
 11
207.2589
 21
-164.4624
  0
LINE
  8
0
  6
CONTINUOUS
 62
     7
 10
207.8454
 20
-162.8984
 11
207.8454
 21
-164.4624
  0
LINE
  8
0
  6
CONTINUOUS
 62
     7
 10
208.9598
 20
-162.8984
 11
208.9598
 21
-164.4624
  0
LINE
  8
0
  6
CONTINUOUS
 62
     7
 10
207.8454
 20
-162.8984
 11
208.9598
 21
-162.8984
  0
LINE
  8
0
  6
CONTINUOUS
 62
     7
 10
207.8454
 20
-164.4624
 11
208.9598
 21
-164.4624
  0
LINE
  8
0
  6
CONTINUOUS
 62
     7
 10
154.382
 20
159.7753
 11
262.2472
 21
159.7753
  0
LINE
  8
0
  6
CONTINUOUS
 62
     7
 10
154.382
 20
180.0
 11
154.382
 21
159.7753
  0
LINE
  8
0
  6
CONTINUOUS
 62
     7
 10
154.382
 20
-159.7753
 11
154.382
 21
-180.0
  0
LINE
  8
0
  6
CONTINUOUS
 62
     7
 10
-262.2472
 20
-0.00002
 11
262.2472
 21
-0.00002
  0
LINE
  8
0
  6
CONTINUOUS
 62
     7
 10
0.0
 20
180.0
 11
0.0
 21
-180.0
  0
LINE
  8
0
  6
CONTINUOUS
 62
     7
 10
-137.1854
 20
75.88764
 11
-137.1854
 21
66.88764
  0
LINE
  8
0
  6
CENTER
 62
     2
 10
-138.4022
 20
71.88764
 11
-134.7739
 21
71.88764
  0
LINE
  8
0
  6
CONTINUOUS
 62
     7
 10
-137.1854
 20
66.88764
 11
-124.1854
 21
66.88764
  0
LINE
  8
0
  6
CONTINUOUS
 62
     7
 10
-137.1854
 20
75.88764
 11
-124.1854
 21
75.88764
  0
LINE
  8
0
  6
CONTINUOUS
 62
     7
 10
-124.1854
 20
75.88764
 11
-124.1854
 21
66.88764
  0
LINE
  8
0
  6
CENTER
 62
     2
 10
-126.6854
 20
76.30947
 11
-126.6854
 21
72.47466
  0
LINE
  8
0
  6
CENTER
 62
     2
 10
-134.6854
 20
70.18853
 11
-134.6854
 21
66.57496
  0
LINE
  8
0
  6
CENTER
 62
     2
 10
-136.4465
 20
68.38764
 11
-132.9067
 21
68.38764
  0
LINE
  8
0
  6
CENTER
 62
     2
 10
-129.1409
 20
74.38764
 11
-124.3815
 21
74.38764
  0
LINE
  8
0
  6
CENTER
 62
     2
 10
-126.2928
 20
69.88764
 11
-123.0726
 21
69.88764
  0
LINE
  8
0
  6
CENTER
 62
     2
 10
-130.6854
 20
89.74479
 11
-130.6854
 21
65.62163
  0
LINE
  8
0
  6
CONTINUOUS
 62
     7
 10
-131.6919
 20
84.38764
 11
-131.6919
 21
81.08765
  0
LINE
  8
0
  6
CONTINUOUS
 62
     7
 10
-128.1854
 20
78.58765
 11
-128.1854
 21
75.88764
  0
LINE
  8
0
  6
CONTINUOUS
 62
     7
 10
-133.1854
 20
78.58765
 11
-133.1854
 21
75.88764
  0
LINE
  8
0
  6
CONTINUOUS
 62
     7
 10
-132.6854
 20
79.08765
 11
-128.6854
 21
79.08765
  0
LINE
  8
0
  6
CONTINUOUS
 62
     7
 10
-132.4354
 20
81.08765
 11
-128.9355
 21
81.08765
  0
LINE
  8
0
  6
CONTINUOUS
 62
     7
 10
-131.9854
 20
88.38764
 11
-131.1854
 21
88.38764
  0
LINE
  8
0
  6
CONTINUOUS
 62
     7
 10
-132.4854
 20
84.38764
 11
-128.8854
 21
84.38764
  0
LINE
  8
0
  6
CONTINUOUS
 62
     7
 10
-128.1854
 20
78.58768
 11
-128.6854
 21
79.08768
  0
LINE
  8
0
  6
CONTINUOUS
 62
     7
 10
-132.6854
 20
79.08763
 11
-133.1854
 21
78.58763
  0
LINE
  8
0
  6
CONTINUOUS
 62
     7
 10
-133.1854
 20
78.58765
 11
-128.1854
 21
78.58765
  0
LINE
  8
0
  6
CONTINUOUS
 62
     7
 10
-132.9354
 20
80.58765
 11
-132.9354
 21
79.58765
  0
LINE
  8
0
  6
CONTINUOUS
 62
     7
 10
-128.4354
 20
80.58765
 11
-128.4354
 21
79.58765
  0
LINE
  8
0
  6
CONTINUOUS
 62
     7
 10
-128.4354
 20
80.58765
 11
-128.9354
 21
81.08765
  0
LINE
  8
0
  6
CONTINUOUS
 62
     7
 10
-132.4354
 20
81.08764
 11
-132.9354
 21
80.58765
  0
LINE
  8
0
  6
CONTINUOUS
 62
     7
 10
-132.9355
 20
79.58765
 11
-132.4355
 21
79.08765
  0
LINE
  8
0
  6
CONTINUOUS
 62
     7
 10
-128.9354
 20
79.08765
 11
-128.4354
 21
79.58765
  0
LINE
  8
0
  6
CONTINUOUS
 62
     7
 10
-132.9354
 20
80.58765
 11
-128.4354
 21
80.58765
  0
LINE
  8
0
  6
CONTINUOUS
 62
     7
 10
-132.9354
 20
79.58765
 11
-128.4354
 21
79.58765
  0
LINE
  8
0
  6
CONTINUOUS
 62
     7
 10
-128.8854
 20
87.88764
 11
-128.8854
 21
84.38764
  0
LINE
  8
0
  6
CONTINUOUS
 62
     7
 10
-132.4854
 20
87.88764
 11
-132.4854
 21
84.38764
  0
LINE
  8
0
  6
CONTINUOUS
 62
     7
 10
-128.8854
 20
87.88767
 11
-129.3854
 21
88.38767
  0
LINE
  8
0
  6
CONTINUOUS
 62
     7
 10
-131.9854
 20
88.38762
 11
-132.4854
 21
87.88762
  0
LINE
  8
0
  6
CONTINUOUS
 62
     7
 10
-132.4854
 20
87.88764
 11
-131.1854
 21
87.88764
  0
LINE
  8
0
  6
CONTINUOUS
 62
     7
 10
-131.1854
 20
88.38764
 11
-131.1854
 21
87.58765
  0
LINE
  8
0
  6
CONTINUOUS
 62
     7
 10
-131.9354
 20
84.38764
 11
-131.9354
 21
81.08765
  0
LINE
  8
0
  6
CONTINUOUS
 62
     7
 10
-129.4354
 20
84.38764
 11
-129.4354
 21
81.08765
  0
LINE
  8
0
  6
CONTINUOUS
 62
     7
 10
-129.6789
 20
84.38764
 11
-129.6789
 21
81.08765
  0
LINE
  8
0
  6
CONTINUOUS
 62
     7
 10
-131.1854
 20
87.58765
 11
-130.1854
 21
87.58765
  0
LINE
  8
0
  6
CONTINUOUS
 62
     7
 10
-130.1854
 20
88.38764
 11
-130.1854
 21
87.58765
  0
LINE
  8
0
  6
CONTINUOUS
 62
     7
 10
-130.1854
 20
88.38764
 11
-129.3854
 21
88.38764
  0
LINE
  8
0
  6
CONTINUOUS
 62
     7
 10
-130.1854
 20
87.88764
 11
-128.8854
 21
87.88764
  0
LINE
  8
0
  6
CONTINUOUS
 62
     7
 10
-131.9354
 20
80.58765
 11
-131.9354
 21
79.58765
  0
LINE
  8
0
  6
CONTINUOUS
 62
     7
 10
-130.9354
 20
80.58765
 11
-130.9354
 21
79.58765
  0
LINE
  8
0
  6
CONTINUOUS
 62
     7
 10
-131.4854
 20
87.88764
 11
-131.4854
 21
84.38764
  0
LINE
  8
0
  6
CONTINUOUS
 62
     7
 10
-130.4854
 20
87.58765
 11
-130.4854
 21
84.38764
  0
LINE
  8
0
  6
CONTINUOUS
 62
     7
 10
-132.1854
 20
78.58765
 11
-132.1854
 21
75.88764
  0
LINE
  8
0
  6
CONTINUOUS
 62
     7
 10
-131.1854
 20
78.58765
 11
-131.1854
 21
75.88764
  0
LINE
  8
0
  6
CONTINUOUS
 62
     7
 10
-137.1854
 20
115.5876
 11
-124.1854
 21
115.5876
  0
LINE
  8
0
  6
CONTINUOUS
 62
     7
 10
-137.1854
 20
120.5876
 11
-124.1854
 21
120.5876
  0
LINE
  8
0
  6
CONTINUOUS
 62
     7
 10
-124.1854
 20
115.5876
 11
-124.1854
 21
120.5876
  0
LINE
  8
0
  6
CONTINUOUS
 62
     7
 10
-137.1854
 20
115.5876
 11
-137.1854
 21
120.5876
  0
LINE
  8
0
  6
CENTER
 62
     2
 10
-130.6854
 20
113.9884
 11
-130.6854
 21
122.1948
  0
LINE
  8
0
  6
CENTER
 62
     2
 10
-138.7751
 20
118.0876
 11
-122.7868
 21
118.0876
  0
LINE
  8
0
  6
CONTINUOUS
 62
     7
 10
-130.1854
 20
116.3585
 11
-130.1854
 21
119.8168
  0
LINE
  8
0
  6
CONTINUOUS
 62
     7
 10
-131.1854
 20
116.3585
 11
-131.1854
 21
119.8168
  0
LINE
  8
0
  6
CENTER
 62
     2
 10
-210.1854
 20
89.74479
 11
-210.1854
 21
65.67865
  0
LINE
  8
0
  6
CONTINUOUS
 62
     7
 10
-211.1919
 20
84.38764
 11
-211.1919
 21
81.08765
  0
LINE
  8
0
  6
CONTINUOUS
 62
     7
 10
-212.1854
 20
79.08765
 11
-208.1854
 21
79.08765
  0
LINE
  8
0
  6
CONTINUOUS
 62
     7
 10
-211.9354
 20
81.08765
 11
-208.4355
 21
81.08765
  0
LINE
  8
0
  6
CONTINUOUS
 62
     7
 10
-211.4854
 20
88.38764
 11
-208.8854
 21
88.38764
  0
LINE
  8
0
  6
CONTINUOUS
 62
     7
 10
-211.9854
 20
84.38764
 11
-208.3854
 21
84.38764
  0
LINE
  8
0
  6
CONTINUOUS
 62
     7
 10
-207.6854
 20
78.58766
 11
-208.1854
 21
79.08766
  0
LINE
  8
0
  6
CONTINUOUS
 62
     7
 10
-212.1854
 20
79.08762
 11
-212.6854
 21
78.58762
  0
LINE
  8
0
  6
CONTINUOUS
 62
     7
 10
-212.6854
 20
78.58765
 11
-207.6854
 21
78.58765
  0
LINE
  8
0
  6
CONTINUOUS
 62
     7
 10
-212.4354
 20
80.58765
 11
-212.4354
 21
79.58765
  0
LINE
  8
0
  6
CONTINUOUS
 62
     7
 10
-207.9354
 20
80.58765
 11
-207.9354
 21
79.58765
  0
LINE
  8
0
  6
CONTINUOUS
 62
     7
 10
-207.9354
 20
80.58762
 11
-208.4354
 21
81.08764
  0
LINE
  8
0
  6
CONTINUOUS
 62
     7
 10
-211.9354
 20
81.08764
 11
-212.4354
 21
80.58764
  0
LINE
  8
0
  6
CONTINUOUS
 62
     7
 10
-212.4355
 20
79.58765
 11
-211.9355
 21
79.08765
  0
LINE
  8
0
  6
CONTINUOUS
 62
     7
 10
-208.4354
 20
79.0876
 11
-207.9354
 21
79.5876
  0
LINE
  8
0
  6
CONTINUOUS
 62
     7
 10
-212.4354
 20
80.58765
 11
-207.9354
 21
80.58765
  0
LINE
  8
0
  6
CONTINUOUS
 62
     7
 10
-212.4354
 20
79.58765
 11
-207.9354
 21
79.58765
  0
LINE
  8
0
  6
CONTINUOUS
 62
     7
 10
-208.3854
 20
87.88764
 11
-208.3854
 21
84.38764
  0
LINE
  8
0
  6
CONTINUOUS
 62
     7
 10
-211.9854
 20
87.88764
 11
-211.9854
 21
84.38764
  0
LINE
  8
0
  6
CONTINUOUS
 62
     7
 10
-208.3854
 20
87.88764
 11
-208.8854
 21
88.38764
  0
LINE
  8
0
  6
CONTINUOUS
 62
     7
 10
-211.4854
 20
88.3876
 11
-211.9854
 21
87.8876
  0
LINE
  8
0
  6
CONTINUOUS
 62
     7
 10
-211.9854
 20
87.88764
 11
-208.3854
 21
87.88764
  0
LINE
  8
0
  6
CONTINUOUS
 62
     7
 10
-211.4354
 20
84.38764
 11
-211.4354
 21
81.08765
  0
LINE
  8
0
  6
CONTINUOUS
 62
     7
 10
-208.9354
 20
84.38764
 11
-208.9354
 21
81.08765
  0
LINE
  8
0
  6
CONTINUOUS
 62
     7
 10
-209.1789
 20
84.38764
 11
-209.1789
 21
81.08765
  0
LINE
  8
0
  6
CONTINUOUS
 62
     7
 10
-211.4354
 20
80.58765
 11
-211.4354
 21
79.58765
  0
LINE
  8
0
  6
CONTINUOUS
 62
     7
 10
-210.4354
 20
80.58765
 11
-210.4354
 21
79.58765
  0
LINE
  8
0
  6
CONTINUOUS
 62
     7
 10
-210.9854
 20
87.88764
 11
-210.9854
 21
84.38764
  0
LINE
  8
0
  6
CONTINUOUS
 62
     7
 10
-209.9854
 20
87.88764
 11
-209.9854
 21
84.38764
  0
LINE
  8
0
  6
CONTINUOUS
 62
     7
 10
-211.6854
 20
78.58765
 11
-211.6854
 21
75.88764
  0
LINE
  8
0
  6
CONTINUOUS
 62
     7
 10
-210.6854
 20
78.58765
 11
-210.6854
 21
75.88764
  0
LINE
  8
0
  6
CONTINUOUS
 62
     7
 10
-212.6854
 20
78.58765
 11
-212.6854
 21
66.88764
  0
LINE
  8
0
  6
CONTINUOUS
 62
     7
 10
-207.6854
 20
78.58765
 11
-207.6854
 21
66.88764
  0
LINE
  8
0
  6
CONTINUOUS
 62
     7
 10
-212.6854
 20
75.88764
 11
-207.6854
 21
75.88764
  0
LINE
  8
0
  6
CONTINUOUS
 62
     7
 10
-212.6854
 20
66.88764
 11
-207.6854
 21
66.88764
  0
LINE
  8
0
  6
CENTER
 62
     2
 10
-213.6854
 20
71.88764
 11
-206.6854
 21
71.88764
  0
LINE
  8
0
  6
CENTER
 62
     2
 10
-58.18542
 20
89.74477
 11
-58.18542
 21
65.67863
  0
LINE
  8
0
  6
CONTINUOUS
 62
     7
 10
-59.19193
 20
84.38763
 11
-59.19193
 21
81.08763
  0
LINE
  8
0
  6
CONTINUOUS
 62
     7
 10
-60.18541
 20
79.08763
 11
-56.18542
 21
79.08763
  0
LINE
  8
0
  6
CONTINUOUS
 62
     7
 10
-59.93541
 20
81.08763
 11
-56.43544
 21
81.08763
  0
LINE
  8
0
  6
CONTINUOUS
 62
     7
 10
-59.48541
 20
88.38763
 11
-56.88544
 21
88.38763
  0
LINE
  8
0
  6
CONTINUOUS
 62
     7
 10
-59.98543
 20
84.38763
 11
-56.38542
 21
84.38763
  0
LINE
  8
0
  6
CONTINUOUS
 62
     7
 10
-55.68541
 20
78.58763
 11
-56.18541
 21
79.08763
  0
LINE
  8
0
  6
CONTINUOUS
 62
     7
 10
-60.18539
 20
79.0876
 11
-60.68539
 21
78.5876
  0
LINE
  8
0
  6
CONTINUOUS
 62
     7
 10
-60.68542
 20
78.58763
 11
-55.68542
 21
78.58763
  0
LINE
  8
0
  6
CONTINUOUS
 62
     7
 10
-60.43542
 20
80.58763
 11
-60.43542
 21
79.58763
  0
LINE
  8
0
  6
CONTINUOUS
 62
     7
 10
-55.93542
 20
80.58763
 11
-55.93542
 21
79.58763
  0
LINE
  8
0
  6
CONTINUOUS
 62
     7
 10
-55.93543
 20
80.58762
 11
-56.43543
 21
81.08762
  0
LINE
  8
0
  6
CONTINUOUS
 62
     7
 10
-59.93541
 20
81.08762
 11
-60.43541
 21
80.58762
  0
LINE
  8
0
  6
CONTINUOUS
 62
     7
 10
-60.43544
 20
79.58762
 11
-59.93544
 21
79.08762
  0
LINE
  8
0
  6
CONTINUOUS
 62
     7
 10
-56.43541
 20
79.08762
 11
-55.93541
 21
79.58762
  0
LINE
  8
0
  6
CONTINUOUS
 62
     7
 10
-60.43542
 20
80.58763
 11
-55.93542
 21
80.58763
  0
LINE
  8
0
  6
CONTINUOUS
 62
     7
 10
-60.43542
 20
79.58763
 11
-55.93542
 21
79.58763
  0
LINE
  8
0
  6
CONTINUOUS
 62
     7
 10
-56.38542
 20
87.88763
 11
-56.38542
 21
84.38763
  0
LINE
  8
0
  6
CONTINUOUS
 62
     7
 10
-59.98543
 20
87.88763
 11
-59.98543
 21
84.38763
  0
LINE
  8
0
  6
CONTINUOUS
 62
     7
 10
-56.38541
 20
87.88763
 11
-56.88541
 21
88.38763
  0
LINE
  8
0
  6
CONTINUOUS
 62
     7
 10
-59.48542
 20
88.3876
 11
-59.98542
 21
87.8876
  0
LINE
  8
0
  6
CONTINUOUS
 62
     7
 10
-59.98543
 20
87.88763
 11
-56.38542
 21
87.88763
  0
LINE
  8
0
  6
CONTINUOUS
 62
     7
 10
-59.43542
 20
84.38763
 11
-59.43542
 21
81.08763
  0
LINE
  8
0
  6
CONTINUOUS
 62
     7
 10
-56.93542
 20
84.38763
 11
-56.93542
 21
81.08763
  0
LINE
  8
0
  6
CONTINUOUS
 62
     7
 10
-57.17892
 20
84.38763
 11
-57.17892
 21
81.08763
  0
LINE
  8
0
  6
CONTINUOUS
 62
     7
 10
-59.43542
 20
80.58763
 11
-59.43542
 21
79.58763
  0
LINE
  8
0
  6
CONTINUOUS
 62
     7
 10
-58.43542
 20
80.58763
 11
-58.43542
 21
79.58763
  0
LINE
  8
0
  6
CONTINUOUS
 62
     7
 10
-58.98543
 20
87.88763
 11
-58.98543
 21
84.38763
  0
LINE
  8
0
  6
CONTINUOUS
 62
     7
 10
-57.98543
 20
87.88763
 11
-57.98543
 21
84.38763
  0
LINE
  8
0
  6
CONTINUOUS
 62
     7
 10
-59.68542
 20
78.58763
 11
-59.68542
 21
75.88763
  0
LINE
  8
0
  6
CONTINUOUS
 62
     7
 10
-58.68542
 20
78.58763
 11
-58.68542
 21
75.88763
  0
LINE
  8
0
  6
CONTINUOUS
 62
     7
 10
-60.68542
 20
78.58763
 11
-60.68542
 21
66.88763
  0
LINE
  8
0
  6
CONTINUOUS
 62
     7
 10
-55.68542
 20
78.58763
 11
-55.68542
 21
66.88763
  0
LINE
  8
0
  6
CONTINUOUS
 62
     7
 10
-60.68542
 20
75.88763
 11
-55.68542
 21
75.88763
  0
LINE
  8
0
  6
CONTINUOUS
 62
     7
 10
-60.68542
 20
66.88763
 11
-55.68542
 21
66.88763
  0
LINE
  8
0
  6
CENTER
 62
     2
 10
-61.68542
 20
69.88763
 11
-54.68542
 21
69.88763
  0
LINE
  8
0
  6
CONTINUOUS
 62
     7
 10
-137.1855
 20
24.58765
 11
-124.1855
 21
24.58765
  0
LINE
  8
0
  6
CONTINUOUS
 62
     7
 10
-137.1855
 20
19.58765
 11
-124.1855
 21
19.58765
  0
LINE
  8
0
  6
CONTINUOUS
 62
     7
 10
-137.1855
 20
19.58765
 11
-137.1855
 21
24.58765
  0
LINE
  8
0
  6
CONTINUOUS
 62
     7
 10
-124.1855
 20
19.58765
 11
-124.1855
 21
24.58765
  0
LINE
  8
0
  6
CENTER
 62
     2
 10
-138.7486
 20
22.08765
 11
-122.8689
 21
22.08765
  0
LINE
  8
0
  6
CENTER
 62
     2
 10
-130.6855
 20
25.58765
 11
-130.6855
 21
18.58765
  0
LINE
  8
0
  6
CONTINUOUS
 62
     7
 10
-131.5854
 20
-97.9124
 11
-122.5854
 21
-97.9124
  0
LINE
  8
0
  6
CENTER
 62
     2
 10
-129.0854
 20
-84.05525
 11
-129.0854
 21
-110.7723
  0
LINE
  8
0
  6
CONTINUOUS
 62
     7
 10
-130.0919
 20
-89.4124
 11
-130.0919
 21
-92.71239
  0
LINE
  8
0
  6
CONTINUOUS
 62
     7
 10
-126.5854
 20
-95.21239
 11
-126.5854
 21
-97.9124
  0
LINE
  8
0
  6
CONTINUOUS
 62
     7
 10
-131.5854
 20
-95.21239
 11
-131.5854
 21
-109.4124
  0
LINE
  8
0
  6
CONTINUOUS
 62
     7
 10
-131.0854
 20
-94.71239
 11
-127.0854
 21
-94.71239
  0
LINE
  8
0
  6
CONTINUOUS
 62
     7
 10
-130.8354
 20
-92.71239
 11
-127.3354
 21
-92.71239
  0
LINE
  8
0
  6
CONTINUOUS
 62
     7
 10
-130.3854
 20
-85.4124
 11
-129.5854
 21
-85.4124
  0
LINE
  8
0
  6
CONTINUOUS
 62
     7
 10
-130.8854
 20
-89.4124
 11
-127.2854
 21
-89.4124
  0
LINE
  8
0
  6
CONTINUOUS
 62
     7
 10
-126.5853
 20
-95.21236
 11
-127.0853
 21
-94.71236
  0
LINE
  8
0
  6
CONTINUOUS
 62
     7
 10
-131.0853
 20
-94.71239
 11
-131.5853
 21
-95.21239
  0
LINE
  8
0
  6
CONTINUOUS
 62
     7
 10
-131.5854
 20
-95.21239
 11
-126.5854
 21
-95.21239
  0
LINE
  8
0
  6
CONTINUOUS
 62
     7
 10
-131.3354
 20
-93.21239
 11
-131.3354
 21
-94.21239
  0
LINE
  8
0
  6
CONTINUOUS
 62
     7
 10
-126.8354
 20
-93.21239
 11
-126.8354
 21
-94.21239
  0
LINE
  8
0
  6
CONTINUOUS
 62
     7
 10
-126.8354
 20
-93.21238
 11
-127.3354
 21
-92.71238
  0
LINE
  8
0
  6
CONTINUOUS
 62
     7
 10
-130.8354
 20
-92.71241
 11
-131.3354
 21
-93.2124
  0
LINE
  8
0
  6
CONTINUOUS
 62
     7
 10
-131.3354
 20
-94.21239
 11
-130.8354
 21
-94.71239
  0
LINE
  8
0
  6
CONTINUOUS
 62
     7
 10
-127.3353
 20
-94.71239
 11
-126.8353
 21
-94.21239
  0
LINE
  8
0
  6
CONTINUOUS
 62
     7
 10
-131.3354
 20
-93.21239
 11
-126.8354
 21
-93.21239
  0
LINE
  8
0
  6
CONTINUOUS
 62
     7
 10
-131.3354
 20
-94.21239
 11
-126.8354
 21
-94.21239
  0
LINE
  8
0
  6
CONTINUOUS
 62
     7
 10
-127.2854
 20
-85.9124
 11
-127.2854
 21
-89.4124
  0
LINE
  8
0
  6
CONTINUOUS
 62
     7
 10
-130.8854
 20
-85.9124
 11
-130.8854
 21
-89.4124
  0
LINE
  8
0
  6
CONTINUOUS
 62
     7
 10
-127.2854
 20
-85.91235
 11
-127.7854
 21
-85.41235
  0
LINE
  8
0
  6
CONTINUOUS
 62
     7
 10
-130.3854
 20
-85.4124
 11
-130.8854
 21
-85.9124
  0
LINE
  8
0
  6
CONTINUOUS
 62
     7
 10
-130.8854
 20
-85.9124
 11
-129.5854
 21
-85.9124
  0
LINE
  8
0
  6
CONTINUOUS
 62
     7
 10
-129.5854
 20
-85.4124
 11
-129.5854
 21
-86.21239
  0
LINE
  8
0
  6
CONTINUOUS
 62
     7
 10
-130.3354
 20
-89.4124
 11
-130.3354
 21
-92.71239
  0
LINE
  8
0
  6
CONTINUOUS
 62
     7
 10
-127.8354
 20
-89.4124
 11
-127.8354
 21
-92.71239
  0
LINE
  8
0
  6
CONTINUOUS
 62
     7
 10
-128.0789
 20
-89.4124
 11
-128.0789
 21
-92.71239
  0
LINE
  8
0
  6
CONTINUOUS
 62
     7
 10
-129.5854
 20
-86.21239
 11
-128.5854
 21
-86.21239
  0
LINE
  8
0
  6
CONTINUOUS
 62
     7
 10
-128.5854
 20
-85.4124
 11
-128.5854
 21
-86.21239
  0
LINE
  8
0
  6
CONTINUOUS
 62
     7
 10
-128.5854
 20
-85.4124
 11
-127.7854
 21
-85.4124
  0
LINE
  8
0
  6
CONTINUOUS
 62
     7
 10
-128.5854
 20
-85.9124
 11
-127.2854
 21
-85.9124
  0
LINE
  8
0
  6
CONTINUOUS
 62
     7
 10
-130.3354
 20
-93.21239
 11
-130.3354
 21
-94.21239
  0
LINE
  8
0
  6
CONTINUOUS
 62
     7
 10
-129.3354
 20
-93.21239
 11
-129.3354
 21
-94.21239
  0
LINE
  8
0
  6
CONTINUOUS
 62
     7
 10
-129.8854
 20
-85.9124
 11
-129.8854
 21
-89.4124
  0
LINE
  8
0
  6
CONTINUOUS
 62
     7
 10
-128.8854
 20
-86.21239
 11
-128.8854
 21
-89.4124
  0
LINE
  8
0
  6
CONTINUOUS
 62
     7
 10
-130.5854
 20
-95.21239
 11
-130.5854
 21
-97.9124
  0
LINE
  8
0
  6
CONTINUOUS
 62
     7
 10
-129.5854
 20
-95.21239
 11
-129.5854
 21
-97.9124
  0
LINE
  8
0
  6
CONTINUOUS
 62
     7
 10
-131.5854
 20
-109.4124
 11
-122.5854
 21
-109.4124
  0
LINE
  8
0
  6
CONTINUOUS
 62
     7
 10
-122.5854
 20
-97.9124
 11
-122.5854
 21
-109.4124
  0
LINE
  8
0
  6
CENTER
 62
     2
 10
-124.0854
 20
-97.9124
 11
-124.0854
 21
-101.4522
  0
LINE
  8
0
  6
CENTER
 62
     2
 10
-125.9017
 20
-99.4124
 11
-122.5854
 21
-99.4124
  0
LINE
  8
0
  6
CENTER
 62
     2
 10
-125.7705
 20
-107.9124
 11
-122.5854
 21
-107.9124
  0
LINE
  8
0
  6
CENTER
 62
     2
 10
-124.0854
 20
-105.9153
 11
-124.0854
 21
-109.4124
  0
LINE
  8
0
  6
CENTER
 62
     2
 10
-125.2454
 20
-102.4124
 11
-120.9135
 21
-102.4124
  0
LINE
  8
0
  6
CONTINUOUS
 62
     7
 10
-131.5854
 20
-45.11238
 11
-122.5854
 21
-45.11238
  0
LINE
  8
0
  6
CONTINUOUS
 62
     7
 10
-131.5854
 20
-40.11238
 11
-122.5854
 21
-40.11238
  0
LINE
  8
0
  6
CONTINUOUS
 62
     7
 10
-122.5854
 20
-45.11238
 11
-122.5854
 21
-40.11238
  0
LINE
  8
0
  6
CONTINUOUS
 62
     7
 10
-131.5854
 20
-45.11238
 11
-131.5854
 21
-40.11238
  0
LINE
  8
0
  6
CENTER
 62
     2
 10
-129.0854
 20
-46.71158
 11
-129.0854
 21
-38.50521
  0
LINE
  8
0
  6
CENTER
 62
     2
 10
-132.859
 20
-42.61238
 11
-121.1867
 21
-42.61238
  0
LINE
  8
0
  6
CONTINUOUS
 62
     7
 10
-128.5854
 20
-44.34155
 11
-128.5854
 21
-40.88322
  0
LINE
  8
0
  6
CONTINUOUS
 62
     7
 10
-129.5854
 20
-44.34155
 11
-129.5854
 21
-40.88322
  0
LINE
  8
0
  6
CENTER
 62
     2
 10
-210.1854
 20
-84.05527
 11
-210.1854
 21
-110.7723
  0
LINE
  8
0
  6
CONTINUOUS
 62
     7
 10
-211.1919
 20
-89.41241
 11
-211.1919
 21
-92.71241
  0
LINE
  8
0
  6
CONTINUOUS
 62
     7
 10
-212.1854
 20
-94.71241
 11
-208.1854
 21
-94.71241
  0
LINE
  8
0
  6
CONTINUOUS
 62
     7
 10
-211.9354
 20
-92.71241
 11
-208.4355
 21
-92.71241
  0
LINE
  8
0
  6
CONTINUOUS
 62
     7
 10
-211.4854
 20
-85.41241
 11
-208.8855
 21
-85.41241
  0
LINE
  8
0
  6
CONTINUOUS
 62
     7
 10
-211.9854
 20
-89.41241
 11
-208.3854
 21
-89.41241
  0
LINE
  8
0
  6
CONTINUOUS
 62
     7
 10
-207.6854
 20
-95.21234
 11
-208.1854
 21
-94.71233
  0
LINE
  8
0
  6
CONTINUOUS
 62
     7
 10
-212.1855
 20
-94.71244
 11
-212.6854
 21
-95.21243
  0
LINE
  8
0
  6
CONTINUOUS
 62
     7
 10
-212.6854
 20
-95.21241
 11
-207.6854
 21
-95.21241
  0
LINE
  8
0
  6
CONTINUOUS
 62
     7
 10
-212.4354
 20
-93.21241
 11
-212.4354
 21
-94.21241
  0
LINE
  8
0
  6
CONTINUOUS
 62
     7
 10
-207.9354
 20
-93.21241
 11
-207.9354
 21
-94.21241
  0
LINE
  8
0
  6
CONTINUOUS
 62
     7
 10
-207.9354
 20
-93.21243
 11
-208.4354
 21
-92.71243
  0
LINE
  8
0
  6
CONTINUOUS
 62
     7
 10
-211.9354
 20
-92.71241
 11
-212.4354
 21
-93.21241
  0
LINE
  8
0
  6
CONTINUOUS
 62
     7
 10
-212.4354
 20
-94.21241
 11
-211.9354
 21
-94.71241
  0
LINE
  8
0
  6
CONTINUOUS
 62
     7
 10
-208.4354
 20
-94.71242
 11
-207.9354
 21
-94.21242
  0
LINE
  8
0
  6
CONTINUOUS
 62
     7
 10
-212.4354
 20
-93.21241
 11
-207.9354
 21
-93.21241
  0
LINE
  8
0
  6
CONTINUOUS
 62
     7
 10
-212.4354
 20
-94.21241
 11
-207.9354
 21
-94.21241
  0
LINE
  8
0
  6
CONTINUOUS
 62
     7
 10
-208.3854
 20
-85.91241
 11
-208.3854
 21
-89.41241
  0
LINE
  8
0
  6
CONTINUOUS
 62
     7
 10
-211.9854
 20
-85.91241
 11
-211.9854
 21
-89.41241
  0
LINE
  8
0
  6
CONTINUOUS
 62
     7
 10
-208.3854
 20
-85.91236
 11
-208.8854
 21
-85.41236
  0
LINE
  8
0
  6
CONTINUOUS
 62
     7
 10
-211.4854
 20
-85.41245
 11
-211.9854
 21
-85.91245
  0
LINE
  8
0
  6
CONTINUOUS
 62
     7
 10
-211.9854
 20
-85.91241
 11
-208.3854
 21
-85.91241
  0
LINE
  8
0
  6
CONTINUOUS
 62
     7
 10
-211.4354
 20
-89.41241
 11
-211.4354
 21
-92.71241
  0
LINE
  8
0
  6
CONTINUOUS
 62
     7
 10
-208.9354
 20
-89.41241
 11
-208.9354
 21
-92.71241
  0
LINE
  8
0
  6
CONTINUOUS
 62
     7
 10
-209.1789
 20
-89.41241
 11
-209.1789
 21
-92.71241
  0
LINE
  8
0
  6
CONTINUOUS
 62
     7
 10
-211.4354
 20
-93.21241
 11
-211.4354
 21
-94.21241
  0
LINE
  8
0
  6
CONTINUOUS
 62
     7
 10
-210.4354
 20
-93.21241
 11
-210.4354
 21
-94.21241
  0
LINE
  8
0
  6
CONTINUOUS
 62
     7
 10
-210.9854
 20
-85.91241
 11
-210.9854
 21
-89.41241
  0
LINE
  8
0
  6
CONTINUOUS
 62
     7
 10
-209.9854
 20
-85.91241
 11
-209.9854
 21
-89.41241
  0
LINE
  8
0
  6
CONTINUOUS
 62
     7
 10
-211.6854
 20
-95.21241
 11
-211.6854
 21
-97.91241
  0
LINE
  8
0
  6
CONTINUOUS
 62
     7
 10
-210.6854
 20
-95.21241
 11
-210.6854
 21
-97.91241
  0
LINE
  8
0
  6
CONTINUOUS
 62
     7
 10
-212.6854
 20
-95.21241
 11
-212.6854
 21
-109.4124
  0
LINE
  8
0
  6
CONTINUOUS
 62
     7
 10
-207.6854
 20
-95.21241
 11
-207.6854
 21
-109.4124
  0
LINE
  8
0
  6
CONTINUOUS
 62
     7
 10
-212.6854
 20
-97.91241
 11
-207.6854
 21
-97.91241
  0
LINE
  8
0
  6
CONTINUOUS
 62
     7
 10
-212.6854
 20
-109.4124
 11
-207.6854
 21
-109.4124
  0
LINE
  8
0
  6
CENTER
 62
     2
 10
-58.18542
 20
-84.05527
 11
-58.18542
 21
-110.9036
  0
LINE
  8
0
  6
CONTINUOUS
 62
     7
 10
-59.19193
 20
-89.41241
 11
-59.19193
 21
-92.71241
  0
LINE
  8
0
  6
CONTINUOUS
 62
     7
 10
-60.18542
 20
-94.71241
 11
-56.18542
 21
-94.71241
  0
LINE
  8
0
  6
CONTINUOUS
 62
     7
 10
-59.93542
 20
-92.71241
 11
-56.43544
 21
-92.71241
  0
LINE
  8
0
  6
CONTINUOUS
 62
     7
 10
-59.48541
 20
-85.41241
 11
-56.88544
 21
-85.41241
  0
LINE
  8
0
  6
CONTINUOUS
 62
     7
 10
-59.98543
 20
-89.41241
 11
-56.38542
 21
-89.41241
  0
LINE
  8
0
  6
CONTINUOUS
 62
     7
 10
-55.6854
 20
-95.21237
 11
-56.1854
 21
-94.71237
  0
LINE
  8
0
  6
CONTINUOUS
 62
     7
 10
-60.18542
 20
-94.71243
 11
-60.68544
 21
-95.21244
  0
LINE
  8
0
  6
CONTINUOUS
 62
     7
 10
-60.68542
 20
-95.21241
 11
-55.68542
 21
-95.21241
  0
LINE
  8
0
  6
CONTINUOUS
 62
     7
 10
-60.43542
 20
-93.21241
 11
-60.43542
 21
-94.21241
  0
LINE
  8
0
  6
CONTINUOUS
 62
     7
 10
-55.93542
 20
-93.21241
 11
-55.93542
 21
-94.21241
  0
LINE
  8
0
  6
CONTINUOUS
 62
     7
 10
-55.93541
 20
-93.2124
 11
-56.43541
 21
-92.7124
  0
LINE
  8
0
  6
CONTINUOUS
 62
     7
 10
-59.93543
 20
-92.71243
 11
-60.43544
 21
-93.21243
  0
LINE
  8
0
  6
CONTINUOUS
 62
     7
 10
-60.43542
 20
-94.21241
 11
-59.93542
 21
-94.71241
  0
LINE
  8
0
  6
CONTINUOUS
 62
     7
 10
-56.43543
 20
-94.71244
 11
-55.93543
 21
-94.21244
  0
LINE
  8
0
  6
CONTINUOUS
 62
     7
 10
-60.43542
 20
-93.21241
 11
-55.93542
 21
-93.21241
  0
LINE
  8
0
  6
CONTINUOUS
 62
     7
 10
-60.43542
 20
-94.21241
 11
-55.93542
 21
-94.21241
  0
LINE
  8
0
  6
CONTINUOUS
 62
     7
 10
-56.38542
 20
-85.91241
 11
-56.38542
 21
-89.41241
  0
LINE
  8
0
  6
CONTINUOUS
 62
     7
 10
-59.98543
 20
-85.91241
 11
-59.98543
 21
-89.41241
  0
LINE
  8
0
  6
CONTINUOUS
 62
     7
 10
-56.38539
 20
-85.91236
 11
-56.8854
 21
-85.41236
  0
LINE
  8
0
  6
CONTINUOUS
 62
     7
 10
-59.48541
 20
-85.41241
 11
-59.98542
 21
-85.91242
  0
LINE
  8
0
  6
CONTINUOUS
 62
     7
 10
-59.98543
 20
-85.91241
 11
-56.38542
 21
-85.91241
  0
LINE
  8
0
  6
CONTINUOUS
 62
     7
 10
-59.43542
 20
-89.41241
 11
-59.43542
 21
-92.71241
  0
LINE
  8
0
  6
CONTINUOUS
 62
     7
 10
-56.93542
 20
-89.41241
 11
-56.93542
 21
-92.71241
  0
LINE
  8
0
  6
CONTINUOUS
 62
     7
 10
-57.17892
 20
-89.41241
 11
-57.17892
 21
-92.71241
  0
LINE
  8
0
  6
CONTINUOUS
 62
     7
 10
-59.43542
 20
-93.21241
 11
-59.43542
 21
-94.21241
  0
LINE
  8
0
  6
CONTINUOUS
 62
     7
 10
-58.43542
 20
-93.21241
 11
-58.43542
 21
-94.21241
  0
LINE
  8
0
  6
CONTINUOUS
 62
     7
 10
-58.98543
 20
-85.91241
 11
-58.98543
 21
-89.41241
  0
LINE
  8
0
  6
CONTINUOUS
 62
     7
 10
-57.98543
 20
-85.91241
 11
-57.98543
 21
-89.41241
  0
LINE
  8
0
  6
CONTINUOUS
 62
     7
 10
-59.68542
 20
-95.21241
 11
-59.68542
 21
-97.91241
  0
LINE
  8
0
  6
CONTINUOUS
 62
     7
 10
-58.68542
 20
-95.21241
 11
-58.68542
 21
-97.91241
  0
LINE
  8
0
  6
CONTINUOUS
 62
     7
 10
-60.68542
 20
-95.21241
 11
-60.68542
 21
-109.4124
  0
LINE
  8
0
  6
CONTINUOUS
 62
     7
 10
-55.68542
 20
-95.21241
 11
-55.68542
 21
-109.4124
  0
LINE
  8
0
  6
CONTINUOUS
 62
     7
 10
-60.68542
 20
-97.91241
 11
-55.68542
 21
-97.91241
  0
LINE
  8
0
  6
CONTINUOUS
 62
     7
 10
-60.68542
 20
-109.4124
 11
-55.68542
 21
-109.4124
  0
LINE
  8
0
  6
CENTER
 62
     2
 10
-61.68542
 20
-102.4124
 11
-54.68542
 21
-102.4124
  0
LINE
  8
0
  6
CONTINUOUS
 62
     7
 10
-131.5854
 20
-150.4124
 11
-122.5854
 21
-150.4124
  0
LINE
  8
0
  6
CONTINUOUS
 62
     7
 10
-131.5854
 20
-155.4124
 11
-122.5854
 21
-155.4124
  0
LINE
  8
0
  6
CONTINUOUS
 62
     7
 10
-131.5854
 20
-155.4124
 11
-131.5854
 21
-150.4124
  0
LINE
  8
0
  6
CONTINUOUS
 62
     7
 10
-122.5854
 20
-155.4124
 11
-122.5854
 21
-150.4124
  0
LINE
  8
0
  6
CENTER
 62
     2
 10
-132.859
 20
-152.9124
 11
-121.2689
 21
-152.9124
  0
LINE
  8
0
  6
CENTER
 62
     2
 10
-129.0854
 20
-149.4124
 11
-129.0854
 21
-156.4124
  0
LINE
  8
0
  6
CONTINUOUS
 62
     7
 10
120.2382
 20
78.88764
 11
120.2382
 21
69.88764
  0
LINE
  8
0
  6
CONTINUOUS
 62
     7
 10
120.2382
 20
69.88764
 11
133.2382
 21
69.88764
  0
LINE
  8
0
  6
CONTINUOUS
 62
     7
 10
120.2382
 20
78.88764
 11
133.2382
 21
78.88764
  0
LINE
  8
0
  6
CONTINUOUS
 62
     7
 10
133.2382
 20
78.88764
 11
133.2382
 21
69.88764
  0
LINE
  8
0
  6
CENTER
 62
     2
 10
131.1309
 20
72.88764
 11
134.351
 21
72.88764
  0
LINE
  8
0
  6
CENTER
 62
     2
 10
127.7382
 20
92.74479
 11
127.7382
 21
68.62163
  0
LINE
  8
0
  6
CONTINUOUS
 62
     7
 10
126.7317
 20
87.38764
 11
126.7317
 21
84.08765
  0
LINE
  8
0
  6
CONTINUOUS
 62
     7
 10
130.2382
 20
81.58765
 11
130.2382
 21
78.88764
  0
LINE
  8
0
  6
CONTINUOUS
 62
     7
 10
125.2382
 20
81.58765
 11
125.2382
 21
78.88764
  0
LINE
  8
0
  6
CONTINUOUS
 62
     7
 10
125.7382
 20
82.08765
 11
129.7382
 21
82.08765
  0
LINE
  8
0
  6
CONTINUOUS
 62
     7
 10
125.9882
 20
84.08765
 11
129.4882
 21
84.08765
  0
LINE
  8
0
  6
CONTINUOUS
 62
     7
 10
126.4382
 20
91.38764
 11
127.2382
 21
91.38764
  0
LINE
  8
0
  6
CONTINUOUS
 62
     7
 10
125.9382
 20
87.38764
 11
129.5382
 21
87.38764
  0
LINE
  8
0
  6
CONTINUOUS
 62
     7
 10
130.2382
 20
81.58768
 11
129.7382
 21
82.08768
  0
LINE
  8
0
  6
CONTINUOUS
 62
     7
 10
125.7382
 20
82.08765
 11
125.2382
 21
81.58764
  0
LINE
  8
0
  6
CONTINUOUS
 62
     7
 10
125.2382
 20
81.58765
 11
130.2382
 21
81.58765
  0
LINE
  8
0
  6
CONTINUOUS
 62
     7
 10
125.4882
 20
83.58765
 11
125.4882
 21
82.58765
  0
LINE
  8
0
  6
CONTINUOUS
 62
     7
 10
129.9882
 20
83.58765
 11
129.9882
 21
82.58765
  0
LINE
  8
0
  6
CONTINUOUS
 62
     7
 10
129.9882
 20
83.58764
 11
129.4882
 21
84.08764
  0
LINE
  8
0
  6
CONTINUOUS
 62
     7
 10
125.9882
 20
84.08763
 11
125.4882
 21
83.58764
  0
LINE
  8
0
  6
CONTINUOUS
 62
     7
 10
125.4882
 20
82.58765
 11
125.9882
 21
82.08765
  0
LINE
  8
0
  6
CONTINUOUS
 62
     7
 10
129.4882
 20
82.08764
 11
129.9882
 21
82.58765
  0
LINE
  8
0
  6
CONTINUOUS
 62
     7
 10
125.4882
 20
83.58765
 11
129.9882
 21
83.58765
  0
LINE
  8
0
  6
CONTINUOUS
 62
     7
 10
125.4882
 20
82.58765
 11
129.9882
 21
82.58765
  0
LINE
  8
0
  6
CONTINUOUS
 62
     7
 10
129.5382
 20
90.88764
 11
129.5382
 21
87.38764
  0
LINE
  8
0
  6
CONTINUOUS
 62
     7
 10
125.9382
 20
90.88764
 11
125.9382
 21
87.38764
  0
LINE
  8
0
  6
CONTINUOUS
 62
     7
 10
129.5382
 20
90.88765
 11
129.0382
 21
91.38765
  0
LINE
  8
0
  6
CONTINUOUS
 62
     7
 10
126.4382
 20
91.38763
 11
125.9382
 21
90.88763
  0
LINE
  8
0
  6
CONTINUOUS
 62
     7
 10
125.9382
 20
90.88764
 11
127.2382
 21
90.88764
  0
LINE
  8
0
  6
CONTINUOUS
 62
     7
 10
127.2382
 20
91.38764
 11
127.2382
 21
90.58765
  0
LINE
  8
0
  6
CONTINUOUS
 62
     7
 10
126.4882
 20
87.38764
 11
126.4882
 21
84.08765
  0
LINE
  8
0
  6
CONTINUOUS
 62
     7
 10
128.9882
 20
87.38764
 11
128.9882
 21
84.08765
  0
LINE
  8
0
  6
CONTINUOUS
 62
     7
 10
128.7447
 20
87.38764
 11
128.7447
 21
84.08765
  0
LINE
  8
0
  6
CONTINUOUS
 62
     7
 10
127.2382
 20
90.58765
 11
128.2382
 21
90.58765
  0
LINE
  8
0
  6
CONTINUOUS
 62
     7
 10
128.2382
 20
91.38764
 11
128.2382
 21
90.58765
  0
LINE
  8
0
  6
CONTINUOUS
 62
     7
 10
128.2382
 20
91.38764
 11
129.0382
 21
91.38764
  0
LINE
  8
0
  6
CONTINUOUS
 62
     7
 10
128.2382
 20
90.88764
 11
129.5382
 21
90.88764
  0
LINE
  8
0
  6
CONTINUOUS
 62
     7
 10
126.4882
 20
83.58765
 11
126.4882
 21
82.58765
  0
LINE
  8
0
  6
CONTINUOUS
 62
     7
 10
127.4882
 20
83.58765
 11
127.4882
 21
82.58765
  0
LINE
  8
0
  6
CONTINUOUS
 62
     7
 10
126.9382
 20
90.88764
 11
126.9382
 21
87.38764
  0
LINE
  8
0
  6
CONTINUOUS
 62
     7
 10
127.9382
 20
90.58765
 11
127.9382
 21
87.38764
  0
LINE
  8
0
  6
CONTINUOUS
 62
     7
 10
126.2382
 20
81.58765
 11
126.2382
 21
78.88764
  0
LINE
  8
0
  6
CONTINUOUS
 62
     7
 10
127.2382
 20
81.58765
 11
127.2382
 21
78.88764
  0
LINE
  8
0
  6
CENTER
 62
     2
 10
123.4382
 20
78.12855
 11
123.4382
 21
71.53071
  0
LINE
  8
0
  6
CENTER
 62
     2
 10
119.6536
 20
74.88764
 11
126.6113
 21
74.88764
  0
LINE
  8
0
  6
CONTINUOUS
 62
     7
 10
120.9887
 20
74.38764
 11
125.8877
 21
74.38764
  0
LINE
  8
0
  6
CONTINUOUS
 62
     7
 10
120.9887
 20
75.38764
 11
125.8877
 21
75.38764
  0
LINE
  8
0
  6
CONTINUOUS
 62
     7
 10
120.2382
 20
121.7877
 11
133.2382
 21
121.7877
  0
LINE
  8
0
  6
CONTINUOUS
 62
     7
 10
120.2382
 20
126.7877
 11
133.2382
 21
126.7877
  0
LINE
  8
0
  6
CONTINUOUS
 62
     7
 10
133.2382
 20
121.7877
 11
133.2382
 21
126.7877
  0
LINE
  8
0
  6
CONTINUOUS
 62
     7
 10
120.2382
 20
121.7877
 11
120.2382
 21
126.7877
  0
LINE
  8
0
  6
CENTER
 62
     2
 10
127.7382
 20
120.1885
 11
127.7382
 21
128.3948
  0
LINE
  8
0
  6
CENTER
 62
     2
 10
118.6486
 20
124.2877
 11
134.6368
 21
124.2877
  0
LINE
  8
0
  6
CONTINUOUS
 62
     7
 10
128.2382
 20
122.5585
 11
128.2382
 21
126.0168
  0
LINE
  8
0
  6
CONTINUOUS
 62
     7
 10
127.2382
 20
122.5585
 11
127.2382
 21
126.0168
  0
LINE
  8
0
  6
CENTER
 62
     2
 10
123.4382
 20
131.5945
 11
123.4382
 21
118.2877
  0
LINE
  8
0
  6
CONTINUOUS
 62
     7
 10
120.9382
 20
127.3877
 11
125.9382
 21
127.3877
  0
LINE
  8
0
  6
CONTINUOUS
 62
     7
 10
120.9382
 20
127.3877
 11
120.9382
 21
126.7877
  0
LINE
  8
0
  6
CONTINUOUS
 62
     7
 10
124.9382
 20
130.5877
 11
124.9382
 21
127.3877
  0
LINE
  8
0
  6
CONTINUOUS
 62
     7
 10
125.9382
 20
127.3877
 11
125.9382
 21
126.7877
  0
LINE
  8
0
  6
CONTINUOUS
 62
     7
 10
121.9382
 20
130.5877
 11
121.9382
 21
127.3877
  0
LINE
  8
0
  6
CONTINUOUS
 62
     7
 10
121.4382
 20
119.2877
 11
125.4382
 21
119.2877
  0
LINE
  8
0
  6
CONTINUOUS
 62
     7
 10
120.9382
 20
121.1877
 11
125.9382
 21
121.1877
  0
LINE
  8
0
  6
CONTINUOUS
 62
     7
 10
125.9382
 20
121.7877
 11
125.9382
 21
119.7877
  0
LINE
  8
0
  6
CONTINUOUS
 62
     7
 10
120.9382
 20
121.7877
 11
120.9382
 21
119.7877
  0
LINE
  8
0
  6
CONTINUOUS
 62
     7
 10
120.9382
 20
119.7877
 11
121.4382
 21
119.2877
  0
LINE
  8
0
  6
CONTINUOUS
 62
     7
 10
125.4382
 20
119.2877
 11
125.9382
 21
119.7877
  0
LINE
  8
0
  6
CONTINUOUS
 62
     7
 10
120.9382
 20
119.7877
 11
125.9382
 21
119.7877
  0
LINE
  8
0
  6
CONTINUOUS
 62
     7
 10
121.9382
 20
130.5877
 11
124.9382
 21
130.5877
  0
LINE
  8
0
  6
CONTINUOUS
 62
     7
 10
124.6677
 20
130.5877
 11
124.6677
 21
127.3877
  0
LINE
  8
0
  6
CONTINUOUS
 62
     7
 10
122.2087
 20
130.5877
 11
122.2087
 21
127.3877
  0
LINE
  8
0
  6
CENTER
 62
     2
 10
52.93819
 20
92.74479
 11
52.93819
 21
68.67865
  0
LINE
  8
0
  6
CONTINUOUS
 62
     7
 10
51.93169
 20
87.38764
 11
51.93169
 21
84.08765
  0
LINE
  8
0
  6
CONTINUOUS
 62
     7
 10
50.9382
 20
82.08765
 11
54.9382
 21
82.08765
  0
LINE
  8
0
  6
CONTINUOUS
 62
     7
 10
51.1882
 20
84.08765
 11
54.68818
 21
84.08765
  0
LINE
  8
0
  6
CONTINUOUS
 62
     7
 10
51.63821
 20
91.38764
 11
54.23819
 21
91.38764
  0
LINE
  8
0
  6
CONTINUOUS
 62
     7
 10
51.1382
 20
87.38764
 11
54.73819
 21
87.38764
  0
LINE
  8
0
  6
CONTINUOUS
 62
     7
 10
55.43823
 20
81.58768
 11
54.93823
 21
82.08768
  0
LINE
  8
0
  6
CONTINUOUS
 62
     7
 10
50.93819
 20
82.08764
 11
50.43818
 21
81.58763
  0
LINE
  8
0
  6
CONTINUOUS
 62
     7
 10
50.43819
 20
81.58765
 11
55.43819
 21
81.58765
  0
LINE
  8
0
  6
CONTINUOUS
 62
     7
 10
50.68819
 20
83.58765
 11
50.68819
 21
82.58765
  0
LINE
  8
0
  6
CONTINUOUS
 62
     7
 10
55.18819
 20
83.58765
 11
55.18819
 21
82.58765
  0
LINE
  8
0
  6
CONTINUOUS
 62
     7
 10
55.18819
 20
83.58764
 11
54.68819
 21
84.08764
  0
LINE
  8
0
  6
CONTINUOUS
 62
     7
 10
51.18818
 20
84.08763
 11
50.68819
 21
83.58764
  0
LINE
  8
0
  6
CONTINUOUS
 62
     7
 10
50.6882
 20
82.58765
 11
51.1882
 21
82.08765
  0
LINE
  8
0
  6
CONTINUOUS
 62
     7
 10
54.68818
 20
82.08764
 11
55.18818
 21
82.58764
  0
LINE
  8
0
  6
CONTINUOUS
 62
     7
 10
50.68819
 20
83.58765
 11
55.18819
 21
83.58765
  0
LINE
  8
0
  6
CONTINUOUS
 62
     7
 10
50.68819
 20
82.58765
 11
55.18819
 21
82.58765
  0
LINE
  8
0
  6
CONTINUOUS
 62
     7
 10
54.73819
 20
90.88764
 11
54.73819
 21
87.38764
  0
LINE
  8
0
  6
CONTINUOUS
 62
     7
 10
51.1382
 20
90.88764
 11
51.1382
 21
87.38764
  0
LINE
  8
0
  6
CONTINUOUS
 62
     7
 10
54.73821
 20
90.88768
 11
54.2382
 21
91.38768
  0
LINE
  8
0
  6
CONTINUOUS
 62
     7
 10
51.6382
 20
91.38763
 11
51.1382
 21
90.88763
  0
LINE
  8
0
  6
CONTINUOUS
 62
     7
 10
51.1382
 20
90.88764
 11
54.73819
 21
90.88764
  0
LINE
  8
0
  6
CONTINUOUS
 62
     7
 10
51.68819
 20
87.38764
 11
51.68819
 21
84.08765
  0
LINE
  8
0
  6
CONTINUOUS
 62
     7
 10
54.18819
 20
87.38764
 11
54.18819
 21
84.08765
  0
LINE
  8
0
  6
CONTINUOUS
 62
     7
 10
53.94469
 20
87.38764
 11
53.94469
 21
84.08765
  0
LINE
  8
0
  6
CONTINUOUS
 62
     7
 10
51.68819
 20
83.58765
 11
51.68819
 21
82.58765
  0
LINE
  8
0
  6
CONTINUOUS
 62
     7
 10
52.68819
 20
83.58765
 11
52.68819
 21
82.58765
  0
LINE
  8
0
  6
CONTINUOUS
 62
     7
 10
52.1382
 20
90.88764
 11
52.1382
 21
87.38764
  0
LINE
  8
0
  6
CONTINUOUS
 62
     7
 10
53.1382
 20
90.88764
 11
53.1382
 21
87.38764
  0
LINE
  8
0
  6
CONTINUOUS
 62
     7
 10
51.43819
 20
81.58765
 11
51.43819
 21
78.88764
  0
LINE
  8
0
  6
CONTINUOUS
 62
     7
 10
52.43819
 20
81.58765
 11
52.43819
 21
78.88764
  0
LINE
  8
0
  6
CONTINUOUS
 62
     7
 10
50.43819
 20
81.58765
 11
50.43819
 21
69.88764
  0
LINE
  8
0
  6
CONTINUOUS
 62
     7
 10
55.43819
 20
81.58765
 11
55.43819
 21
69.88764
  0
LINE
  8
0
  6
CONTINUOUS
 62
     7
 10
50.43819
 20
78.88764
 11
55.43819
 21
78.88764
  0
LINE
  8
0
  6
CONTINUOUS
 62
     7
 10
50.43819
 20
69.88764
 11
55.43819
 21
69.88764
  0
LINE
  8
0
  6
CENTER
 62
     2
 10
45.58394
 20
74.88764
 11
58.86123
 21
74.88764
  0
LINE
  8
0
  6
CONTINUOUS
 62
     7
 10
49.8382
 20
77.38764
 11
49.8382
 21
72.38764
  0
LINE
  8
0
  6
CONTINUOUS
 62
     7
 10
49.8382
 20
77.38764
 11
50.43819
 21
77.38764
  0
LINE
  8
0
  6
CONTINUOUS
 62
     7
 10
49.8382
 20
72.38764
 11
50.43819
 21
72.38764
  0
LINE
  8
0
  6
CONTINUOUS
 62
     7
 10
57.93819
 20
76.88764
 11
57.93819
 21
72.88764
  0
LINE
  8
0
  6
CONTINUOUS
 62
     7
 10
56.03819
 20
77.38764
 11
56.03819
 21
72.38764
  0
LINE
  8
0
  6
CONTINUOUS
 62
     7
 10
55.43819
 20
72.38764
 11
57.43819
 21
72.38764
  0
LINE
  8
0
  6
CONTINUOUS
 62
     7
 10
55.43819
 20
77.38764
 11
57.43819
 21
77.38764
  0
LINE
  8
0
  6
CONTINUOUS
 62
     7
 10
57.43824
 20
77.38768
 11
57.93824
 21
76.88768
  0
LINE
  8
0
  6
CONTINUOUS
 62
     7
 10
57.93817
 20
72.88766
 11
57.43817
 21
72.38766
  0
LINE
  8
0
  6
CONTINUOUS
 62
     7
 10
57.43819
 20
77.38764
 11
57.43819
 21
72.38764
  0
LINE
  8
0
  6
CONTINUOUS
 62
     7
 10
46.6382
 20
76.38764
 11
46.6382
 21
73.38764
  0
LINE
  8
0
  6
CONTINUOUS
 62
     7
 10
46.6382
 20
73.65814
 11
49.8382
 21
73.65814
  0
LINE
  8
0
  6
CONTINUOUS
 62
     7
 10
46.6382
 20
76.11714
 11
49.8382
 21
76.11714
  0
LINE
  8
0
  6
CONTINUOUS
 62
     7
 10
46.6382
 20
76.38764
 11
49.8382
 21
76.38764
  0
LINE
  8
0
  6
CONTINUOUS
 62
     7
 10
46.6382
 20
73.38764
 11
49.8382
 21
73.38764
  0
LINE
  8
0
  6
CENTER
 62
     2
 10
198.7382
 20
92.7448
 11
198.7382
 21
68.67867
  0
LINE
  8
0
  6
CONTINUOUS
 62
     7
 10
197.7317
 20
87.38766
 11
197.7317
 21
84.08766
  0
LINE
  8
0
  6
CONTINUOUS
 62
     7
 10
196.7382
 20
82.08766
 11
200.7382
 21
82.08766
  0
LINE
  8
0
  6
CONTINUOUS
 62
     7
 10
196.9882
 20
84.08766
 11
200.4882
 21
84.08766
  0
LINE
  8
0
  6
CONTINUOUS
 62
     7
 10
197.4382
 20
91.38766
 11
200.0382
 21
91.38766
  0
LINE
  8
0
  6
CONTINUOUS
 62
     7
 10
196.9382
 20
87.38766
 11
200.5382
 21
87.38766
  0
LINE
  8
0
  6
CONTINUOUS
 62
     7
 10
201.2382
 20
81.58768
 11
200.7382
 21
82.08768
  0
LINE
  8
0
  6
CONTINUOUS
 62
     7
 10
196.7382
 20
82.08766
 11
196.2382
 21
81.58766
  0
LINE
  8
0
  6
CONTINUOUS
 62
     7
 10
196.2382
 20
81.58766
 11
201.2382
 21
81.58766
  0
LINE
  8
0
  6
CONTINUOUS
 62
     7
 10
196.4882
 20
83.58766
 11
196.4882
 21
82.58766
  0
LINE
  8
0
  6
CONTINUOUS
 62
     7
 10
200.9882
 20
83.58766
 11
200.9882
 21
82.58766
  0
LINE
  8
0
  6
CONTINUOUS
 62
     7
 10
200.9882
 20
83.58765
 11
200.4882
 21
84.08765
  0
LINE
  8
0
  6
CONTINUOUS
 62
     7
 10
196.9882
 20
84.08765
 11
196.4882
 21
83.58765
  0
LINE
  8
0
  6
CONTINUOUS
 62
     7
 10
196.4882
 20
82.58765
 11
196.9882
 21
82.08765
  0
LINE
  8
0
  6
CONTINUOUS
 62
     7
 10
200.4882
 20
82.08765
 11
200.9882
 21
82.58765
  0
LINE
  8
0
  6
CONTINUOUS
 62
     7
 10
196.4882
 20
83.58766
 11
200.9882
 21
83.58766
  0
LINE
  8
0
  6
CONTINUOUS
 62
     7
 10
196.4882
 20
82.58766
 11
200.9882
 21
82.58766
  0
LINE
  8
0
  6
CONTINUOUS
 62
     7
 10
200.5382
 20
90.88766
 11
200.5382
 21
87.38766
  0
LINE
  8
0
  6
CONTINUOUS
 62
     7
 10
196.9382
 20
90.88766
 11
196.9382
 21
87.38766
  0
LINE
  8
0
  6
CONTINUOUS
 62
     7
 10
200.5382
 20
90.88764
 11
200.0382
 21
91.38764
  0
LINE
  8
0
  6
CONTINUOUS
 62
     7
 10
197.4382
 20
91.38763
 11
196.9382
 21
90.88763
  0
LINE
  8
0
  6
CONTINUOUS
 62
     7
 10
196.9382
 20
90.88766
 11
200.5382
 21
90.88766
  0
LINE
  8
0
  6
CONTINUOUS
 62
     7
 10
197.4882
 20
87.38766
 11
197.4882
 21
84.08766
  0
LINE
  8
0
  6
CONTINUOUS
 62
     7
 10
199.9882
 20
87.38766
 11
199.9882
 21
84.08766
  0
LINE
  8
0
  6
CONTINUOUS
 62
     7
 10
199.7447
 20
87.38766
 11
199.7447
 21
84.08766
  0
LINE
  8
0
  6
CONTINUOUS
 62
     7
 10
197.4882
 20
83.58766
 11
197.4882
 21
82.58766
  0
LINE
  8
0
  6
CONTINUOUS
 62
     7
 10
198.4882
 20
83.58766
 11
198.4882
 21
82.58766
  0
LINE
  8
0
  6
CONTINUOUS
 62
     7
 10
197.9382
 20
90.88766
 11
197.9382
 21
87.38766
  0
LINE
  8
0
  6
CONTINUOUS
 62
     7
 10
198.9382
 20
90.88766
 11
198.9382
 21
87.38766
  0
LINE
  8
0
  6
CONTINUOUS
 62
     7
 10
197.2382
 20
81.58766
 11
197.2382
 21
78.88766
  0
LINE
  8
0
  6
CONTINUOUS
 62
     7
 10
198.2382
 20
81.58766
 11
198.2382
 21
78.88766
  0
LINE
  8
0
  6
CONTINUOUS
 62
     7
 10
196.2382
 20
81.58766
 11
196.2382
 21
69.88766
  0
LINE
  8
0
  6
CONTINUOUS
 62
     7
 10
201.2382
 20
81.58766
 11
201.2382
 21
69.88766
  0
LINE
  8
0
  6
CONTINUOUS
 62
     7
 10
196.2382
 20
78.88766
 11
201.2382
 21
78.88766
  0
LINE
  8
0
  6
CONTINUOUS
 62
     7
 10
196.2382
 20
69.88766
 11
201.2382
 21
69.88766
  0
LINE
  8
0
  6
CENTER
 62
     2
 10
195.2382
 20
72.88766
 11
202.2382
 21
72.88766
  0
LINE
  8
0
  6
CONTINUOUS
 62
     7
 10
193.7382
 20
76.88766
 11
193.7382
 21
72.88766
  0
LINE
  8
0
  6
CONTINUOUS
 62
     7
 10
195.6382
 20
77.38766
 11
195.6382
 21
72.38766
  0
LINE
  8
0
  6
CONTINUOUS
 62
     7
 10
196.2382
 20
72.38766
 11
194.2382
 21
72.38766
  0
LINE
  8
0
  6
CONTINUOUS
 62
     7
 10
196.2382
 20
77.38766
 11
194.2382
 21
77.38766
  0
LINE
  8
0
  6
CONTINUOUS
 62
     7
 10
194.2382
 20
77.3877
 11
193.7381
 21
76.8877
  0
LINE
  8
0
  6
CONTINUOUS
 62
     7
 10
193.7382
 20
72.88766
 11
194.2382
 21
72.38766
  0
LINE
  8
0
  6
CONTINUOUS
 62
     7
 10
194.2382
 20
77.38766
 11
194.2382
 21
72.38766
  0
LINE
  8
0
  6
CONTINUOUS
 62
     7
 10
205.0382
 20
76.38766
 11
205.0382
 21
73.38766
  0
LINE
  8
0
  6
CONTINUOUS
 62
     7
 10
205.0382
 20
73.65816
 11
201.8382
 21
73.65816
  0
LINE
  8
0
  6
CONTINUOUS
 62
     7
 10
205.0382
 20
76.11716
 11
201.8382
 21
76.11716
  0
LINE
  8
0
  6
CONTINUOUS
 62
     7
 10
205.0382
 20
76.38766
 11
201.8382
 21
76.38766
  0
LINE
  8
0
  6
CONTINUOUS
 62
     7
 10
205.0382
 20
73.38766
 11
201.8382
 21
73.38766
  0
LINE
  8
0
  6
CONTINUOUS
 62
     7
 10
201.8382
 20
77.38766
 11
201.8382
 21
72.38766
  0
LINE
  8
0
  6
CONTINUOUS
 62
     7
 10
201.8382
 20
77.38766
 11
201.2382
 21
77.38766
  0
LINE
  8
0
  6
CONTINUOUS
 62
     7
 10
201.8382
 20
72.38766
 11
201.2382
 21
72.38766
  0
LINE
  8
0
  6
CENTER
 62
     2
 10
192.7638
 20
74.88766
 11
205.9594
 21
74.88766
  0
LINE
  8
0
  6
CONTINUOUS
 62
     7
 10
120.2382
 20
32.68765
 11
133.2382
 21
32.68765
  0
LINE
  8
0
  6
CONTINUOUS
 62
     7
 10
120.2382
 20
27.68765
 11
133.2382
 21
27.68765
  0
LINE
  8
0
  6
CONTINUOUS
 62
     7
 10
120.2382
 20
27.68765
 11
120.2382
 21
32.68765
  0
LINE
  8
0
  6
CONTINUOUS
 62
     7
 10
133.2382
 20
27.68765
 11
133.2382
 21
32.68765
  0
LINE
  8
0
  6
CENTER
 62
     2
 10
118.675
 20
30.18765
 11
134.5547
 21
30.18765
  0
LINE
  8
0
  6
CENTER
 62
     2
 10
127.7382
 20
33.68765
 11
127.7382
 21
26.68765
  0
LINE
  8
0
  6
CONTINUOUS
 62
     7
 10
121.9382
 20
23.88765
 11
124.9382
 21
23.88765
  0
LINE
  8
0
  6
CONTINUOUS
 62
     7
 10
124.6677
 20
23.88765
 11
124.6677
 21
27.08765
  0
LINE
  8
0
  6
CONTINUOUS
 62
     7
 10
120.9382
 20
34.68765
 11
125.9382
 21
34.68765
  0
LINE
  8
0
  6
CONTINUOUS
 62
     7
 10
122.2087
 20
23.88765
 11
122.2087
 21
27.08765
  0
LINE
  8
0
  6
CENTER
 62
     2
 10
123.4382
 20
22.88086
 11
123.4382
 21
36.18764
  0
LINE
  8
0
  6
CONTINUOUS
 62
     7
 10
120.9382
 20
27.08765
 11
125.9382
 21
27.08765
  0
LINE
  8
0
  6
CONTINUOUS
 62
     7
 10
120.9382
 20
27.08765
 11
120.9382
 21
27.68765
  0
LINE
  8
0
  6
CONTINUOUS
 62
     7
 10
124.9382
 20
23.88765
 11
124.9382
 21
27.08765
  0
LINE
  8
0
  6
CONTINUOUS
 62
     7
 10
125.9382
 20
27.08765
 11
125.9382
 21
27.68765
  0
LINE
  8
0
  6
CONTINUOUS
 62
     7
 10
121.9382
 20
23.88765
 11
121.9382
 21
27.08765
  0
LINE
  8
0
  6
CONTINUOUS
 62
     7
 10
121.4382
 20
35.18764
 11
125.4382
 21
35.18764
  0
LINE
  8
0
  6
CONTINUOUS
 62
     7
 10
120.9382
 20
33.28764
 11
125.9382
 21
33.28764
  0
LINE
  8
0
  6
CONTINUOUS
 62
     7
 10
125.9382
 20
32.68765
 11
125.9382
 21
34.68765
  0
LINE
  8
0
  6
CONTINUOUS
 62
     7
 10
120.9382
 20
32.68765
 11
120.9382
 21
34.68765
  0
LINE
  8
0
  6
CONTINUOUS
 62
     7
 10
120.9381
 20
34.68769
 11
121.4381
 21
35.18769
  0
LINE
  8
0
  6
CONTINUOUS
 62
     7
 10
125.4382
 20
35.18766
 11
125.9382
 21
34.68766
  0
LINE
  8
0
  6
CONTINUOUS
 62
     7
 10
122.0303
 20
-98.81244
 11
122.0303
 21
-107.8124
  0
LINE
  8
0
  6
CONTINUOUS
 62
     7
 10
122.0303
 20
-107.8124
 11
135.0303
 21
-107.8124
  0
LINE
  8
0
  6
CONTINUOUS
 62
     7
 10
122.0303
 20
-98.81244
 11
135.0303
 21
-98.81244
  0
LINE
  8
0
  6
CONTINUOUS
 62
     7
 10
135.0303
 20
-98.81244
 11
135.0303
 21
-107.8124
  0
LINE
  8
0
  6
CENTER
 62
     2
 10
132.923
 20
-104.8124
 11
136.1431
 21
-104.8124
  0
LINE
  8
0
  6
CENTER
 62
     2
 10
129.5303
 20
-84.95529
 11
129.5303
 21
-109.0785
  0
LINE
  8
0
  6
CONTINUOUS
 62
     7
 10
128.5238
 20
-90.31244
 11
128.5238
 21
-93.61243
  0
LINE
  8
0
  6
CONTINUOUS
 62
     7
 10
132.0303
 20
-96.11243
 11
132.0303
 21
-98.81244
  0
LINE
  8
0
  6
CONTINUOUS
 62
     7
 10
127.0303
 20
-96.11243
 11
127.0303
 21
-98.81244
  0
LINE
  8
0
  6
CONTINUOUS
 62
     7
 10
127.5303
 20
-95.61243
 11
131.5303
 21
-95.61243
  0
LINE
  8
0
  6
CONTINUOUS
 62
     7
 10
127.7803
 20
-93.61243
 11
131.2803
 21
-93.61243
  0
LINE
  8
0
  6
CONTINUOUS
 62
     7
 10
128.2303
 20
-86.31244
 11
129.0303
 21
-86.31244
  0
LINE
  8
0
  6
CONTINUOUS
 62
     7
 10
127.7303
 20
-90.31244
 11
131.3303
 21
-90.31244
  0
LINE
  8
0
  6
CONTINUOUS
 62
     7
 10
132.0303
 20
-96.1125
 11
131.5303
 21
-95.61249
  0
LINE
  8
0
  6
CONTINUOUS
 62
     7
 10
127.5303
 20
-95.61244
 11
127.0303
 21
-96.11245
  0
LINE
  8
0
  6
CONTINUOUS
 62
     7
 10
127.0303
 20
-96.11243
 11
132.0303
 21
-96.11243
  0
LINE
  8
0
  6
CONTINUOUS
 62
     7
 10
127.2803
 20
-94.11243
 11
127.2803
 21
-95.11243
  0
LINE
  8
0
  6
CONTINUOUS
 62
     7
 10
131.7803
 20
-94.11243
 11
131.7803
 21
-95.11243
  0
LINE
  8
0
  6
CONTINUOUS
 62
     7
 10
131.7803
 20
-94.11248
 11
131.2803
 21
-93.61248
  0
LINE
  8
0
  6
CONTINUOUS
 62
     7
 10
127.7803
 20
-93.61243
 11
127.2803
 21
-94.11243
  0
LINE
  8
0
  6
CONTINUOUS
 62
     7
 10
127.2803
 20
-95.11245
 11
127.7803
 21
-95.61245
  0
LINE
  8
0
  6
CONTINUOUS
 62
     7
 10
131.2803
 20
-95.61243
 11
131.7803
 21
-95.11243
  0
LINE
  8
0
  6
CONTINUOUS
 62
     7
 10
127.2803
 20
-94.11243
 11
131.7803
 21
-94.11243
  0
LINE
  8
0
  6
CONTINUOUS
 62
     7
 10
127.2803
 20
-95.11243
 11
131.7803
 21
-95.11243
  0
LINE
  8
0
  6
CONTINUOUS
 62
     7
 10
131.3303
 20
-86.81244
 11
131.3303
 21
-90.31244
  0
LINE
  8
0
  6
CONTINUOUS
 62
     7
 10
127.7303
 20
-86.81244
 11
127.7303
 21
-90.31244
  0
LINE
  8
0
  6
CONTINUOUS
 62
     7
 10
131.3302
 20
-86.8125
 11
130.8302
 21
-86.3125
  0
LINE
  8
0
  6
CONTINUOUS
 62
     7
 10
128.2303
 20
-86.31246
 11
127.7303
 21
-86.81246
  0
LINE
  8
0
  6
CONTINUOUS
 62
     7
 10
127.7303
 20
-86.81244
 11
129.0303
 21
-86.81244
  0
LINE
  8
0
  6
CONTINUOUS
 62
     7
 10
129.0303
 20
-86.31244
 11
129.0303
 21
-87.11243
  0
LINE
  8
0
  6
CONTINUOUS
 62
     7
 10
128.2803
 20
-90.31244
 11
128.2803
 21
-93.61243
  0
LINE
  8
0
  6
CONTINUOUS
 62
     7
 10
130.7803
 20
-90.31244
 11
130.7803
 21
-93.61243
  0
LINE
  8
0
  6
CONTINUOUS
 62
     7
 10
130.5368
 20
-90.31244
 11
130.5368
 21
-93.61243
  0
LINE
  8
0
  6
CONTINUOUS
 62
     7
 10
129.0303
 20
-87.11243
 11
130.0303
 21
-87.11243
  0
LINE
  8
0
  6
CONTINUOUS
 62
     7
 10
130.0303
 20
-86.31244
 11
130.0303
 21
-87.11243
  0
LINE
  8
0
  6
CONTINUOUS
 62
     7
 10
130.0303
 20
-86.31244
 11
130.8303
 21
-86.31244
  0
LINE
  8
0
  6
CONTINUOUS
 62
     7
 10
130.0303
 20
-86.81244
 11
131.3303
 21
-86.81244
  0
LINE
  8
0
  6
CONTINUOUS
 62
     7
 10
128.2803
 20
-94.11243
 11
128.2803
 21
-95.11243
  0
LINE
  8
0
  6
CONTINUOUS
 62
     7
 10
129.2803
 20
-94.11243
 11
129.2803
 21
-95.11243
  0
LINE
  8
0
  6
CONTINUOUS
 62
     7
 10
128.7303
 20
-86.81244
 11
128.7303
 21
-90.31244
  0
LINE
  8
0
  6
CONTINUOUS
 62
     7
 10
129.7303
 20
-87.11243
 11
129.7303
 21
-90.31244
  0
LINE
  8
0
  6
CONTINUOUS
 62
     7
 10
128.0303
 20
-96.11243
 11
128.0303
 21
-98.81244
  0
LINE
  8
0
  6
CONTINUOUS
 62
     7
 10
129.0303
 20
-96.11243
 11
129.0303
 21
-98.81244
  0
LINE
  8
0
  6
CENTER
 62
     2
 10
124.7303
 20
-97.51155
 11
124.7303
 21
-113.2343
  0
LINE
  8
0
  6
CONTINUOUS
 62
     7
 10
125.9598
 20
-109.4124
 11
125.9598
 21
-111.8124
  0
LINE
  8
0
  6
CONTINUOUS
 62
     7
 10
123.2303
 20
-109.4124
 11
123.2303
 21
-111.8124
  0
LINE
  8
0
  6
CONTINUOUS
 62
     7
 10
126.2303
 20
-109.4124
 11
126.2303
 21
-111.8124
  0
LINE
  8
0
  6
CONTINUOUS
 62
     7
 10
123.2303
 20
-111.8124
 11
126.2303
 21
-111.8124
  0
LINE
  8
0
  6
CONTINUOUS
 62
     7
 10
127.2303
 20
-107.8124
 11
127.2303
 21
-109.4124
  0
LINE
  8
0
  6
CONTINUOUS
 62
     7
 10
122.2303
 20
-107.8124
 11
122.2303
 21
-109.4124
  0
LINE
  8
0
  6
CONTINUOUS
 62
     7
 10
122.2303
 20
-108.8124
 11
127.2303
 21
-108.8124
  0
LINE
  8
0
  6
CONTINUOUS
 62
     7
 10
122.2303
 20
-109.4124
 11
127.2303
 21
-109.4124
  0
LINE
  8
0
  6
CONTINUOUS
 62
     7
 10
123.5008
 20
-109.4124
 11
123.5008
 21
-111.8124
  0
LINE
  8
0
  6
CONTINUOUS
 62
     7
 10
122.0303
 20
-45.11242
 11
135.0303
 21
-45.11242
  0
LINE
  8
0
  6
CONTINUOUS
 62
     7
 10
122.0303
 20
-40.11242
 11
135.0303
 21
-40.11242
  0
LINE
  8
0
  6
CONTINUOUS
 62
     7
 10
135.0303
 20
-45.11242
 11
135.0303
 21
-40.11242
  0
LINE
  8
0
  6
CONTINUOUS
 62
     7
 10
122.0303
 20
-45.11242
 11
122.0303
 21
-40.11242
  0
LINE
  8
0
  6
CENTER
 62
     2
 10
129.5303
 20
-46.71161
 11
129.5303
 21
-38.50525
  0
LINE
  8
0
  6
CENTER
 62
     2
 10
120.4407
 20
-42.61242
 11
136.429
 21
-42.61242
  0
LINE
  8
0
  6
CONTINUOUS
 62
     7
 10
130.0303
 20
-44.34157
 11
130.0303
 21
-40.88326
  0
LINE
  8
0
  6
CONTINUOUS
 62
     7
 10
129.0303
 20
-44.34157
 11
129.0303
 21
-40.88326
  0
LINE
  8
0
  6
CENTER
 62
     2
 10
124.7303
 20
-39.11242
 11
124.7303
 21
-46.11242
  0
LINE
  8
0
  6
CONTINUOUS
 62
     7
 10
124.2303
 20
-44.44544
 11
124.2303
 21
-40.77939
  0
LINE
  8
0
  6
CONTINUOUS
 62
     7
 10
125.2303
 20
-44.44544
 11
125.2303
 21
-40.77939
  0
LINE
  8
0
  6
CENTER
 62
     2
 10
52.63033
 20
-84.95526
 11
52.63033
 21
-113.2342
  0
LINE
  8
0
  6
CONTINUOUS
 62
     7
 10
51.62383
 20
-90.31241
 11
51.62383
 21
-93.6124
  0
LINE
  8
0
  6
CONTINUOUS
 62
     7
 10
50.63033
 20
-95.6124
 11
54.63033
 21
-95.6124
  0
LINE
  8
0
  6
CONTINUOUS
 62
     7
 10
50.88033
 20
-93.6124
 11
54.38032
 21
-93.6124
  0
LINE
  8
0
  6
CONTINUOUS
 62
     7
 10
51.33035
 20
-86.31241
 11
53.93032
 21
-86.31241
  0
LINE
  8
0
  6
CONTINUOUS
 62
     7
 10
50.83033
 20
-90.31241
 11
54.43032
 21
-90.31241
  0
LINE
  8
0
  6
CONTINUOUS
 62
     7
 10
55.13028
 20
-96.11242
 11
54.63028
 21
-95.61242
  0
LINE
  8
0
  6
CONTINUOUS
 62
     7
 10
50.63033
 20
-95.6124
 11
50.13033
 21
-96.1124
  0
LINE
  8
0
  6
CONTINUOUS
 62
     7
 10
50.13033
 20
-96.1124
 11
55.13033
 21
-96.1124
  0
LINE
  8
0
  6
CONTINUOUS
 62
     7
 10
50.38033
 20
-94.1124
 11
50.38033
 21
-95.1124
  0
LINE
  8
0
  6
CONTINUOUS
 62
     7
 10
54.88033
 20
-94.1124
 11
54.88033
 21
-95.1124
  0
LINE
  8
0
  6
CONTINUOUS
 62
     7
 10
54.88031
 20
-94.11244
 11
54.38031
 21
-93.61244
  0
LINE
  8
0
  6
CONTINUOUS
 62
     7
 10
50.88033
 20
-93.61243
 11
50.38034
 21
-94.11242
  0
LINE
  8
0
  6
CONTINUOUS
 62
     7
 10
50.38034
 20
-95.1124
 11
50.88034
 21
-95.6124
  0
LINE
  8
0
  6
CONTINUOUS
 62
     7
 10
54.38032
 20
-95.61239
 11
54.88033
 21
-95.11239
  0
LINE
  8
0
  6
CONTINUOUS
 62
     7
 10
50.38033
 20
-94.1124
 11
54.88033
 21
-94.1124
  0
LINE
  8
0
  6
CONTINUOUS
 62
     7
 10
50.38033
 20
-95.1124
 11
54.88033
 21
-95.1124
  0
LINE
  8
0
  6
CONTINUOUS
 62
     7
 10
54.43032
 20
-86.81241
 11
54.43032
 21
-90.31241
  0
LINE
  8
0
  6
CONTINUOUS
 62
     7
 10
50.83033
 20
-86.81241
 11
50.83033
 21
-90.31241
  0
LINE
  8
0
  6
CONTINUOUS
 62
     7
 10
54.43028
 20
-86.81242
 11
53.93027
 21
-86.31242
  0
LINE
  8
0
  6
CONTINUOUS
 62
     7
 10
51.33033
 20
-86.31242
 11
50.83033
 21
-86.81242
  0
LINE
  8
0
  6
CONTINUOUS
 62
     7
 10
50.83033
 20
-86.81241
 11
54.43032
 21
-86.81241
  0
LINE
  8
0
  6
CONTINUOUS
 62
     7
 10
51.38033
 20
-90.31241
 11
51.38033
 21
-93.6124
  0
LINE
  8
0
  6
CONTINUOUS
 62
     7
 10
53.88033
 20
-90.31241
 11
53.88033
 21
-93.6124
  0
LINE
  8
0
  6
CONTINUOUS
 62
     7
 10
53.63683
 20
-90.31241
 11
53.63683
 21
-93.6124
  0
LINE
  8
0
  6
CONTINUOUS
 62
     7
 10
51.38033
 20
-94.1124
 11
51.38033
 21
-95.1124
  0
LINE
  8
0
  6
CONTINUOUS
 62
     7
 10
52.38033
 20
-94.1124
 11
52.38033
 21
-95.1124
  0
LINE
  8
0
  6
CONTINUOUS
 62
     7
 10
51.83033
 20
-86.81241
 11
51.83033
 21
-90.31241
  0
LINE
  8
0
  6
CONTINUOUS
 62
     7
 10
52.83033
 20
-86.81241
 11
52.83033
 21
-90.31241
  0
LINE
  8
0
  6
CONTINUOUS
 62
     7
 10
51.13033
 20
-96.1124
 11
51.13033
 21
-98.81241
  0
LINE
  8
0
  6
CONTINUOUS
 62
     7
 10
52.13033
 20
-96.1124
 11
52.13033
 21
-98.81241
  0
LINE
  8
0
  6
CONTINUOUS
 62
     7
 10
50.13033
 20
-96.1124
 11
50.13033
 21
-109.4124
  0
LINE
  8
0
  6
CONTINUOUS
 62
     7
 10
55.13033
 20
-96.1124
 11
55.13033
 21
-109.4124
  0
LINE
  8
0
  6
CONTINUOUS
 62
     7
 10
50.13033
 20
-98.81241
 11
55.13033
 21
-98.81241
  0
LINE
  8
0
  6
CONTINUOUS
 62
     7
 10
50.13033
 20
-107.8124
 11
55.13033
 21
-107.8124
  0
LINE
  8
0
  6
CONTINUOUS
 62
     7
 10
50.13033
 20
-108.8124
 11
55.13033
 21
-108.8124
  0
LINE
  8
0
  6
CONTINUOUS
 62
     7
 10
50.13033
 20
-109.4124
 11
55.13033
 21
-109.4124
  0
LINE
  8
0
  6
CONTINUOUS
 62
     7
 10
51.40083
 20
-109.4124
 11
51.40083
 21
-111.8124
  0
LINE
  8
0
  6
CONTINUOUS
 62
     7
 10
53.85983
 20
-109.4124
 11
53.85983
 21
-111.8124
  0
LINE
  8
0
  6
CONTINUOUS
 62
     7
 10
51.13033
 20
-111.8124
 11
54.13033
 21
-111.8124
  0
LINE
  8
0
  6
CONTINUOUS
 62
     7
 10
51.13033
 20
-109.4124
 11
51.13033
 21
-111.8124
  0
LINE
  8
0
  6
CONTINUOUS
 62
     7
 10
54.13033
 20
-109.4124
 11
54.13033
 21
-111.8124
  0
LINE
  8
0
  6
CENTER
 62
     2
 10
203.6304
 20
-84.95526
 11
203.6304
 21
-113.1133
  0
LINE
  8
0
  6
CONTINUOUS
 62
     7
 10
202.6239
 20
-90.31241
 11
202.6239
 21
-93.6124
  0
LINE
  8
0
  6
CONTINUOUS
 62
     7
 10
201.6304
 20
-95.6124
 11
205.6304
 21
-95.6124
  0
LINE
  8
0
  6
CONTINUOUS
 62
     7
 10
201.8804
 20
-93.6124
 11
205.3803
 21
-93.6124
  0
LINE
  8
0
  6
CONTINUOUS
 62
     7
 10
202.3304
 20
-86.31241
 11
204.9303
 21
-86.31241
  0
LINE
  8
0
  6
CONTINUOUS
 62
     7
 10
201.8304
 20
-90.31241
 11
205.4303
 21
-90.31241
  0
LINE
  8
0
  6
CONTINUOUS
 62
     7
 10
206.1303
 20
-96.11246
 11
205.6303
 21
-95.61247
  0
LINE
  8
0
  6
CONTINUOUS
 62
     7
 10
201.6303
 20
-95.61242
 11
201.1303
 21
-96.11242
  0
LINE
  8
0
  6
CONTINUOUS
 62
     7
 10
201.1304
 20
-96.1124
 11
206.1304
 21
-96.1124
  0
LINE
  8
0
  6
CONTINUOUS
 62
     7
 10
201.3804
 20
-94.1124
 11
201.3804
 21
-95.1124
  0
LINE
  8
0
  6
CONTINUOUS
 62
     7
 10
205.8804
 20
-94.1124
 11
205.8804
 21
-95.1124
  0
LINE
  8
0
  6
CONTINUOUS
 62
     7
 10
205.8803
 20
-94.11242
 11
205.3803
 21
-93.61242
  0
LINE
  8
0
  6
CONTINUOUS
 62
     7
 10
201.8803
 20
-93.61239
 11
201.3803
 21
-94.11238
  0
LINE
  8
0
  6
CONTINUOUS
 62
     7
 10
201.3803
 20
-95.11244
 11
201.8803
 21
-95.61245
  0
LINE
  8
0
  6
CONTINUOUS
 62
     7
 10
205.3804
 20
-95.6124
 11
205.8804
 21
-95.1124
  0
LINE
  8
0
  6
CONTINUOUS
 62
     7
 10
201.3804
 20
-94.1124
 11
205.8804
 21
-94.1124
  0
LINE
  8
0
  6
CONTINUOUS
 62
     7
 10
201.3804
 20
-95.1124
 11
205.8804
 21
-95.1124
  0
LINE
  8
0
  6
CONTINUOUS
 62
     7
 10
205.4303
 20
-86.81241
 11
205.4303
 21
-90.31241
  0
LINE
  8
0
  6
CONTINUOUS
 62
     7
 10
201.8304
 20
-86.81241
 11
201.8304
 21
-90.31241
  0
LINE
  8
0
  6
CONTINUOUS
 62
     7
 10
205.4303
 20
-86.81246
 11
204.9303
 21
-86.31245
  0
LINE
  8
0
  6
CONTINUOUS
 62
     7
 10
202.3304
 20
-86.3124
 11
201.8304
 21
-86.8124
  0
LINE
  8
0
  6
CONTINUOUS
 62
     7
 10
201.8304
 20
-86.81241
 11
205.4303
 21
-86.81241
  0
LINE
  8
0
  6
CONTINUOUS
 62
     7
 10
202.3804
 20
-90.31241
 11
202.3804
 21
-93.6124
  0
LINE
  8
0
  6
CONTINUOUS
 62
     7
 10
204.8804
 20
-90.31241
 11
204.8804
 21
-93.6124
  0
LINE
  8
0
  6
CONTINUOUS
 62
     7
 10
204.6369
 20
-90.31241
 11
204.6369
 21
-93.6124
  0
LINE
  8
0
  6
CONTINUOUS
 62
     7
 10
202.3804
 20
-94.1124
 11
202.3804
 21
-95.1124
  0
LINE
  8
0
  6
CONTINUOUS
 62
     7
 10
203.3804
 20
-94.1124
 11
203.3804
 21
-95.1124
  0
LINE
  8
0
  6
CONTINUOUS
 62
     7
 10
202.8304
 20
-86.81241
 11
202.8304
 21
-90.31241
  0
LINE
  8
0
  6
CONTINUOUS
 62
     7
 10
203.8304
 20
-86.81241
 11
203.8304
 21
-90.31241
  0
LINE
  8
0
  6
CONTINUOUS
 62
     7
 10
202.1304
 20
-96.1124
 11
202.1304
 21
-98.81241
  0
LINE
  8
0
  6
CONTINUOUS
 62
     7
 10
203.1304
 20
-96.1124
 11
203.1304
 21
-98.81241
  0
LINE
  8
0
  6
CONTINUOUS
 62
     7
 10
201.1304
 20
-96.1124
 11
201.1304
 21
-109.4124
  0
LINE
  8
0
  6
CONTINUOUS
 62
     7
 10
206.1304
 20
-96.1124
 11
206.1304
 21
-109.4124
  0
LINE
  8
0
  6
CONTINUOUS
 62
     7
 10
201.1304
 20
-98.81241
 11
206.1304
 21
-98.81241
  0
LINE
  8
0
  6
CONTINUOUS
 62
     7
 10
201.1304
 20
-107.8124
 11
206.1304
 21
-107.8124
  0
LINE
  8
0
  6
CENTER
 62
     2
 10
200.1304
 20
-104.8124
 11
207.1304
 21
-104.8124
  0
LINE
  8
0
  6
CONTINUOUS
 62
     7
 10
204.8598
 20
-109.4124
 11
204.8598
 21
-111.8124
  0
LINE
  8
0
  6
CONTINUOUS
 62
     7
 10
202.1304
 20
-109.4124
 11
202.1304
 21
-111.8124
  0
LINE
  8
0
  6
CONTINUOUS
 62
     7
 10
205.1304
 20
-109.4124
 11
205.1304
 21
-111.8124
  0
LINE
  8
0
  6
CONTINUOUS
 62
     7
 10
202.1304
 20
-111.8124
 11
205.1304
 21
-111.8124
  0
LINE
  8
0
  6
CONTINUOUS
 62
     7
 10
201.1304
 20
-108.8124
 11
206.1304
 21
-108.8124
  0
LINE
  8
0
  6
CONTINUOUS
 62
     7
 10
201.1304
 20
-109.4124
 11
206.1304
 21
-109.4124
  0
LINE
  8
0
  6
CONTINUOUS
 62
     7
 10
202.4008
 20
-109.4124
 11
202.4008
 21
-111.8124
  0
ARC
  8
0
  6
CONTINUOUS
 62
     7
 10
193.0652
 20
-166.2024
 40
1.56404
 50
0.0
 51
89.99999
  0
ARC
  8
0
  6
CONTINUOUS
 62
     7
 10
205.9686
 20
-174.6092
 40
1.56404
 50
270.0
 51
0.0
  0
ARC
  8
0
  6
CONTINUOUS
 62
     7
 10
205.1865
 20
-166.9844
 40
2.34607
 50
0.0
 51
89.99999
  0
ARC
  8
0
  6
CONTINUOUS
 62
     7
 10
219.4585
 20
-166.2024
 40
1.56404
 50
0.0
 51
89.99999
  0
ARC
  8
0
  6
CONTINUOUS
 62
     7
 10
219.4585
 20
-167.4519
 40
1.56405
 50
295.0
 51
0.0
  0
ARC
  8
0
  6
CONTINUOUS
 62
     7
 10
231.5798
 20
-164.6383
 40
2.34607
 50
291.6882
 51
0.0
  0
ARC
  8
0
  6
CONTINUOUS
 62
     7
 10
230.7978
 20
-164.1077
 40
0.78203
 50
291.688
 51
0.0
  0
CIRCLE
  8
0
  6
CONTINUOUS
 62
     7
 10
-126.6854
 20
74.38764
 40
1.15
  0
CIRCLE
  8
0
  6
CONTINUOUS
 62
     7
 10
-134.6854
 20
68.38764
 40
1.15
  0
CIRCLE
  8
0
  6
CONTINUOUS
 62
     7
 10
-130.6854
 20
118.0876
 40
2.25
  0
CIRCLE
  8
0
  6
CONTINUOUS
 62
     7
 10
-130.6854
 20
118.0876
 40
1.8
  0
CIRCLE
  8
0
  6
CONTINUOUS
 62
     7
 10
-130.6854
 20
118.0876
 40
2.5
  0
CIRCLE
  8
0
  6
CONTINUOUS
 62
     7
 10
-210.1854
 20
71.88764
 40
1.2295
  0
CIRCLE
  8
0
  6
CONTINUOUS
 62
     7
 10
-210.1854
 20
71.88764
 40
1.5
  0
CIRCLE
  8
0
  6
CONTINUOUS
 62
     7
 10
-58.18542
 20
69.88763
 40
1.5
  0
CIRCLE
  8
0
  6
CONTINUOUS
 62
     7
 10
-58.18542
 20
69.88763
 40
1.2295
  0
CIRCLE
  8
0
  6
CONTINUOUS
 62
     7
 10
-130.6855
 20
22.08765
 40
1.25
  0
CIRCLE
  8
0
  6
CONTINUOUS
 62
     7
 10
-124.0854
 20
-107.9124
 40
1.15
  0
CIRCLE
  8
0
  6
CONTINUOUS
 62
     7
 10
-124.0854
 20
-99.4124
 40
1.15
  0
CIRCLE
  8
0
  6
CONTINUOUS
 62
     7
 10
-129.0854
 20
-42.61238
 40
2.25
  0
CIRCLE
  8
0
  6
CONTINUOUS
 62
     7
 10
-129.0854
 20
-42.61238
 40
1.8
  0
CIRCLE
  8
0
  6
CONTINUOUS
 62
     7
 10
-129.0854
 20
-42.61238
 40
2.5
  0
CIRCLE
  8
0
  6
CONTINUOUS
 62
     7
 10
-58.18542
 20
-102.4124
 40
1.2295
  0
CIRCLE
  8
0
  6
CONTINUOUS
 62
     7
 10
-58.18542
 20
-102.4124
 40
1.5
  0
CIRCLE
  8
0
  6
CONTINUOUS
 62
     7
 10
-129.0854
 20
-152.9124
 40
1.5
  0
CIRCLE
  8
0
  6
CONTINUOUS
 62
     7
 10
-129.0854
 20
-152.9124
 40
1.2295
  0
CIRCLE
  8
0
  6
CONTINUOUS
 62
     7
 10
123.4382
 20
74.88764
 40
2.5
  0
CIRCLE
  8
0
  6
CONTINUOUS
 62
     7
 10
127.7382
 20
124.2877
 40
1.8
  0
CIRCLE
  8
0
  6
CONTINUOUS
 62
     7
 10
127.7382
 20
124.2877
 40
2.25
  0
CIRCLE
  8
0
  6
CONTINUOUS
 62
     7
 10
127.7382
 20
124.2877
 40
2.5
  0
CIRCLE
  8
0
  6
CONTINUOUS
 62
     7
 10
198.7382
 20
72.88766
 40
1.2295
  0
CIRCLE
  8
0
  6
CONTINUOUS
 62
     7
 10
198.7382
 20
72.88766
 40
1.5
  0
CIRCLE
  8
0
  6
CONTINUOUS
 62
     7
 10
127.7382
 20
30.18765
 40
1.25
  0
CIRCLE
  8
0
  6
CONTINUOUS
 62
     7
 10
124.7303
 20
-42.61242
 40
1.9
  0
CIRCLE
  8
0
  6
CONTINUOUS
 62
     7
 10
129.5303
 20
-42.61242
 40
1.8
  0
CIRCLE
  8
0
  6
CONTINUOUS
 62
     7
 10
129.5303
 20
-42.61242
 40
2.5
  0
CIRCLE
  8
0
  6
CONTINUOUS
 62
     7
 10
129.5303
 20
-42.61242
 40
2.25
  0
CIRCLE
  8
0
  6
CONTINUOUS
 62
     7
 10
203.6304
 20
-104.8124
 40
1.2295
  0
CIRCLE
  8
0
  6
CONTINUOUS
 62
     7
 10
203.6304
 20
-104.8124
 40
1.5
  0
TEXT
  8
0
  6
CONTINUOUS
 62
     7
 10
161.9774
 20
167.0677
 40
6.0
  1
DATE : SEP ,1989
 41
0.8
  7
STANDARD
  0
TEXT
  8
0
  6
CONTINUOUS
 62
     7
 10
-258.1974
 20
166.5977
 40
7.0
  1
SPEED CONTROLLER,TSCO
 41
0.55172
  7
STANDARD
  0
TEXT
  8
0
  6
CONTINUOUS
 62
     7
 10
7.85
 20
161.4853
 40
7.0
  1
MODEL : TSCO-UC
 41
0.8
  7
STANDARD
  0
TEXT
  8
0
  6
CONTINUOUS
 62
     7
 10
-254.3972
 20
146.4853
 40
7.0
  1
MODEL : TSCO
 41
0.8
  7
STANDARD
  0
TEXT
  8
0
  6
CONTINUOUS
 62
     7
 10
-254.3972
 20
-13.29002
 40
7.0
  1
MODEL : TSCO-L
 41
0.8
  7
STANDARD
  0
TEXT
  8
0
  6
CONTINUOUS
 62
     7
 10
7.85
 20
-13.29002
 40
7.0
  1
MODEL : TSCO-UL
 41
0.8
  7
STANDARD
  0
ENDSEC
  0
EOF
