  0
SECTION
  2
HEADER
  0
ENDSEC
  0
SECTION
  2
TABLES
  0
TABLE
  2
LTYPE
 70
     4
  0
LTYPE
  2
CONTINUOUS
 70
    64
  3
Solid line
 72
    65
 73
     0
 40
0.000000
  0
LTYPE
  2
DASHED
 70
    64
  3
__ __ __ __ __ __ __ __ __ __ __ __ __ __ __
 72
    65
 73
     2
 40
3.500000
 49
2.000000
 49
-1.500000
  0
LTYPE
  2
CENTER
 70
    64
  3
____ _ ____ _ ____ _ ____ _ ____ _ ____ _ ____
 72
    65
 73
     4
 40
17.500000
 49
13.000000
 49
-1.500000
 49
1.500000
 49
-1.500000
  0
LTYPE
  2
PHANTOM
 70
    64
  3
_____ _ _ _____ _ _ _____ _ _ _____ _ _ ____  
 72
    65
 73
     6
 40
15.500000
 49
8.000000
 49
-1.500000
 49
1.500000
 49
-1.500000
 49
1.500000
 49
-1.500000
  0
LTYPE
  2
DASHED1
 70
    64
  3
__ __ __ __ __ __ __ __ __ __ __ __ __ __ __
 72
    65
 73
     2
 40
1.500000
 49
1.000000
 49
-0.500000
  0
LTYPE
  2
DASHED2
 70
    64
  3
__ __ __ __ __ __ __ __ __ __ __ __ __ __ __
 72
    65
 73
     2
 40
3.500000
 49
2.500000
 49
-1.000000
  0
LTYPE
  2
DASHED3
 70
    64
  3
__ __ __ __ __ __ __ __ __ __ __ __ __ __ __
 72
    65
 73
     2
 40
6.000000
 49
4.000000
 49
-2.000000
  0
LTYPE
  2
DASHED4
 70
    64
  3
__ __ __ __ __ __ __ __ __ __ __ __ __ __ __
 72
    65
 73
     2
 40
12.000000
 49
10.000000
 49
-2.000000
  0
LTYPE
  2
DASHED5
 70
    64
  3
__ __ __ __ __ __ __ __ __ __ __ __ __ __ __
 72
    65
 73
     2
 40
17.000000
 49
15.000000
 49
-2.000000
  0
LTYPE
  2
DASHED6
 70
    64
  3
__ __ __ __ __ __ __ __ __ __ __ __ __ __ __
 72
    65
 73
     2
 40
29.000000
 49
27.000000
 49
-2.000000
  0
LTYPE
  2
PHANTOM1
 70
    64
  3
_____ _ _ _____ _ _ _____ _ _ _____ _ _ ____  
 72
    65
 73
     6
 40
31.000000
 49
25.000000
 49
-1.500000
 49
1.000000
 49
-1.000000
 49
1.000000
 49
-1.500000
  0
LTYPE
  2
PHANTOM2
 70
    64
  3
_____ _ _ _____ _ _ _____ _ _ _____ _ _ ____  
 72
    65
 73
     6
 40
36.000000
 49
27.000000
 49
-1.500000
 49
2.500000
 49
-1.000000
 49
2.500000
 49
-1.500000
  0
LTYPE
  2
PHANTOM3
 70
    64
  3
_____ _ _ _____ _ _ _____ _ _ _____ _ _ ____  
 72
    65
 73
     6
 40
78.000000
 49
64.000000
 49
-2.000000
 49
4.000000
 49
-2.000000
 49
4.000000
 49
-2.000000
  0
LTYPE
  2
CENTER1
 70
    64
  3
____ _ ____ _ ____ _ ____ _ ____ _ ____ _ ____
 72
    65
 73
     4
 40
19.000000
 49
14.000000
 49
-1.000000
 49
3.000000
 49
-1.000000
  0
LTYPE
  2
CENTER2
 70
    64
  3
____ _ ____ _ ____ _ ____ _ ____ _ ____ _ ____
 72
    65
 73
     4
 40
28.500000
 49
25.000000
 49
-1.000000
 49
1.500000
 49
-1.000000
  0
LTYPE
  2
CENTER3
 70
    64
  3
____ _ ____ _ ____ _ ____ _ ____ _ ____ _ ____
 72
    65
 73
     4
 40
31.500000
 49
27.000000
 49
-1.000000
 49
2.500000
 49
-1.000000
  0
LTYPE
  2
CENTER4
 70
    64
  3
____ _ ____ _ ____ _ ____ _ ____ _ ____ _ ____
 72
    65
 73
     4
 40
50.000000
 49
45.000000
 49
-1.000000
 49
3.000000
 49
-1.000000
  0
LTYPE
  2
CENTER5
 70
    64
  3
____ _ ____ _ ____ _ ____ _ ____ _ ____ _ ____
 72
    65
 73
     4
 40
100.000000
 49
92.000000
 49
-2.000000
 49
4.000000
 49
-2.000000
  0
LTYPE
  2
SBK1
 70
    64
  3
______ _ _ _ ______ _ _ _ ______ _ _ _ _____  
 72
    65
 73
     8
 40
60.500000
 49
45.000000
 49
-2.000000
 49
2.500000
 49
-2.000000
 49
2.500000
 49
-2.000000
 49
2.500000
 49
-2.000000
  0
LTYPE
  2
SBK2
 70
    64
  3
______ _ _ _ ______ _ _ _ ______ _ _ _ _____  
 72
    65
 73
     8
 40
84.000000
 49
64.000000
 49
-2.000000
 49
4.000000
 49
-2.000000
 49
4.000000
 49
-2.000000
 49
4.000000
 49
-2.000000
  0
LTYPE
  2
STCH
 70
    64
  3
__ __ __ __ __ __ __ __ __ __ __ __ __ __ __
 72
    65
 73
     2
 40
3.000000
 49
1.000000
 49
-2.000000
  0
LTYPE
  2
MTCH
 70
    64
  3
_____ _ _ _____ _ _ _____ _ _ _____ _ _ ____  
 72
    65
 73
     6
 40
80.000000
 49
66.000000
 49
-2.000000
 49
4.000000
 49
-2.000000
 49
4.000000
 49
-2.000000
  0
ENDTAB
  0
TABLE
  2
LAYER
 70
     1
  0
LAYER
  2
0
 70
     0
 62
     7
  6
CONTINUOUS
  0
ENDTAB
  0
TABLE
  2
STYLE
 70
     1
  0
STYLE
  2
STANDARD
 70
     0
 40
0.000000
 41
1.000000
 50
0.000000
 71
     0
 42
0.200000
  3
txt
  4
BIGFONT
  0
ENDTAB
  0
TABLE
  2
VIEW
 70
     0
  0
ENDTAB
  0
ENDSEC
  0
SECTION
  2
BLOCKS
  0
ENDSEC
  0
SECTION
  2
ENTITIES
  0
LINE
  8
0
 10
399.799988
 20
276.250000
 11
399.799988
 21
-276.750000
  0
LINE
  8
0
 10
-399.250000
 20
276.250000
 11
-399.250000
 21
-276.750000
  0
LINE
  8
0
 10
-399.250000
 20
276.250000
 11
399.799988
 21
276.250000
  0
LINE
  8
0
 10
-399.250000
 20
-276.750000
 11
399.799988
 21
-276.750000
  0
LINE
  8
0
 10
239.799988
 20
-251.750000
 11
399.799988
 21
-251.750000
  0
LINE
  8
0
 10
239.799988
 20
251.250000
 11
399.799988
 21
251.250000
  0
LINE
  8
0
 10
-399.250000
 20
251.250000
 11
-239.250000
 21
251.250000
  0
LINE
  8
0
 10
239.799988
 20
-251.750000
 11
239.799988
 21
-276.750000
  0
LINE
  8
0
 10
239.799988
 20
251.250000
 11
239.799988
 21
276.250000
  0
LINE
  8
0
 10
-239.250000
 20
276.250000
 11
-239.250000
 21
251.250000
  0
LINE
  8
0
 10
0.274994
 20
-276.750000
 11
0.274994
 21
276.250000
  0
LINE
  8
0
  6
CENTER
 62
     1
 10
-375.915436
 20
-107.789314
 11
-265.244812
 21
-107.789314
  0
LINE
  8
0
  6
CENTER
 62
     1
 10
-375.915436
 20
-50.289314
 11
-341.686951
 21
-50.289314
  0
LINE
  8
0
  6
CENTER
 62
     1
 10
-375.915436
 20
-165.289307
 11
-343.330872
 21
-165.289307
  0
LINE
  8
0
 62
     4
 10
-365.915436
 20
-35.289314
 11
-365.915436
 21
-180.289307
  0
LINE
  8
0
 62
     4
 10
-347.915436
 20
-35.289314
 11
-347.915436
 21
-180.289307
  0
LINE
  8
0
 62
     4
 10
-345.855835
 20
-152.109482
 11
-292.138855
 21
-134.378265
  0
LINE
  8
0
 62
     4
 10
-345.855804
 20
-63.469189
 11
-292.138824
 21
-81.200417
  0
LINE
  8
0
 62
     4
 10
-317.165436
 20
-102.789314
 11
-317.165436
 21
-106.789314
  0
LINE
  8
0
 62
     4
 10
-317.165436
 20
-106.789314
 11
-313.375366
 21
-106.789314
  0
LINE
  8
0
 62
     4
 10
-317.165436
 20
-108.789314
 11
-313.375366
 21
-108.789314
  0
LINE
  8
0
 62
     4
 10
-317.165436
 20
-102.789314
 11
-314.356689
 21
-102.789314
  0
LINE
  8
0
 62
     4
 10
-317.165436
 20
-112.789314
 11
-314.356689
 21
-112.789314
  0
LINE
  8
0
 62
     4
 10
-317.165436
 20
-108.789314
 11
-317.165436
 21
-112.789314
  0
LINE
  8
0
  6
CENTER
 62
     1
 10
-300.915436
 20
-72.544075
 11
-300.915436
 21
-141.575073
  0
LINE
  8
0
 62
     4
 10
-365.915436
 20
-35.289314
 11
-347.915436
 21
-35.289314
  0
LINE
  8
0
 62
     4
 10
-365.915436
 20
-180.289307
 11
-347.915436
 21
-180.289307
  0
LINE
  8
0
  6
CENTER
 62
     1
 10
-174.532654
 20
-107.789314
 11
-13.004486
 21
-107.789314
  0
LINE
  8
0
  6
CENTER
 62
     1
 10
-96.415436
 20
-31.289314
 11
-96.415436
 21
-184.039307
  0
LINE
  8
0
 62
     4
 10
-168.915436
 20
-35.289314
 11
-23.915436
 21
-35.289314
  0
LINE
  8
0
 62
     4
 10
-168.915436
 20
-180.289307
 11
-23.915436
 21
-180.289307
  0
LINE
  8
0
  6
CENTER
 62
     1
 10
-38.915436
 20
-35.789314
 11
-38.915436
 21
-64.789314
  0
LINE
  8
0
  6
CENTER
 62
     1
 10
-153.915436
 20
-35.289314
 11
-153.915436
 21
-63.789314
  0
LINE
  8
0
  6
CENTER
 62
     1
 10
-167.165436
 20
-50.289314
 11
-140.165436
 21
-50.289314
  0
LINE
  8
0
  6
CENTER
 62
     1
 10
-167.415436
 20
-165.289307
 11
-140.415436
 21
-165.289307
  0
LINE
  8
0
  6
CENTER
 62
     1
 10
-153.915436
 20
-150.289307
 11
-153.915436
 21
-180.039307
  0
LINE
  8
0
  6
CENTER
 62
     1
 10
-51.165436
 20
-165.289307
 11
-24.915436
 21
-165.289307
  0
LINE
  8
0
  6
CENTER
 62
     1
 10
-38.915436
 20
-149.539307
 11
-38.915436
 21
-178.789307
  0
LINE
  8
0
  6
CENTER
 62
     1
 10
-52.165436
 20
-50.289314
 11
-25.915436
 21
-50.289314
  0
LINE
  8
0
 62
     4
 10
-23.915436
 20
-35.289314
 11
-23.915436
 21
-180.289307
  0
LINE
  8
0
 62
     4
 10
-168.915436
 20
-35.289314
 11
-168.915436
 21
-180.289307
  0
LINE
  8
0
 62
     4
 10
-80.415436
 20
-79.789314
 11
-80.415436
 21
-135.789307
  0
LINE
  8
0
 62
     4
 10
-112.415436
 20
-79.789314
 11
-112.415436
 21
-135.789307
  0
LINE
  8
0
 62
     4
 10
-64.415436
 20
-79.789314
 11
-64.415436
 21
-135.789307
  0
LINE
  8
0
 62
     4
 10
-128.415436
 20
-79.789314
 11
-128.415436
 21
-135.789307
  0
LINE
  8
0
 62
     4
 10
-78.415436
 20
-65.789314
 11
-78.415436
 21
-77.789314
  0
LINE
  8
0
 62
     4
 10
-66.415436
 20
-65.789314
 11
-66.415436
 21
-77.789314
  0
LINE
  8
0
 62
     4
 10
-128.415436
 20
-135.789307
 11
-128.415436
 21
-135.789307
  0
LINE
  8
0
 62
     4
 10
-128.415436
 20
-79.789314
 11
-128.415436
 21
-79.789314
  0
LINE
  8
0
 62
     4
 10
-126.415436
 20
-137.789307
 11
-126.415436
 21
-149.789307
  0
LINE
  8
0
 62
     4
 10
-114.415436
 20
-137.789307
 11
-114.415436
 21
-149.789307
  0
LINE
  8
0
 62
     4
 10
-78.415436
 20
-137.789307
 11
-78.415436
 21
-149.789307
  0
LINE
  8
0
 62
     4
 10
-66.415436
 20
-137.789307
 11
-66.415436
 21
-149.789307
  0
LINE
  8
0
 62
     4
 10
-64.415436
 20
-79.789314
 11
-64.415436
 21
-79.789314
  0
LINE
  8
0
 62
     4
 10
-80.415436
 20
-79.789314
 11
-80.415436
 21
-79.789314
  0
LINE
  8
0
 62
     4
 10
-112.415436
 20
-79.789314
 11
-112.415436
 21
-79.789314
  0
LINE
  8
0
 62
     4
 10
-112.415436
 20
-135.789307
 11
-112.415436
 21
-135.789307
  0
LINE
  8
0
 62
     4
 10
-80.415436
 20
-135.789307
 11
-80.415436
 21
-135.789307
  0
LINE
  8
0
 62
     4
 10
-64.415436
 20
-135.789307
 11
-64.415436
 21
-135.789307
  0
LINE
  8
0
 62
     4
 10
-59.915436
 20
-95.289314
 11
-59.915436
 21
-120.289314
  0
LINE
  8
0
 62
     4
 10
-112.415436
 20
-95.289314
 11
-80.415436
 21
-95.289314
  0
LINE
  8
0
 62
     4
 10
-112.415436
 20
-120.289314
 11
-80.415436
 21
-120.289314
  0
LINE
  8
0
 62
     4
 10
-64.415436
 20
-95.289314
 11
-63.915436
 21
-95.289314
  0
LINE
  8
0
 62
     4
 10
-64.415436
 20
-120.289314
 11
-63.915436
 21
-120.289314
  0
LINE
  8
0
 62
     4
 10
-63.915436
 20
-93.589317
 11
-63.915436
 21
-121.989311
  0
LINE
  8
0
 62
     4
 10
-62.715424
 20
-93.589317
 11
-62.715424
 21
-121.989311
  0
LINE
  8
0
 62
     4
 10
-63.915436
 20
-121.989311
 11
-62.715424
 21
-121.989311
  0
LINE
  8
0
 62
     4
 10
-63.915436
 20
-93.589317
 11
-62.715424
 21
-93.589317
  0
LINE
  8
0
 62
     4
 10
-62.715424
 20
-95.289314
 11
-59.915436
 21
-95.289314
  0
LINE
  8
0
 62
     4
 10
-62.715424
 20
-120.289314
 11
-59.915436
 21
-120.289314
  0
LINE
  8
0
 62
     4
 10
-114.415436
 20
-65.789314
 11
-114.415436
 21
-77.789314
  0
LINE
  8
0
 62
     4
 10
-126.415436
 20
-65.789314
 11
-126.415436
 21
-77.789314
  0
LINE
  8
0
 62
     4
 10
-128.915436
 20
-95.289314
 11
-128.415436
 21
-95.289314
  0
LINE
  8
0
 62
     4
 10
-132.915436
 20
-95.289314
 11
-130.115433
 21
-95.289314
  0
LINE
  8
0
 62
     4
 10
-132.915436
 20
-120.289314
 11
-130.115433
 21
-120.289314
  0
LINE
  8
0
 62
     4
 10
-132.915436
 20
-95.289314
 11
-132.915436
 21
-120.289314
  0
LINE
  8
0
 62
     4
 10
-130.115433
 20
-121.989311
 11
-128.915436
 21
-121.989311
  0
LINE
  8
0
 62
     4
 10
-130.115433
 20
-93.589317
 11
-128.915436
 21
-93.589317
  0
LINE
  8
0
 62
     4
 10
-128.915436
 20
-93.589317
 11
-128.915436
 21
-121.989311
  0
LINE
  8
0
 62
     4
 10
-130.115433
 20
-93.589317
 11
-130.115433
 21
-121.989311
  0
LINE
  8
0
 62
     4
 10
-128.915436
 20
-120.289314
 11
-128.415436
 21
-120.289314
  0
LINE
  8
0
 62
     4
 10
-344.915466
 20
117.718071
 11
-294.138855
 21
117.718071
  0
LINE
  8
0
 62
     4
 10
-344.915466
 20
129.718079
 11
-294.138855
 21
129.718079
  0
LINE
  8
0
 62
     4
 10
-313.415436
 20
136.218079
 11
-313.415436
 21
133.418121
  0
LINE
  8
0
 62
     4
 10
-288.415405
 20
136.218079
 11
-288.415405
 21
133.418121
  0
LINE
  8
0
 62
     4
 10
-313.415436
 20
136.218079
 11
-288.415405
 21
136.218079
  0
LINE
  8
0
 62
     4
 10
-285.865356
 20
133.418121
 11
-285.865356
 21
132.218109
  0
LINE
  8
0
 62
     4
 10
-317.165375
 20
133.418121
 11
-317.165375
 21
132.218109
  0
LINE
  8
0
 62
     4
 10
-317.165436
 20
132.218079
 11
-285.865417
 21
132.218079
  0
LINE
  8
0
 62
     4
 10
-317.165436
 20
133.418060
 11
-285.865417
 21
133.418060
  0
LINE
  8
0
 62
     4
 10
-288.415405
 20
132.218109
 11
-288.415405
 21
131.718109
  0
LINE
  8
0
 62
     4
 10
-313.415436
 20
132.218109
 11
-313.415436
 21
131.718109
  0
LINE
  8
0
 62
     4
 10
-365.915466
 20
27.218071
 11
-347.915466
 21
27.218071
  0
LINE
  8
0
 62
     4
 10
-365.915466
 20
172.218048
 11
-347.915466
 21
172.218048
  0
LINE
  8
0
 62
     4
 10
-365.915405
 20
27.218117
 11
-365.915405
 21
172.218140
  0
LINE
  8
0
 62
     4
 10
-347.915405
 20
27.218117
 11
-347.915405
 21
172.218140
  0
LINE
  8
0
  6
CENTER
 62
     1
 10
-300.915405
 20
42.218117
 11
-300.915405
 21
157.218109
  0
LINE
  8
0
  6
CENTER
 62
     1
 10
-372.887909
 20
99.718071
 11
-262.544495
 21
99.718071
  0
LINE
  8
0
 62
     4
 10
-328.915466
 20
115.718071
 11
-272.915466
 21
115.718071
  0
LINE
  8
0
 62
     4
 10
-328.915466
 20
131.718079
 11
-272.915466
 21
131.718079
  0
LINE
  8
0
 62
     4
 10
-328.915405
 20
131.718109
 11
-328.915405
 21
129.718079
  0
LINE
  8
0
 62
     4
 10
-272.915405
 20
131.718109
 11
-272.915405
 21
115.718117
  0
LINE
  8
0
  6
CENTER
 62
     1
 10
-370.915466
 20
42.218071
 11
-342.915466
 21
42.218071
  0
LINE
  8
0
  6
CENTER
 62
     1
 10
-370.915466
 20
157.218079
 11
-342.915466
 21
157.218079
  0
LINE
  8
0
 62
     4
 10
-313.415405
 20
83.718117
 11
-313.415405
 21
115.718117
  0
LINE
  8
0
 62
     4
 10
-288.415405
 20
83.718117
 11
-288.415405
 21
115.718117
  0
LINE
  8
0
 62
     4
 10
-344.915466
 20
81.718071
 11
-294.138855
 21
81.718071
  0
LINE
  8
0
 62
     4
 10
-344.915466
 20
69.718071
 11
-294.138855
 21
69.718071
  0
LINE
  8
0
 62
     4
 10
-313.415436
 20
63.218071
 11
-313.415436
 21
66.018135
  0
LINE
  8
0
 62
     4
 10
-288.415405
 20
63.218071
 11
-288.415405
 21
66.018135
  0
LINE
  8
0
 62
     4
 10
-313.415436
 20
63.218071
 11
-288.415405
 21
63.218071
  0
LINE
  8
0
 62
     4
 10
-285.865356
 20
66.018135
 11
-285.865356
 21
67.218117
  0
LINE
  8
0
 62
     4
 10
-317.165375
 20
66.018135
 11
-317.165375
 21
67.218117
  0
LINE
  8
0
 62
     4
 10
-317.165436
 20
67.218071
 11
-285.865417
 21
67.218071
  0
LINE
  8
0
 62
     4
 10
-317.165436
 20
66.018089
 11
-285.865417
 21
66.018089
  0
LINE
  8
0
 62
     4
 10
-288.415405
 20
67.218117
 11
-288.415405
 21
67.718117
  0
LINE
  8
0
 62
     4
 10
-313.415436
 20
67.218117
 11
-313.415436
 21
67.718117
  0
LINE
  8
0
 62
     4
 10
-328.915466
 20
83.718071
 11
-272.915466
 21
83.718071
  0
LINE
  8
0
 62
     4
 10
-328.915466
 20
67.718071
 11
-272.915466
 21
67.718071
  0
LINE
  8
0
 62
     4
 10
-328.915405
 20
67.718117
 11
-328.915405
 21
69.718086
  0
LINE
  8
0
 62
     4
 10
-272.915405
 20
67.718117
 11
-272.915405
 21
83.718117
  0
LINE
  8
0
 62
     4
 10
-328.915405
 20
81.718086
 11
-328.915405
 21
83.718117
  0
LINE
  8
0
 62
     4
 10
-328.915405
 20
117.718086
 11
-328.915405
 21
115.718117
  0
LINE
  8
0
  6
CENTER
 62
     1
 10
12.864990
 20
-107.789314
 11
129.638275
 21
-107.789314
  0
LINE
  8
0
 62
     4
 10
17.864990
 20
-27.789314
 11
17.864990
 21
-187.789307
  0
LINE
  8
0
 62
     4
 10
37.864990
 20
-27.789314
 11
37.864990
 21
-187.789307
  0
LINE
  8
0
  6
CENTER
 62
     1
 10
92.864990
 20
-68.953758
 11
92.864990
 21
-146.445770
  0
LINE
  8
0
 62
     4
 10
39.899265
 20
-159.597656
 11
103.166321
 21
-138.085922
  0
LINE
  8
0
 62
     4
 10
39.899258
 20
-55.980988
 11
103.166313
 21
-77.492729
  0
LINE
  8
0
 62
     4
 10
74.964996
 20
-106.789314
 11
78.900757
 21
-106.789314
  0
LINE
  8
0
 62
     4
 10
74.964996
 20
-108.789314
 11
78.900757
 21
-108.789314
  0
LINE
  8
0
 62
     4
 10
74.964996
 20
-102.789314
 11
77.952606
 21
-102.789314
  0
LINE
  8
0
 62
     4
 10
74.964996
 20
-112.789314
 11
77.952606
 21
-112.789314
  0
LINE
  8
0
 62
     4
 10
74.964996
 20
-102.789314
 11
74.964996
 21
-106.789314
  0
LINE
  8
0
 62
     4
 10
74.964996
 20
-108.789314
 11
74.964996
 21
-112.789314
  0
LINE
  8
0
 62
     4
 10
17.864990
 20
-27.789314
 11
37.864990
 21
-27.789314
  0
LINE
  8
0
 62
     4
 10
17.864990
 20
-187.789307
 11
37.864990
 21
-187.789307
  0
LINE
  8
0
  6
CENTER
 62
     1
 10
12.864990
 20
-43.789314
 11
42.864990
 21
-43.789314
  0
LINE
  8
0
  6
CENTER
 62
     1
 10
12.864990
 20
-171.789307
 11
42.864990
 21
-171.789307
  0
LINE
  8
0
  6
CENTER
 62
     1
 10
210.957642
 20
-107.789314
 11
389.334747
 21
-107.789314
  0
LINE
  8
0
  6
CENTER
 62
     1
 10
299.364990
 20
-23.946587
 11
299.364990
 21
-193.270020
  0
LINE
  8
0
  6
CENTER
 62
     1
 10
363.364990
 20
-29.289314
 11
363.364990
 21
-58.289314
  0
LINE
  8
0
  6
CENTER
 62
     1
 10
235.364990
 20
-28.789314
 11
235.364990
 21
-57.289314
  0
LINE
  8
0
  6
CENTER
 62
     1
 10
222.114990
 20
-43.789314
 11
249.114990
 21
-43.789314
  0
LINE
  8
0
  6
CENTER
 62
     1
 10
221.864990
 20
-171.789307
 11
248.864990
 21
-171.789307
  0
LINE
  8
0
  6
CENTER
 62
     1
 10
235.364990
 20
-156.789307
 11
235.364990
 21
-186.539307
  0
LINE
  8
0
  6
CENTER
 62
     1
 10
351.114990
 20
-171.789307
 11
377.364990
 21
-171.789307
  0
LINE
  8
0
  6
CENTER
 62
     1
 10
363.364990
 20
-156.039307
 11
363.364990
 21
-185.289307
  0
LINE
  8
0
  6
CENTER
 62
     1
 10
350.114990
 20
-43.789314
 11
376.364990
 21
-43.789314
  0
LINE
  8
0
 62
     4
 10
219.364990
 20
-27.789314
 11
219.364990
 21
-187.789307
  0
LINE
  8
0
 62
     4
 10
379.364990
 20
-27.789314
 11
379.364990
 21
-187.789307
  0
LINE
  8
0
 62
     4
 10
219.364990
 20
-187.789307
 11
379.364990
 21
-187.789307
  0
LINE
  8
0
 62
     4
 10
219.364990
 20
-27.789314
 11
379.364990
 21
-27.789314
  0
LINE
  8
0
 62
     4
 10
317.364990
 20
-75.789314
 11
317.364990
 21
-139.789307
  0
LINE
  8
0
 62
     4
 10
281.364990
 20
-75.789314
 11
281.364990
 21
-139.789307
  0
LINE
  8
0
 62
     4
 10
335.364990
 20
-75.789314
 11
335.364990
 21
-139.789307
  0
LINE
  8
0
 62
     4
 10
263.364990
 20
-75.789314
 11
263.364990
 21
-139.789307
  0
LINE
  8
0
 62
     4
 10
319.864990
 20
-58.289314
 11
319.864990
 21
-73.789314
  0
LINE
  8
0
 62
     4
 10
332.864990
 20
-58.289314
 11
332.864990
 21
-73.789314
  0
LINE
  8
0
 62
     4
 10
263.364990
 20
-139.789307
 11
263.864990
 21
-139.789307
  0
LINE
  8
0
 62
     4
 10
263.364990
 20
-75.789314
 11
263.864990
 21
-75.789314
  0
LINE
  8
0
 62
     4
 10
280.864990
 20
-75.789314
 11
281.364990
 21
-75.789314
  0
LINE
  8
0
 62
     4
 10
317.364990
 20
-75.789314
 11
317.864990
 21
-75.789314
  0
LINE
  8
0
 62
     4
 10
334.864990
 20
-75.789314
 11
335.364990
 21
-75.789314
  0
LINE
  8
0
 62
     4
 10
280.864990
 20
-139.789307
 11
281.364990
 21
-139.789307
  0
LINE
  8
0
 62
     4
 10
317.364990
 20
-139.789307
 11
317.864990
 21
-139.789307
  0
LINE
  8
0
 62
     4
 10
334.864990
 20
-139.789307
 11
335.364990
 21
-139.789307
  0
LINE
  8
0
 62
     4
 10
265.864990
 20
-141.789307
 11
265.864990
 21
-157.289307
  0
LINE
  8
0
 62
     4
 10
278.864990
 20
-141.789307
 11
278.864990
 21
-157.289307
  0
LINE
  8
0
 62
     4
 10
319.864990
 20
-141.789307
 11
319.864990
 21
-157.289307
  0
LINE
  8
0
 62
     4
 10
332.864990
 20
-141.789307
 11
332.864990
 21
-157.289307
  0
LINE
  8
0
 62
     4
 10
340.364990
 20
-93.789314
 11
340.364990
 21
-121.789314
  0
LINE
  8
0
 62
     4
 10
281.364990
 20
-93.789314
 11
317.364990
 21
-93.789314
  0
LINE
  8
0
 62
     4
 10
281.364990
 20
-121.789314
 11
317.364990
 21
-121.789314
  0
LINE
  8
0
 62
     4
 10
335.364990
 20
-93.789314
 11
335.864990
 21
-93.789314
  0
LINE
  8
0
 62
     4
 10
335.364990
 20
-121.789314
 11
335.864990
 21
-121.789314
  0
LINE
  8
0
 62
     4
 10
335.864990
 20
-92.289314
 11
335.864990
 21
-123.289314
  0
LINE
  8
0
 62
     4
 10
337.065002
 20
-92.289314
 11
337.065002
 21
-123.289314
  0
LINE
  8
0
 62
     4
 10
337.065002
 20
-93.789314
 11
340.364990
 21
-93.789314
  0
LINE
  8
0
 62
     4
 10
337.065002
 20
-121.789314
 11
340.364990
 21
-121.789314
  0
LINE
  8
0
 62
     4
 10
335.864990
 20
-123.289314
 11
337.065002
 21
-123.289314
  0
LINE
  8
0
 62
     4
 10
335.864990
 20
-92.289314
 11
337.065002
 21
-92.289314
  0
LINE
  8
0
 62
     4
 10
278.864990
 20
-58.289314
 11
278.864990
 21
-73.789314
  0
LINE
  8
0
 62
     4
 10
265.864990
 20
-58.289314
 11
265.864990
 21
-73.789314
  0
LINE
  8
0
 62
     4
 10
262.864990
 20
-121.789314
 11
263.364990
 21
-121.789314
  0
LINE
  8
0
 62
     4
 10
262.864990
 20
-93.789314
 11
263.364990
 21
-93.789314
  0
LINE
  8
0
 62
     4
 10
258.364990
 20
-121.789314
 11
261.664978
 21
-121.789314
  0
LINE
  8
0
 62
     4
 10
258.364990
 20
-93.789314
 11
261.664978
 21
-93.789314
  0
LINE
  8
0
 62
     4
 10
258.364990
 20
-93.789314
 11
258.364990
 21
-121.789314
  0
LINE
  8
0
 62
     4
 10
262.864990
 20
-92.289314
 11
262.864990
 21
-123.289314
  0
LINE
  8
0
 62
     4
 10
261.664978
 20
-123.289314
 11
262.864990
 21
-123.289314
  0
LINE
  8
0
 62
     4
 10
261.664978
 20
-92.289314
 11
262.864990
 21
-92.289314
  0
LINE
  8
0
 62
     4
 10
261.664978
 20
-92.289314
 11
261.664978
 21
-123.289314
  0
LINE
  8
0
 62
     4
 10
40.864994
 20
79.218071
 11
103.166306
 21
79.218071
  0
LINE
  8
0
 62
     4
 10
40.864994
 20
66.218071
 11
103.166306
 21
66.218071
  0
LINE
  8
0
 62
     4
 10
106.864990
 20
58.718071
 11
106.864990
 21
62.018059
  0
LINE
  8
0
 62
     4
 10
78.864990
 20
58.718071
 11
78.864990
 21
62.018059
  0
LINE
  8
0
 62
     4
 10
78.864990
 20
58.718071
 11
106.864990
 21
58.718071
  0
LINE
  8
0
 62
     4
 10
74.964996
 20
63.218071
 11
109.264999
 21
63.218071
  0
LINE
  8
0
 62
     4
 10
109.264999
 20
62.018059
 11
109.264999
 21
63.218071
  0
LINE
  8
0
 62
     4
 10
74.964996
 20
62.018059
 11
109.264999
 21
62.018059
  0
LINE
  8
0
 62
     4
 10
106.864990
 20
63.218071
 11
106.864990
 21
63.718071
  0
LINE
  8
0
 62
     4
 10
78.864990
 20
63.218071
 11
78.864990
 21
63.718071
  0
LINE
  8
0
 62
     4
 10
17.864990
 20
19.718079
 11
17.864990
 21
179.718079
  0
LINE
  8
0
 62
     4
 10
37.864994
 20
19.718079
 11
37.864994
 21
179.718079
  0
LINE
  8
0
  6
CENTER
 62
     1
 10
92.864990
 20
35.718075
 11
92.864990
 21
163.718079
  0
LINE
  8
0
 62
     4
 10
124.864990
 20
63.718071
 11
124.864990
 21
81.718071
  0
LINE
  8
0
 62
     4
 10
60.864994
 20
63.718071
 11
60.864994
 21
66.218071
  0
LINE
  8
0
 62
     4
 10
17.864979
 20
19.718071
 11
37.864979
 21
19.718071
  0
LINE
  8
0
 62
     4
 10
17.865009
 20
179.718048
 11
37.865009
 21
179.718048
  0
LINE
  8
0
 62
     4
 10
60.864994
 20
81.718071
 11
124.864990
 21
81.718071
  0
LINE
  8
0
 62
     4
 10
60.864994
 20
63.718071
 11
124.864990
 21
63.718071
  0
LINE
  8
0
 62
     4
 10
78.864990
 20
81.718079
 11
78.864990
 21
117.718086
  0
LINE
  8
0
 62
     4
 10
106.864990
 20
81.718071
 11
106.864990
 21
117.718071
  0
LINE
  8
0
 62
     4
 10
40.864994
 20
120.218071
 11
103.166306
 21
120.218071
  0
LINE
  8
0
 62
     4
 10
40.864994
 20
133.218079
 11
103.166306
 21
133.218079
  0
LINE
  8
0
 62
     4
 10
106.864990
 20
140.718048
 11
106.864990
 21
137.418060
  0
LINE
  8
0
 62
     4
 10
78.864990
 20
140.718079
 11
78.864990
 21
137.418091
  0
LINE
  8
0
 62
     4
 10
78.864990
 20
140.718048
 11
106.864990
 21
140.718048
  0
LINE
  8
0
 62
     4
 10
74.964996
 20
136.218079
 11
109.264999
 21
136.218079
  0
LINE
  8
0
 62
     4
 10
109.264999
 20
137.418060
 11
109.264999
 21
136.218079
  0
LINE
  8
0
 62
     4
 10
74.964996
 20
137.418060
 11
109.264999
 21
137.418060
  0
LINE
  8
0
 62
     4
 10
106.864990
 20
136.218079
 11
106.864990
 21
135.718079
  0
LINE
  8
0
 62
     4
 10
78.864990
 20
136.218079
 11
78.864990
 21
135.718079
  0
LINE
  8
0
 62
     4
 10
124.864990
 20
135.718079
 11
124.864990
 21
117.718071
  0
LINE
  8
0
 62
     4
 10
60.864994
 20
135.718079
 11
60.864994
 21
133.218079
  0
LINE
  8
0
 62
     4
 10
60.864994
 20
117.718071
 11
124.864990
 21
117.718071
  0
LINE
  8
0
 62
     4
 10
60.864994
 20
135.718079
 11
124.864990
 21
135.718079
  0
LINE
  8
0
  6
CENTER
 62
     1
 10
12.864994
 20
99.718071
 11
129.864990
 21
99.718071
  0
LINE
  8
0
  6
CENTER
 62
     1
 10
12.865009
 20
163.718048
 11
42.865009
 21
163.718048
  0
LINE
  8
0
  6
CENTER
 62
     1
 10
12.864979
 20
35.718071
 11
42.864979
 21
35.718071
  0
LINE
  8
0
 62
     4
 10
60.864994
 20
120.218071
 11
60.864994
 21
117.718086
  0
LINE
  8
0
 62
     4
 10
60.864994
 20
79.218071
 11
60.864994
 21
81.718079
  0
LINE
  8
0
 62
     4
 10
74.964996
 20
137.418060
 11
74.964996
 21
136.218079
  0
LINE
  8
0
 62
     4
 10
74.964996
 20
63.218071
 11
74.964996
 21
62.018059
  0
CIRCLE
  8
0
 62
     4
 10
-300.915436
 20
-107.789314
 40
28.000000
  0
CIRCLE
  8
0
 62
     4
 10
-300.915436
 20
-107.789314
 40
12.500000
  0
ARC
  8
0
 62
     4
 10
-300.065430
 20
-107.789314
 40
14.199991
 50
204.457153
 51
155.542847
  0
ARC
  8
0
 62
     4
 10
-314.356689
 20
-114.289314
 40
1.500009
 50
24.456930
 51
90.000000
  0
ARC
  8
0
 62
     4
 10
-314.356689
 20
-101.289314
 40
1.500000
 50
270.000000
 51
335.543060
  0
ARC
  8
0
 62
     4
 10
-344.915436
 20
-60.620361
 40
3.000000
 50
180.000000
 51
251.732376
  0
ARC
  8
0
 62
     4
 10
-344.915436
 20
-154.958267
 40
3.000008
 50
108.267593
 51
180.000000
  0
CIRCLE
  8
0
 62
     1
 10
-153.915436
 20
-165.289307
 40
7.000000
  0
CIRCLE
  8
0
 62
     1
 10
-38.915436
 20
-165.289307
 40
7.000000
  0
CIRCLE
  8
0
 62
     1
 10
-38.915436
 20
-50.289314
 40
7.000000
  0
CIRCLE
  8
0
 62
     1
 10
-153.915436
 20
-50.289314
 40
7.000000
  0
CIRCLE
  8
0
 62
     4
 10
-38.915436
 20
-50.289314
 40
5.600000
  0
CIRCLE
  8
0
 62
     4
 10
-153.915436
 20
-50.289314
 40
5.600000
  0
CIRCLE
  8
0
 62
     4
 10
-38.915436
 20
-165.289307
 40
5.600000
  0
CIRCLE
  8
0
 62
     4
 10
-153.915436
 20
-165.289307
 40
5.600000
  0
ARC
  8
0
 62
     4
 10
-81.415436
 20
-65.789314
 40
3.000000
 50
0.000000
 51
90.000000
  0
ARC
  8
0
 62
     4
 10
-63.415436
 20
-65.789314
 40
3.000000
 50
90.000000
 51
180.000000
  0
ARC
  8
0
 62
     4
 10
-63.415436
 20
-149.789307
 40
3.000000
 50
180.000000
 51
270.000000
  0
ARC
  8
0
 62
     4
 10
-81.415436
 20
-149.789307
 40
3.000000
 50
270.000000
 51
0.000000
  0
ARC
  8
0
 62
     4
 10
-111.415436
 20
-149.789307
 40
3.000000
 50
180.000000
 51
270.000000
  0
ARC
  8
0
 62
     4
 10
-129.415436
 20
-149.789307
 40
3.000000
 50
270.000000
 51
0.000000
  0
ARC
  8
0
 62
     4
 10
-80.415436
 20
-77.789314
 40
2.000000
 50
270.000000
 51
0.000000
  0
ARC
  8
0
 62
     4
 10
-64.415436
 20
-77.789314
 40
2.000000
 50
180.000000
 51
270.000000
  0
ARC
  8
0
 62
     4
 10
-80.415436
 20
-137.789307
 40
2.000000
 50
0.000000
 51
90.000000
  0
ARC
  8
0
 62
     4
 10
-64.415436
 20
-137.789307
 40
2.000000
 50
90.000000
 51
180.000000
  0
ARC
  8
0
 62
     4
 10
-112.415436
 20
-137.789307
 40
2.000000
 50
90.000000
 51
180.000000
  0
ARC
  8
0
 62
     4
 10
-128.415436
 20
-137.789307
 40
2.000000
 50
0.000000
 51
90.000000
  0
ARC
  8
0
 62
     4
 10
-129.415436
 20
-65.789314
 40
3.000000
 50
0.000000
 51
90.000000
  0
ARC
  8
0
 62
     4
 10
-111.415436
 20
-65.789314
 40
3.000000
 50
90.000000
 51
180.000000
  0
ARC
  8
0
 62
     4
 10
-128.415436
 20
-77.789314
 40
2.000000
 50
270.000000
 51
0.000000
  0
ARC
  8
0
 62
     4
 10
-112.415436
 20
-77.789314
 40
2.000000
 50
180.000000
 51
270.000000
  0
ARC
  8
0
 62
     4
 10
-344.915466
 20
132.718109
 40
3.000000
 50
180.000000
 51
270.000000
  0
ARC
  8
0
 62
     4
 10
-344.915466
 20
114.718102
 40
3.000000
 50
90.000000
 51
180.000000
  0
ARC
  8
0
 62
     4
 10
-344.915466
 20
84.718117
 40
3.000000
 50
180.000000
 51
270.000000
  0
ARC
  8
0
 62
     4
 10
-344.915466
 20
66.718117
 40
3.000000
 50
90.000000
 51
180.000000
  0
CIRCLE
  8
0
 62
     4
 10
92.864990
 20
-107.789314
 40
32.000000
  0
CIRCLE
  8
0
 62
     4
 10
92.864990
 20
-107.789314
 40
14.000000
  0
ARC
  8
0
 62
     4
 10
93.714996
 20
-107.789314
 40
15.549997
 50
202.409973
 51
157.590027
  0
ARC
  8
0
 62
     4
 10
77.952606
 20
-101.289314
 40
1.500000
 50
270.000000
 51
337.590057
  0
ARC
  8
0
 62
     4
 10
77.952606
 20
-114.289314
 40
1.499999
 50
22.409952
 51
90.000000
  0
ARC
  8
0
 62
     4
 10
40.864990
 20
-162.437958
 40
2.999997
 50
108.778854
 51
180.000000
  0
ARC
  8
0
 62
     4
 10
40.864990
 20
-53.140686
 40
3.000000
 50
180.000000
 51
251.221176
  0
CIRCLE
  8
0
 62
     1
 10
235.364990
 20
-171.789307
 40
7.000000
  0
CIRCLE
  8
0
 62
     1
 10
363.364990
 20
-171.789307
 40
7.000000
  0
CIRCLE
  8
0
 62
     1
 10
363.364990
 20
-43.789314
 40
7.000000
  0
CIRCLE
  8
0
 62
     1
 10
235.364990
 20
-43.789314
 40
7.000000
  0
CIRCLE
  8
0
 62
     4
 10
363.364990
 20
-171.789307
 40
5.600000
  0
CIRCLE
  8
0
 62
     4
 10
363.364990
 20
-43.789314
 40
5.600000
  0
CIRCLE
  8
0
 62
     4
 10
235.364990
 20
-43.789314
 40
5.600000
  0
CIRCLE
  8
0
 62
     4
 10
235.364990
 20
-171.789307
 40
5.600000
  0
ARC
  8
0
 62
     4
 10
316.864990
 20
-58.289314
 40
3.000000
 50
0.000000
 51
90.000000
  0
ARC
  8
0
 62
     4
 10
335.864990
 20
-58.289314
 40
3.000000
 50
90.000000
 51
180.000000
  0
ARC
  8
0
 62
     4
 10
262.864990
 20
-157.289307
 40
3.000000
 50
270.000000
 51
0.000000
  0
ARC
  8
0
 62
     4
 10
281.864990
 20
-157.289307
 40
3.000000
 50
180.000000
 51
270.000000
  0
ARC
  8
0
 62
     4
 10
316.864990
 20
-157.289307
 40
3.000000
 50
270.000000
 51
0.000000
  0
ARC
  8
0
 62
     4
 10
335.864990
 20
-157.289307
 40
3.000000
 50
180.000000
 51
270.000000
  0
ARC
  8
0
 62
     4
 10
317.864990
 20
-73.789314
 40
2.000000
 50
270.000000
 51
0.000000
  0
ARC
  8
0
 62
     4
 10
334.864990
 20
-73.789314
 40
2.000000
 50
180.000000
 51
270.000000
  0
ARC
  8
0
 62
     4
 10
334.864990
 20
-141.789307
 40
2.000000
 50
90.000000
 51
180.000000
  0
ARC
  8
0
 62
     4
 10
317.864990
 20
-141.789307
 40
2.000000
 50
0.000000
 51
90.000000
  0
ARC
  8
0
 62
     4
 10
280.864990
 20
-141.789307
 40
2.000000
 50
90.000000
 51
180.000000
  0
ARC
  8
0
 62
     4
 10
263.864990
 20
-141.789307
 40
2.000000
 50
0.000000
 51
90.000000
  0
ARC
  8
0
 62
     4
 10
281.864990
 20
-58.289314
 40
3.000000
 50
90.000000
 51
180.000000
  0
ARC
  8
0
 62
     4
 10
262.864990
 20
-58.289314
 40
3.000000
 50
0.000000
 51
90.000000
  0
ARC
  8
0
 62
     4
 10
263.864990
 20
-73.789314
 40
2.000000
 50
270.000000
 51
0.000000
  0
ARC
  8
0
 62
     4
 10
280.864990
 20
-73.789314
 40
2.000000
 50
180.000000
 51
270.000000
  0
ARC
  8
0
 62
     4
 10
40.864994
 20
82.218079
 40
3.000000
 50
180.000000
 51
269.999939
  0
ARC
  8
0
 62
     4
 10
40.864994
 20
63.218079
 40
3.000000
 50
90.000000
 51
180.000000
  0
ARC
  8
0
 62
     4
 10
40.864994
 20
117.218086
 40
3.000000
 50
90.000000
 51
180.000000
  0
ARC
  8
0
 62
     4
 10
40.864994
 20
136.218079
 40
3.000000
 50
180.000000
 51
269.999939
  0
TEXT
  8
0
 10
-374.285309
 20
256.649994
 40
9.000000
  1
SD CLEVIS,-7
 50
0.000000
 41
1.052632
 51
0.000000
  7
STANDARD
  0
TEXT
  8
0
 10
242.014816
 20
-274.500000
 40
12.500000
  1
KOGANEI CORP.
 50
0.000000
 41
1.052632
 51
0.000000
  7
STANDARD
  0
TEXT
  8
0
 10
251.264664
 20
256.649994
 40
9.000000
  1
DATE: AUG ,1993
 50
0.000000
 41
1.052632
 51
0.000000
  7
STANDARD
  0
TEXT
  8
0
 10
14.739680
 20
224.149994
 40
9.000000
  1
BORE:140
 50
0.000000
 41
1.052632
 51
0.000000
  7
STANDARD
  0
TEXT
  8
0
 10
-384.785309
 20
224.149994
 40
9.000000
  1
BORE:125
 50
0.000000
 41
1.052632
 51
0.000000
  7
STANDARD
  0
ENDSEC
  0
EOF
