  0
SECTION
  2
HEADER
  0
ENDSEC
  0
SECTION
  2
TABLES
  0
TABLE
  2
LTYPE
 70
     4
  0
LTYPE
  2
CONTINUOUS
 70
    64
  3
Solid line
 72
    65
 73
     0
 40
0.000000
  0
LTYPE
  2
DASHED
 70
    64
  3
__ __ __ __ __ __ __ __ __ __ __ __ __ __ __
 72
    65
 73
     2
 40
3.500000
 49
2.000000
 49
-1.500000
  0
LTYPE
  2
CENTER
 70
    64
  3
____ _ ____ _ ____ _ ____ _ ____ _ ____ _ ____
 72
    65
 73
     4
 40
17.500000
 49
13.000000
 49
-1.500000
 49
1.500000
 49
-1.500000
  0
LTYPE
  2
PHANTOM
 70
    64
  3
_____ _ _ _____ _ _ _____ _ _ _____ _ _ ____  
 72
    65
 73
     6
 40
15.500000
 49
8.000000
 49
-1.500000
 49
1.500000
 49
-1.500000
 49
1.500000
 49
-1.500000
  0
LTYPE
  2
DASHED1
 70
    64
  3
__ __ __ __ __ __ __ __ __ __ __ __ __ __ __
 72
    65
 73
     2
 40
1.500000
 49
1.000000
 49
-0.500000
  0
LTYPE
  2
DASHED2
 70
    64
  3
__ __ __ __ __ __ __ __ __ __ __ __ __ __ __
 72
    65
 73
     2
 40
3.500000
 49
2.500000
 49
-1.000000
  0
LTYPE
  2
DASHED3
 70
    64
  3
__ __ __ __ __ __ __ __ __ __ __ __ __ __ __
 72
    65
 73
     2
 40
6.000000
 49
4.000000
 49
-2.000000
  0
LTYPE
  2
DASHED4
 70
    64
  3
__ __ __ __ __ __ __ __ __ __ __ __ __ __ __
 72
    65
 73
     2
 40
12.000000
 49
10.000000
 49
-2.000000
  0
LTYPE
  2
DASHED5
 70
    64
  3
__ __ __ __ __ __ __ __ __ __ __ __ __ __ __
 72
    65
 73
     2
 40
17.000000
 49
15.000000
 49
-2.000000
  0
LTYPE
  2
DASHED6
 70
    64
  3
__ __ __ __ __ __ __ __ __ __ __ __ __ __ __
 72
    65
 73
     2
 40
29.000000
 49
27.000000
 49
-2.000000
  0
LTYPE
  2
PHANTOM1
 70
    64
  3
_____ _ _ _____ _ _ _____ _ _ _____ _ _ ____  
 72
    65
 73
     6
 40
31.000000
 49
25.000000
 49
-1.500000
 49
1.000000
 49
-1.000000
 49
1.000000
 49
-1.500000
  0
LTYPE
  2
PHANTOM2
 70
    64
  3
_____ _ _ _____ _ _ _____ _ _ _____ _ _ ____  
 72
    65
 73
     6
 40
36.000000
 49
27.000000
 49
-1.500000
 49
2.500000
 49
-1.000000
 49
2.500000
 49
-1.500000
  0
LTYPE
  2
PHANTOM3
 70
    64
  3
_____ _ _ _____ _ _ _____ _ _ _____ _ _ ____  
 72
    65
 73
     6
 40
78.000000
 49
64.000000
 49
-2.000000
 49
4.000000
 49
-2.000000
 49
4.000000
 49
-2.000000
  0
LTYPE
  2
CENTER1
 70
    64
  3
____ _ ____ _ ____ _ ____ _ ____ _ ____ _ ____
 72
    65
 73
     4
 40
19.000000
 49
14.000000
 49
-1.000000
 49
3.000000
 49
-1.000000
  0
LTYPE
  2
CENTER2
 70
    64
  3
____ _ ____ _ ____ _ ____ _ ____ _ ____ _ ____
 72
    65
 73
     4
 40
28.500000
 49
25.000000
 49
-1.000000
 49
1.500000
 49
-1.000000
  0
LTYPE
  2
CENTER3
 70
    64
  3
____ _ ____ _ ____ _ ____ _ ____ _ ____ _ ____
 72
    65
 73
     4
 40
31.500000
 49
27.000000
 49
-1.000000
 49
2.500000
 49
-1.000000
  0
LTYPE
  2
CENTER4
 70
    64
  3
____ _ ____ _ ____ _ ____ _ ____ _ ____ _ ____
 72
    65
 73
     4
 40
50.000000
 49
45.000000
 49
-1.000000
 49
3.000000
 49
-1.000000
  0
LTYPE
  2
CENTER5
 70
    64
  3
____ _ ____ _ ____ _ ____ _ ____ _ ____ _ ____
 72
    65
 73
     4
 40
100.000000
 49
92.000000
 49
-2.000000
 49
4.000000
 49
-2.000000
  0
LTYPE
  2
SBK1
 70
    64
  3
______ _ _ _ ______ _ _ _ ______ _ _ _ _____  
 72
    65
 73
     8
 40
60.500000
 49
45.000000
 49
-2.000000
 49
2.500000
 49
-2.000000
 49
2.500000
 49
-2.000000
 49
2.500000
 49
-2.000000
  0
LTYPE
  2
SBK2
 70
    64
  3
______ _ _ _ ______ _ _ _ ______ _ _ _ _____  
 72
    65
 73
     8
 40
84.000000
 49
64.000000
 49
-2.000000
 49
4.000000
 49
-2.000000
 49
4.000000
 49
-2.000000
 49
4.000000
 49
-2.000000
  0
LTYPE
  2
STCH
 70
    64
  3
__ __ __ __ __ __ __ __ __ __ __ __ __ __ __
 72
    65
 73
     2
 40
3.000000
 49
1.000000
 49
-2.000000
  0
LTYPE
  2
MTCH
 70
    64
  3
_____ _ _ _____ _ _ _____ _ _ _____ _ _ ____  
 72
    65
 73
     6
 40
80.000000
 49
66.000000
 49
-2.000000
 49
4.000000
 49
-2.000000
 49
4.000000
 49
-2.000000
  0
ENDTAB
  0
TABLE
  2
LAYER
 70
     1
  0
LAYER
  2
0
 70
     0
 62
     7
  6
CONTINUOUS
  0
ENDTAB
  0
TABLE
  2
STYLE
 70
     1
  0
STYLE
  2
STANDARD
 70
     0
 40
0.000000
 41
1.000000
 50
0.000000
 71
     0
 42
0.200000
  3
txt
  4
BIGFONT
  0
ENDTAB
  0
TABLE
  2
VIEW
 70
     0
  0
ENDTAB
  0
ENDSEC
  0
SECTION
  2
BLOCKS
  0
ENDSEC
  0
SECTION
  2
ENTITIES
  0
LINE
  8
0
 10
399.799988
 20
276.250000
 11
399.799988
 21
-276.750000
  0
LINE
  8
0
 10
-399.250000
 20
276.250000
 11
-399.250000
 21
-276.750000
  0
LINE
  8
0
 10
-399.250000
 20
276.250000
 11
399.799988
 21
276.250000
  0
LINE
  8
0
 10
-399.250000
 20
-276.750000
 11
399.799988
 21
-276.750000
  0
LINE
  8
0
 10
239.799988
 20
-251.750000
 11
399.799988
 21
-251.750000
  0
LINE
  8
0
 10
239.799988
 20
251.250000
 11
399.799988
 21
251.250000
  0
LINE
  8
0
 10
-399.250000
 20
251.250000
 11
-239.250000
 21
251.250000
  0
LINE
  8
0
 10
239.799988
 20
-251.750000
 11
239.799988
 21
-276.750000
  0
LINE
  8
0
 10
239.799988
 20
251.250000
 11
239.799988
 21
276.250000
  0
LINE
  8
0
 10
-239.250000
 20
276.250000
 11
-239.250000
 21
251.250000
  0
LINE
  8
0
 10
-23.192879
 20
276.250000
 11
-23.192879
 21
-276.750000
  0
LINE
  8
0
  6
CENTER
 62
     1
 10
-395.725525
 20
-117.041534
 11
-265.625916
 21
-117.041534
  0
LINE
  8
0
  6
CENTER
 62
     1
 10
-395.725525
 20
-45.041534
 11
-359.225525
 21
-45.041534
  0
LINE
  8
0
  6
CENTER
 62
     1
 10
-395.725525
 20
-189.041534
 11
-359.725525
 21
-189.041534
  0
LINE
  8
0
 62
     4
 10
-385.725525
 20
-26.041534
 11
-385.725525
 21
-208.041534
  0
LINE
  8
0
 62
     4
 10
-385.725525
 20
-26.041534
 11
-365.725525
 21
-26.041534
  0
LINE
  8
0
 62
     4
 10
-385.725525
 20
-208.041534
 11
-365.725525
 21
-208.041534
  0
LINE
  8
0
 62
     4
 10
-365.725525
 20
-26.041534
 11
-365.725525
 21
-208.041534
  0
LINE
  8
0
  6
CENTER
 62
     1
 10
-305.725525
 20
-71.008896
 11
-305.725525
 21
-163.068237
  0
LINE
  8
0
 62
     4
 10
-363.658051
 20
-173.865402
 11
-294.534698
 21
-151.258041
  0
LINE
  8
0
 62
     4
 10
-363.658142
 20
-60.217819
 11
-294.534790
 21
-82.825188
  0
LINE
  8
0
 62
     4
 10
-325.875519
 20
-115.791534
 11
-321.676636
 21
-115.791534
  0
LINE
  8
0
 62
     4
 10
-325.875519
 20
-118.291534
 11
-321.676636
 21
-118.291534
  0
LINE
  8
0
 62
     4
 10
-325.875519
 20
-110.791534
 11
-322.559753
 21
-110.791534
  0
LINE
  8
0
 62
     4
 10
-325.875519
 20
-123.291534
 11
-322.559753
 21
-123.291534
  0
LINE
  8
0
 62
     4
 10
-325.875519
 20
-110.791534
 11
-325.875519
 21
-115.791534
  0
LINE
  8
0
 62
     4
 10
-325.875519
 20
-118.291534
 11
-325.875519
 21
-123.291534
  0
LINE
  8
0
  6
CENTER
 62
     1
 10
-239.211258
 20
-117.041534
 11
-41.322693
 21
-117.041534
  0
LINE
  8
0
 62
     4
 10
-233.225525
 20
-26.041534
 11
-51.225525
 21
-26.041534
  0
LINE
  8
0
 62
     4
 10
-233.225525
 20
-208.041534
 11
-51.225525
 21
-208.041534
  0
LINE
  8
0
 62
     4
 10
-51.225525
 20
-26.041534
 11
-51.225525
 21
-208.041534
  0
LINE
  8
0
 62
     4
 10
-233.225525
 20
-26.041534
 11
-233.225525
 21
-208.041534
  0
LINE
  8
0
  6
CENTER
 62
     1
 10
-214.225525
 20
-174.254868
 11
-214.225525
 21
-204.068207
  0
LINE
  8
0
  6
CENTER
 62
     1
 10
-228.680969
 20
-189.041534
 11
-200.794983
 21
-189.041534
  0
LINE
  8
0
  6
CENTER
 62
     1
 10
-214.225525
 20
-30.254868
 11
-214.225525
 21
-60.068199
  0
LINE
  8
0
  6
CENTER
 62
     1
 10
-228.680969
 20
-45.041534
 11
-200.794983
 21
-45.041534
  0
LINE
  8
0
  6
CENTER
 62
     1
 10
-70.225525
 20
-30.254868
 11
-70.225525
 21
-60.068199
  0
LINE
  8
0
  6
CENTER
 62
     1
 10
-84.680969
 20
-45.041534
 11
-56.794952
 21
-45.041534
  0
LINE
  8
0
  6
CENTER
 62
     1
 10
-70.225525
 20
-174.254868
 11
-70.225525
 21
-204.068207
  0
LINE
  8
0
  6
CENTER
 62
     1
 10
-84.680969
 20
-189.041534
 11
-56.794952
 21
-189.041534
  0
LINE
  8
0
 62
     4
 10
-162.225525
 20
-81.041534
 11
-162.225525
 21
-153.041534
  0
LINE
  8
0
 62
     4
 10
-122.225525
 20
-81.041534
 11
-122.225525
 21
-153.041534
  0
LINE
  8
0
 62
     4
 10
-102.225525
 20
-81.041534
 11
-102.225525
 21
-153.041534
  0
LINE
  8
0
 62
     4
 10
-182.225525
 20
-81.041534
 11
-182.225525
 21
-153.041534
  0
LINE
  8
0
 62
     4
 10
-182.225525
 20
-153.041534
 11
-181.725525
 21
-153.041534
  0
LINE
  8
0
 62
     4
 10
-182.225525
 20
-81.041534
 11
-181.725525
 21
-81.041534
  0
LINE
  8
0
 62
     4
 10
-164.725525
 20
-155.041534
 11
-164.725525
 21
-171.541534
  0
LINE
  8
0
 62
     4
 10
-179.725525
 20
-155.041534
 11
-179.725525
 21
-171.541534
  0
LINE
  8
0
 62
     4
 10
-119.725525
 20
-155.041534
 11
-119.725525
 21
-171.541534
  0
LINE
  8
0
 62
     4
 10
-104.725525
 20
-155.041534
 11
-104.725525
 21
-171.541534
  0
LINE
  8
0
 62
     4
 10
-162.725525
 20
-81.041534
 11
-162.225525
 21
-81.041534
  0
LINE
  8
0
 62
     4
 10
-122.225525
 20
-81.041534
 11
-121.725525
 21
-81.041534
  0
LINE
  8
0
 62
     4
 10
-102.725525
 20
-81.041534
 11
-102.225525
 21
-81.041534
  0
LINE
  8
0
 62
     4
 10
-162.725525
 20
-153.041534
 11
-162.225525
 21
-153.041534
  0
LINE
  8
0
 62
     4
 10
-122.225525
 20
-153.041534
 11
-121.725525
 21
-153.041534
  0
LINE
  8
0
 62
     4
 10
-102.725525
 20
-153.041534
 11
-102.225525
 21
-153.041534
  0
LINE
  8
0
 62
     4
 10
-97.225525
 20
-101.041534
 11
-97.225525
 21
-133.041534
  0
LINE
  8
0
 62
     4
 10
-102.225525
 20
-101.041534
 11
-101.725525
 21
-101.041534
  0
LINE
  8
0
 62
     4
 10
-102.225525
 20
-133.041534
 11
-101.725525
 21
-133.041534
  0
LINE
  8
0
 62
     4
 10
-101.725525
 20
-99.391533
 11
-101.725525
 21
-134.691528
  0
LINE
  8
0
 62
     4
 10
-100.125519
 20
-99.391533
 11
-100.125519
 21
-134.691528
  0
LINE
  8
0
 62
     4
 10
-100.125519
 20
-101.041534
 11
-97.225525
 21
-101.041534
  0
LINE
  8
0
 62
     4
 10
-100.125519
 20
-133.041534
 11
-97.225525
 21
-133.041534
  0
LINE
  8
0
 62
     4
 10
-101.725525
 20
-99.391533
 11
-100.125519
 21
-99.391533
  0
LINE
  8
0
 62
     4
 10
-101.725525
 20
-134.691528
 11
-100.125519
 21
-134.691528
  0
LINE
  8
0
 62
     4
 10
-162.225525
 20
-101.041534
 11
-122.225525
 21
-101.041534
  0
LINE
  8
0
 62
     4
 10
-162.225525
 20
-133.041534
 11
-122.225525
 21
-133.041534
  0
LINE
  8
0
 62
     4
 10
-182.725525
 20
-99.391533
 11
-182.725525
 21
-134.691528
  0
LINE
  8
0
 62
     4
 10
-187.225525
 20
-101.041534
 11
-187.225525
 21
-133.041534
  0
LINE
  8
0
 62
     4
 10
-184.325531
 20
-99.391533
 11
-184.325531
 21
-134.691528
  0
LINE
  8
0
 62
     4
 10
-184.325531
 20
-101.041534
 11
-187.225525
 21
-101.041534
  0
LINE
  8
0
 62
     4
 10
-184.325531
 20
-133.041534
 11
-187.225525
 21
-133.041534
  0
LINE
  8
0
 62
     4
 10
-182.725525
 20
-99.391533
 11
-184.325531
 21
-99.391533
  0
LINE
  8
0
 62
     4
 10
-182.725525
 20
-134.691528
 11
-184.325531
 21
-134.691528
  0
LINE
  8
0
 62
     4
 10
-182.225525
 20
-101.041534
 11
-182.725525
 21
-101.041534
  0
LINE
  8
0
 62
     4
 10
-182.225525
 20
-133.041534
 11
-182.725525
 21
-133.041534
  0
LINE
  8
0
  6
CENTER
 62
     1
 10
-142.225525
 20
-20.869431
 11
-142.225525
 21
-214.851624
  0
LINE
  8
0
 62
     4
 10
-119.725525
 20
-62.541534
 11
-119.725525
 21
-79.041534
  0
LINE
  8
0
 62
     4
 10
-164.725525
 20
-62.541534
 11
-164.725525
 21
-79.041534
  0
LINE
  8
0
 62
     4
 10
-104.725525
 20
-62.541534
 11
-104.725525
 21
-79.041534
  0
LINE
  8
0
 62
     4
 10
-179.725525
 20
-62.541534
 11
-179.725525
 21
-79.041534
  0
LINE
  8
0
 62
     4
 10
-362.725525
 20
126.701355
 11
-294.534729
 21
126.701355
  0
LINE
  8
0
 62
     4
 10
-362.725525
 20
81.701355
 11
-294.534729
 21
81.701355
  0
LINE
  8
0
 62
     4
 10
-362.725525
 20
141.701355
 11
-294.534729
 21
141.701355
  0
LINE
  8
0
 62
     4
 10
-362.725525
 20
66.701355
 11
-294.534729
 21
66.701355
  0
LINE
  8
0
 62
     4
 10
-321.725525
 20
59.201385
 11
-321.725525
 21
62.101379
  0
LINE
  8
0
 62
     4
 10
-289.725525
 20
59.201385
 11
-289.725525
 21
62.101379
  0
LINE
  8
0
 62
     4
 10
-321.725525
 20
59.201355
 11
-289.725525
 21
59.201355
  0
LINE
  8
0
 62
     4
 10
-321.725525
 20
84.201385
 11
-321.725525
 21
124.201385
  0
LINE
  8
0
 62
     4
 10
-289.725525
 20
84.201385
 11
-289.725525
 21
124.201385
  0
LINE
  8
0
 62
     4
 10
-325.875519
 20
63.701355
 11
-287.075531
 21
63.701355
  0
LINE
  8
0
 62
     4
 10
-325.875519
 20
62.101349
 11
-287.075531
 21
62.101349
  0
LINE
  8
0
 62
     4
 10
-321.725525
 20
63.701385
 11
-321.725525
 21
64.201385
  0
LINE
  8
0
 62
     4
 10
-289.725525
 20
63.701385
 11
-289.725525
 21
64.201385
  0
LINE
  8
0
 62
     4
 10
-385.725525
 20
13.201385
 11
-385.725525
 21
195.201385
  0
LINE
  8
0
 62
     4
 10
-365.725525
 20
13.201385
 11
-365.725525
 21
195.201385
  0
LINE
  8
0
  6
CENTER
 62
     1
 10
-305.725525
 20
43.183975
 11
-305.725525
 21
155.991089
  0
LINE
  8
0
 62
     4
 10
-385.725525
 20
195.201355
 11
-365.725525
 21
195.201355
  0
LINE
  8
0
 62
     4
 10
-385.725525
 20
13.201355
 11
-365.725525
 21
13.201355
  0
LINE
  8
0
 62
     4
 10
-269.725525
 20
64.201385
 11
-269.725525
 21
84.201385
  0
LINE
  8
0
 62
     4
 10
-341.725525
 20
64.201385
 11
-341.725525
 21
66.701355
  0
LINE
  8
0
 62
     4
 10
-269.725525
 20
64.201355
 11
-341.725525
 21
64.201355
  0
LINE
  8
0
 62
     4
 10
-269.725525
 20
84.201355
 11
-341.725525
 21
84.201355
  0
LINE
  8
0
  6
CENTER
 62
     1
 10
-390.725525
 20
104.201355
 11
-264.725525
 21
104.201355
  0
LINE
  8
0
 62
     4
 10
-269.725525
 20
144.201355
 11
-341.725525
 21
144.201355
  0
LINE
  8
0
 62
     4
 10
-269.725525
 20
124.201355
 11
-341.725525
 21
124.201355
  0
LINE
  8
0
 62
     4
 10
-321.725525
 20
149.201385
 11
-321.725525
 21
146.301392
  0
LINE
  8
0
 62
     4
 10
-289.725525
 20
149.201385
 11
-289.725525
 21
146.301392
  0
LINE
  8
0
 62
     4
 10
-321.725525
 20
149.201355
 11
-289.725525
 21
149.201355
  0
LINE
  8
0
 62
     4
 10
-325.875519
 20
144.701355
 11
-287.075531
 21
144.701355
  0
LINE
  8
0
 62
     4
 10
-325.875519
 20
146.301361
 11
-287.075531
 21
146.301361
  0
LINE
  8
0
 62
     4
 10
-321.725525
 20
144.701385
 11
-321.725525
 21
144.201385
  0
LINE
  8
0
 62
     4
 10
-289.725525
 20
144.701385
 11
-289.725525
 21
144.201385
  0
LINE
  8
0
 62
     4
 10
-341.725525
 20
144.201385
 11
-341.725525
 21
141.701355
  0
LINE
  8
0
 62
     4
 10
-269.725525
 20
144.201385
 11
-269.725525
 21
124.201385
  0
LINE
  8
0
  6
CENTER
 62
     1
 10
-390.725525
 20
32.201355
 11
-360.725525
 21
32.201355
  0
LINE
  8
0
  6
CENTER
 62
     1
 10
-390.725525
 20
176.201355
 11
-360.725525
 21
176.201355
  0
LINE
  8
0
 62
     4
 10
-341.725525
 20
126.701355
 11
-341.725525
 21
124.201385
  0
LINE
  8
0
 62
     4
 10
-341.725525
 20
81.701355
 11
-341.725525
 21
84.201385
  0
LINE
  8
0
 62
     4
 10
-287.075531
 20
146.301361
 11
-287.075531
 21
144.701355
  0
LINE
  8
0
 62
     4
 10
-325.875519
 20
146.301361
 11
-325.875519
 21
144.701355
  0
LINE
  8
0
 62
     4
 10
-325.875519
 20
63.701355
 11
-325.875519
 21
62.101349
  0
LINE
  8
0
 62
     4
 10
-287.075531
 20
63.701355
 11
-287.075531
 21
62.101349
  0
LINE
  8
0
  6
CENTER
 62
     1
 10
-1.829376
 20
-116.350143
 11
143.391693
 21
-116.350143
  0
LINE
  8
0
 62
     4
 10
3.170624
 20
-14.350143
 11
3.170624
 21
-218.350143
  0
LINE
  8
0
 62
     4
 10
3.170624
 20
-14.350143
 11
28.170624
 21
-14.350143
  0
LINE
  8
0
 62
     4
 10
3.170624
 20
-218.350143
 11
28.170624
 21
-218.350143
  0
LINE
  8
0
 62
     4
 10
28.170624
 20
-14.350143
 11
28.170624
 21
-218.350143
  0
LINE
  8
0
  6
CENTER
 62
     1
 10
93.170624
 20
-62.444260
 11
93.170624
 21
-169.065918
  0
LINE
  8
0
 62
     4
 10
30.205471
 20
-183.158722
 11
107.004326
 21
-157.064102
  0
LINE
  8
0
 62
     4
 10
30.205481
 20
-49.541569
 11
107.004372
 21
-75.636192
  0
LINE
  8
0
 62
     4
 10
68.370636
 20
-114.850143
 11
73.226959
 21
-114.850143
  0
LINE
  8
0
 62
     4
 10
68.370636
 20
-117.850143
 11
73.226959
 21
-117.850143
  0
LINE
  8
0
 62
     4
 10
68.370636
 20
-122.850143
 11
71.709137
 21
-122.850143
  0
LINE
  8
0
 62
     4
 10
68.370636
 20
-109.850143
 11
71.709137
 21
-109.850143
  0
LINE
  8
0
 62
     4
 10
68.370636
 20
-109.850143
 11
68.370636
 21
-114.850143
  0
LINE
  8
0
 62
     4
 10
68.370636
 20
-117.850143
 11
68.370636
 21
-122.850143
  0
LINE
  8
0
  6
CENTER
 62
     1
 10
-1.829376
 20
-197.350143
 11
33.170624
 21
-197.350143
  0
LINE
  8
0
  6
CENTER
 62
     1
 10
-1.829376
 20
-35.350143
 11
33.170624
 21
-35.350143
  0
LINE
  8
0
  6
CENTER
 62
     1
 10
155.650787
 20
-116.350143
 11
385.018402
 21
-116.350143
  0
LINE
  8
0
  6
CENTER
 62
     1
 10
269.670624
 20
-8.182007
 11
269.670624
 21
-225.497635
  0
LINE
  8
0
 62
     4
 10
167.670624
 20
-218.350143
 11
371.670624
 21
-218.350143
  0
LINE
  8
0
 62
     4
 10
167.670624
 20
-14.350143
 11
371.670624
 21
-14.350143
  0
LINE
  8
0
  6
CENTER
 62
     1
 10
350.670624
 20
-17.141159
 11
350.670624
 21
-53.878326
  0
LINE
  8
0
  6
CENTER
 62
     1
 10
333.466400
 20
-35.350143
 11
367.377594
 21
-35.350143
  0
LINE
  8
0
  6
CENTER
 62
     1
 10
350.670624
 20
-179.141159
 11
350.670624
 21
-215.878326
  0
LINE
  8
0
  6
CENTER
 62
     1
 10
333.466400
 20
-197.350143
 11
367.377594
 21
-197.350143
  0
LINE
  8
0
  6
CENTER
 62
     1
 10
188.670624
 20
-17.141159
 11
188.670624
 21
-53.878326
  0
LINE
  8
0
  6
CENTER
 62
     1
 10
205.874847
 20
-35.350143
 11
171.963654
 21
-35.350143
  0
LINE
  8
0
  6
CENTER
 62
     1
 10
188.670624
 20
-179.141159
 11
188.670624
 21
-215.878326
  0
LINE
  8
0
  6
CENTER
 62
     1
 10
205.874847
 20
-197.350143
 11
171.963654
 21
-197.350143
  0
LINE
  8
0
 62
     4
 10
371.670624
 20
-14.350143
 11
371.670624
 21
-218.350143
  0
LINE
  8
0
 62
     4
 10
167.670624
 20
-14.350143
 11
167.670624
 21
-218.350143
  0
LINE
  8
0
 62
     4
 10
294.670624
 20
-73.350143
 11
294.670624
 21
-159.350143
  0
LINE
  8
0
 62
     4
 10
244.670624
 20
-73.350143
 11
244.670624
 21
-159.350143
  0
LINE
  8
0
 62
     4
 10
319.670624
 20
-73.350143
 11
319.670624
 21
-159.350143
  0
LINE
  8
0
 62
     4
 10
219.670624
 20
-73.350143
 11
219.670624
 21
-159.350143
  0
LINE
  8
0
 62
     4
 10
219.670624
 20
-159.350143
 11
221.170624
 21
-159.350143
  0
LINE
  8
0
 62
     4
 10
219.670624
 20
-73.350143
 11
221.170624
 21
-73.350143
  0
LINE
  8
0
 62
     4
 10
243.170624
 20
-73.350143
 11
244.670624
 21
-73.350143
  0
LINE
  8
0
 62
     4
 10
294.670624
 20
-73.350143
 11
296.170624
 21
-73.350143
  0
LINE
  8
0
 62
     4
 10
318.170624
 20
-73.350143
 11
319.670624
 21
-73.350143
  0
LINE
  8
0
 62
     4
 10
243.170624
 20
-159.350143
 11
244.670624
 21
-159.350143
  0
LINE
  8
0
 62
     4
 10
294.670624
 20
-159.350143
 11
296.170624
 21
-159.350143
  0
LINE
  8
0
 62
     4
 10
318.170624
 20
-159.350143
 11
319.670624
 21
-159.350143
  0
LINE
  8
0
 62
     4
 10
223.170624
 20
-161.350143
 11
223.170624
 21
-180.850143
  0
LINE
  8
0
 62
     4
 10
241.170624
 20
-161.350143
 11
241.170624
 21
-180.850143
  0
LINE
  8
0
 62
     4
 10
298.170624
 20
-161.350143
 11
298.170624
 21
-180.850143
  0
LINE
  8
0
 62
     4
 10
316.170624
 20
-161.350143
 11
316.170624
 21
-180.850143
  0
LINE
  8
0
 62
     4
 10
241.170624
 20
-51.850143
 11
241.170624
 21
-71.350143
  0
LINE
  8
0
 62
     4
 10
298.170624
 20
-51.850143
 11
298.170624
 21
-71.350143
  0
LINE
  8
0
 62
     4
 10
316.170624
 20
-51.850143
 11
316.170624
 21
-71.350143
  0
LINE
  8
0
 62
     4
 10
223.170624
 20
-51.850143
 11
223.170624
 21
-71.350143
  0
LINE
  8
0
 62
     4
 10
320.420624
 20
-138.600143
 11
322.220612
 21
-138.600143
  0
LINE
  8
0
 62
     4
 10
218.920624
 20
-96.350143
 11
219.670624
 21
-96.350143
  0
LINE
  8
0
 62
     4
 10
218.920624
 20
-136.350143
 11
219.670624
 21
-136.350143
  0
LINE
  8
0
 62
     4
 10
322.220612
 20
-96.350143
 11
326.170624
 21
-96.350143
  0
LINE
  8
0
 62
     4
 10
320.420624
 20
-94.100143
 11
322.220612
 21
-94.100143
  0
LINE
  8
0
 62
     4
 10
322.220612
 20
-136.350143
 11
326.170624
 21
-136.350143
  0
LINE
  8
0
 62
     4
 10
326.170624
 20
-96.350143
 11
326.170624
 21
-136.350143
  0
LINE
  8
0
 62
     4
 10
213.170624
 20
-96.350143
 11
213.170624
 21
-136.350143
  0
LINE
  8
0
 62
     4
 10
213.170624
 20
-96.350143
 11
217.120636
 21
-96.350143
  0
LINE
  8
0
 62
     4
 10
213.170624
 20
-136.350143
 11
217.120636
 21
-136.350143
  0
LINE
  8
0
 62
     4
 10
244.670624
 20
-96.350143
 11
294.670624
 21
-96.350143
  0
LINE
  8
0
 62
     4
 10
244.670624
 20
-136.350143
 11
294.670624
 21
-136.350143
  0
LINE
  8
0
 62
     4
 10
319.670624
 20
-96.350143
 11
320.420624
 21
-96.350143
  0
LINE
  8
0
 62
     4
 10
319.670624
 20
-136.350143
 11
320.420624
 21
-136.350143
  0
LINE
  8
0
 62
     4
 10
217.120636
 20
-94.100143
 11
218.920624
 21
-94.100143
  0
LINE
  8
0
 62
     4
 10
217.120636
 20
-138.600143
 11
218.920624
 21
-138.600143
  0
LINE
  8
0
 62
     4
 10
320.420624
 20
-94.100143
 11
320.420624
 21
-138.600143
  0
LINE
  8
0
 62
     4
 10
218.920624
 20
-94.100143
 11
218.920624
 21
-138.600143
  0
LINE
  8
0
 62
     4
 10
217.120636
 20
-94.100143
 11
217.120636
 21
-138.600143
  0
LINE
  8
0
 62
     4
 10
322.220612
 20
-94.100143
 11
322.220612
 21
-138.600143
  0
LINE
  8
0
 62
     4
 10
31.170624
 20
90.210220
 11
107.004379
 21
90.210220
  0
LINE
  8
0
 62
     4
 10
31.170624
 20
147.210220
 11
107.004379
 21
147.210220
  0
LINE
  8
0
 62
     4
 10
31.170624
 20
165.210220
 11
107.004379
 21
165.210220
  0
LINE
  8
0
 62
     4
 10
31.170624
 20
72.210220
 11
107.004379
 21
72.210220
  0
LINE
  8
0
 62
     4
 10
73.170624
 20
175.210220
 11
113.170624
 21
175.210220
  0
LINE
  8
0
 62
     4
 10
73.170624
 20
62.210220
 11
113.170624
 21
62.210220
  0
LINE
  8
0
 62
     4
 10
73.170654
 20
62.210281
 11
73.170654
 21
66.160294
  0
LINE
  8
0
 62
     4
 10
113.170654
 20
62.210281
 11
113.170654
 21
66.160294
  0
LINE
  8
0
 62
     4
 10
73.170654
 20
93.710281
 11
73.170654
 21
143.710281
  0
LINE
  8
0
 62
     4
 10
113.170654
 20
93.710281
 11
113.170654
 21
143.710281
  0
LINE
  8
0
 62
     4
 10
73.170654
 20
168.710281
 11
73.170654
 21
169.460281
  0
LINE
  8
0
 62
     4
 10
113.170654
 20
168.710281
 11
113.170654
 21
169.460281
  0
LINE
  8
0
 62
     4
 10
68.370636
 20
169.460220
 11
116.670624
 21
169.460220
  0
LINE
  8
0
 62
     4
 10
68.370636
 20
67.960220
 11
116.670624
 21
67.960220
  0
LINE
  8
0
 62
     4
 10
68.370636
 20
66.160233
 11
116.670624
 21
66.160233
  0
LINE
  8
0
 62
     4
 10
68.370636
 20
171.260208
 11
116.670624
 21
171.260208
  0
LINE
  8
0
 62
     4
 10
113.170654
 20
67.960281
 11
113.170654
 21
68.710281
  0
LINE
  8
0
 62
     4
 10
73.170654
 20
67.960281
 11
73.170654
 21
68.710281
  0
LINE
  8
0
 62
     4
 10
73.170654
 20
171.260269
 11
73.170654
 21
175.210281
  0
LINE
  8
0
 62
     4
 10
113.170654
 20
171.260269
 11
113.170654
 21
175.210281
  0
LINE
  8
0
 62
     4
 10
3.170654
 20
16.710281
 11
3.170654
 21
220.710281
  0
LINE
  8
0
 62
     4
 10
28.170654
 20
16.710281
 11
28.170654
 21
220.710281
  0
LINE
  8
0
 62
     4
 10
3.170624
 20
16.710220
 11
28.170624
 21
16.710220
  0
LINE
  8
0
 62
     4
 10
3.170624
 20
220.710220
 11
28.170624
 21
220.710220
  0
LINE
  8
0
  6
CENTER
 62
     1
 10
-6.829376
 20
118.710220
 11
146.170624
 21
118.710220
  0
LINE
  8
0
  6
CENTER
 62
     1
 10
-6.829376
 20
199.710220
 11
38.170624
 21
199.710220
  0
LINE
  8
0
  6
CENTER
 62
     1
 10
-6.829376
 20
37.710220
 11
38.170624
 21
37.710220
  0
LINE
  8
0
  6
CENTER
 62
     1
 10
93.170654
 20
48.471809
 11
93.170654
 21
183.311569
  0
LINE
  8
0
 62
     4
 10
50.170654
 20
68.710281
 11
50.170654
 21
72.210220
  0
LINE
  8
0
 62
     4
 10
136.170639
 20
68.710281
 11
136.170639
 21
93.710281
  0
LINE
  8
0
 62
     4
 10
50.170624
 20
68.710220
 11
136.170624
 21
68.710220
  0
LINE
  8
0
 62
     4
 10
50.170624
 20
93.710220
 11
136.170624
 21
93.710220
  0
LINE
  8
0
 62
     4
 10
50.170654
 20
168.710281
 11
50.170654
 21
165.210220
  0
LINE
  8
0
 62
     4
 10
50.170624
 20
143.710220
 11
136.170624
 21
143.710220
  0
LINE
  8
0
 62
     4
 10
50.170624
 20
168.710220
 11
136.170624
 21
168.710220
  0
LINE
  8
0
 62
     4
 10
136.170639
 20
168.710281
 11
136.170639
 21
143.710281
  0
LINE
  8
0
 62
     4
 10
68.370636
 20
171.260208
 11
68.370636
 21
169.460220
  0
LINE
  8
0
 62
     4
 10
116.670624
 20
171.260208
 11
116.670624
 21
169.460220
  0
LINE
  8
0
 62
     4
 10
50.170654
 20
90.210220
 11
50.170654
 21
93.710281
  0
LINE
  8
0
 62
     4
 10
50.170654
 20
147.210220
 11
50.170654
 21
143.710281
  0
LINE
  8
0
 62
     4
 10
68.370636
 20
67.960220
 11
68.370636
 21
66.160233
  0
LINE
  8
0
 62
     4
 10
116.670624
 20
67.960220
 11
116.670624
 21
66.160233
  0
CIRCLE
  8
0
 62
     4
 10
-305.725525
 20
-117.041534
 40
36.000000
  0
ARC
  8
0
 62
     4
 10
-362.725525
 20
-57.366333
 40
3.000000
 50
180.000000
 51
251.889389
  0
ARC
  8
0
 62
     4
 10
-362.725525
 20
-176.716736
 40
3.000004
 50
108.110558
 51
180.000000
  0
CIRCLE
  8
0
 62
     4
 10
-305.725525
 20
-117.041534
 40
16.000000
  0
ARC
  8
0
 62
     4
 10
-304.725525
 20
-117.041534
 40
17.649994
 50
204.824936
 51
155.175064
  0
ARC
  8
0
 62
     4
 10
-322.559753
 20
-108.791534
 40
2.000000
 50
270.000000
 51
335.175079
  0
ARC
  8
0
 62
     4
 10
-322.559753
 20
-125.291534
 40
1.999995
 50
24.824905
 51
90.000000
  0
CIRCLE
  8
0
 62
     1
 10
-214.225525
 20
-189.041534
 40
8.000000
  0
CIRCLE
  8
0
 62
     1
 10
-70.225525
 20
-189.041534
 40
8.000000
  0
CIRCLE
  8
0
 62
     1
 10
-70.225525
 20
-45.041534
 40
8.000000
  0
CIRCLE
  8
0
 62
     1
 10
-214.225525
 20
-45.041534
 40
8.000000
  0
CIRCLE
  8
0
 62
     4
 10
-214.225525
 20
-189.041534
 40
6.600000
  0
CIRCLE
  8
0
 62
     4
 10
-70.225525
 20
-189.041534
 40
6.600000
  0
CIRCLE
  8
0
 62
     4
 10
-70.225525
 20
-45.041534
 40
6.600000
  0
CIRCLE
  8
0
 62
     4
 10
-214.225525
 20
-45.041534
 40
6.600000
  0
ARC
  8
0
 62
     4
 10
-101.725525
 20
-171.541534
 40
3.000000
 50
180.000000
 51
270.000000
  0
ARC
  8
0
 62
     4
 10
-122.725525
 20
-171.541534
 40
3.000000
 50
270.000000
 51
0.000000
  0
ARC
  8
0
 62
     4
 10
-161.725525
 20
-171.541534
 40
3.000000
 50
180.000000
 51
270.000000
  0
ARC
  8
0
 62
     4
 10
-182.725525
 20
-171.541534
 40
3.000000
 50
270.000000
 51
0.000000
  0
ARC
  8
0
 62
     4
 10
-181.725525
 20
-155.041534
 40
2.000000
 50
0.000000
 51
90.000000
  0
ARC
  8
0
 62
     4
 10
-162.725525
 20
-155.041534
 40
2.000000
 50
90.000000
 51
180.000000
  0
ARC
  8
0
 62
     4
 10
-121.725525
 20
-155.041534
 40
2.000000
 50
0.000000
 51
90.000000
  0
ARC
  8
0
 62
     4
 10
-102.725525
 20
-155.041534
 40
2.000000
 50
90.000000
 51
180.000000
  0
ARC
  8
0
 62
     4
 10
-182.725525
 20
-62.541534
 40
3.000000
 50
0.000000
 51
90.000000
  0
ARC
  8
0
 62
     4
 10
-161.725525
 20
-62.541534
 40
3.000000
 50
90.000000
 51
180.000000
  0
ARC
  8
0
 62
     4
 10
-122.725525
 20
-62.541534
 40
3.000000
 50
0.000000
 51
90.000000
  0
ARC
  8
0
 62
     4
 10
-101.725525
 20
-62.541534
 40
3.000000
 50
90.000000
 51
180.000000
  0
ARC
  8
0
 62
     4
 10
-102.725525
 20
-79.041534
 40
2.000000
 50
180.000000
 51
270.000000
  0
ARC
  8
0
 62
     4
 10
-121.725525
 20
-79.041534
 40
2.000000
 50
270.000000
 51
0.000000
  0
ARC
  8
0
 62
     4
 10
-162.725525
 20
-79.041534
 40
2.000000
 50
180.000000
 51
270.000000
  0
ARC
  8
0
 62
     4
 10
-181.725525
 20
-79.041534
 40
2.000000
 50
270.000000
 51
0.000000
  0
ARC
  8
0
 62
     4
 10
-362.725525
 20
63.701385
 40
3.000000
 50
90.000000
 51
180.000000
  0
ARC
  8
0
 62
     4
 10
-362.725525
 20
84.701385
 40
3.000000
 50
180.000000
 51
270.000000
  0
ARC
  8
0
 62
     4
 10
-362.725525
 20
123.701385
 40
3.000000
 50
90.000000
 51
180.000000
  0
ARC
  8
0
 62
     4
 10
-362.725525
 20
144.701385
 40
3.000000
 50
180.000000
 51
270.000000
  0
CIRCLE
  8
0
 62
     4
 10
93.170624
 20
-116.350143
 40
43.000000
  0
CIRCLE
  8
0
 62
     4
 10
93.170624
 20
-116.350143
 40
20.000000
  0
ARC
  8
0
 62
     4
 10
94.420624
 20
-116.350143
 40
22.250000
 50
200.518829
 51
159.481171
  0
ARC
  8
0
 62
     4
 10
71.709137
 20
-124.850143
 40
2.000000
 50
20.518723
 51
90.000000
  0
ARC
  8
0
 62
     4
 10
71.709137
 20
-107.850143
 40
2.000000
 50
270.000000
 51
339.481293
  0
ARC
  8
0
 62
     4
 10
31.170624
 20
-185.999252
 40
3.000005
 50
108.766609
 51
180.000000
  0
ARC
  8
0
 62
     4
 10
31.170624
 20
-46.701035
 40
3.000000
 50
180.000000
 51
251.233276
  0
CIRCLE
  8
0
 62
     1
 10
350.670624
 20
-35.350143
 40
9.000000
  0
CIRCLE
  8
0
 62
     1
 10
350.670624
 20
-197.350143
 40
9.000000
  0
CIRCLE
  8
0
 62
     1
 10
188.670624
 20
-35.350143
 40
9.000000
  0
CIRCLE
  8
0
 62
     1
 10
188.670624
 20
-197.350143
 40
9.000000
  0
CIRCLE
  8
0
 62
     4
 10
188.670624
 20
-197.350143
 40
6.400000
  0
CIRCLE
  8
0
 62
     4
 10
188.670624
 20
-35.350143
 40
6.400000
  0
CIRCLE
  8
0
 62
     4
 10
350.670624
 20
-35.350143
 40
6.400000
  0
CIRCLE
  8
0
 62
     4
 10
350.670624
 20
-197.350143
 40
6.400000
  0
ARC
  8
0
 62
     4
 10
220.170624
 20
-180.850143
 40
3.000000
 50
270.000000
 51
0.000000
  0
ARC
  8
0
 62
     4
 10
244.170624
 20
-180.850143
 40
3.000000
 50
180.000000
 51
270.000000
  0
ARC
  8
0
 62
     4
 10
295.170624
 20
-180.850143
 40
3.000000
 50
270.000000
 51
0.000000
  0
ARC
  8
0
 62
     4
 10
319.170624
 20
-180.850143
 40
3.000000
 50
180.000000
 51
270.000000
  0
ARC
  8
0
 62
     4
 10
243.170624
 20
-71.350143
 40
2.000000
 50
180.000000
 51
270.000000
  0
ARC
  8
0
 62
     4
 10
221.170624
 20
-71.350143
 40
2.000000
 50
270.000000
 51
0.000000
  0
ARC
  8
0
 62
     4
 10
221.170624
 20
-161.350143
 40
2.000000
 50
0.000000
 51
90.000000
  0
ARC
  8
0
 62
     4
 10
243.170624
 20
-161.350143
 40
2.000000
 50
90.000000
 51
180.000000
  0
ARC
  8
0
 62
     4
 10
296.170624
 20
-161.350143
 40
2.000000
 50
0.000000
 51
90.000000
  0
ARC
  8
0
 62
     4
 10
318.170624
 20
-161.350143
 40
2.000000
 50
90.000000
 51
180.000000
  0
ARC
  8
0
 62
     4
 10
318.170624
 20
-71.350143
 40
2.000000
 50
180.000000
 51
270.000000
  0
ARC
  8
0
 62
     4
 10
296.170624
 20
-71.350143
 40
2.000000
 50
270.000000
 51
0.000000
  0
ARC
  8
0
 62
     4
 10
319.170624
 20
-51.850143
 40
3.000000
 50
90.000000
 51
180.000000
  0
ARC
  8
0
 62
     4
 10
220.170624
 20
-51.850143
 40
3.000000
 50
0.000000
 51
90.000000
  0
ARC
  8
0
 62
     4
 10
244.170624
 20
-51.850143
 40
3.000000
 50
90.000000
 51
180.000000
  0
ARC
  8
0
 62
     4
 10
295.170624
 20
-51.850143
 40
3.000000
 50
0.000000
 51
90.000000
  0
ARC
  8
0
 62
     4
 10
31.170624
 20
69.210251
 40
3.000000
 50
90.000000
 51
180.000000
  0
ARC
  8
0
 62
     4
 10
31.170624
 20
93.210251
 40
3.000000
 50
180.000000
 51
269.999969
  0
ARC
  8
0
 62
     4
 10
31.170624
 20
144.210251
 40
3.000000
 50
90.000000
 51
180.000000
  0
ARC
  8
0
 62
     4
 10
31.170624
 20
168.210251
 40
3.000000
 50
180.000000
 51
269.999969
  0
TEXT
  8
0
 10
-374.285309
 20
256.649994
 40
9.000000
  1
SD CLEVIS,-7
 50
0.000000
 41
1.052632
 51
0.000000
  7
STANDARD
  0
TEXT
  8
0
 10
242.014816
 20
-274.500000
 40
12.500000
  1
KOGANEI CORP.
 50
0.000000
 41
1.052632
 51
0.000000
  7
STANDARD
  0
TEXT
  8
0
 10
251.264664
 20
256.649994
 40
9.000000
  1
DATE: AUG ,1993
 50
0.000000
 41
1.052632
 51
0.000000
  7
STANDARD
  0
TEXT
  8
0
 10
14.739680
 20
224.149994
 40
9.000000
  1
BORE:180
 50
0.000000
 41
1.052632
 51
0.000000
  7
STANDARD
  0
TEXT
  8
0
 10
-384.785309
 20
224.149994
 40
9.000000
  1
BORE:160
 50
0.000000
 41
1.052632
 51
0.000000
  7
STANDARD
  0
ENDSEC
  0
EOF
