  0
SECTION
  2
HEADER
  0
ENDSEC
  0
SECTION
  2
TABLES
  0
TABLE
  2
LTYPE
 70
     4
  0
LTYPE
  2
CONTINUOUS
 70
    64
  3
Solid line
 72
    65
 73
     0
 40
0.000000
  0
LTYPE
  2
DASHED
 70
    64
  3
__ __ __ __ __ __ __ __ __ __ __ __ __ __ __
 72
    65
 73
     2
 40
3.500000
 49
2.000000
 49
-1.500000
  0
LTYPE
  2
CENTER
 70
    64
  3
____ _ ____ _ ____ _ ____ _ ____ _ ____ _ ____
 72
    65
 73
     4
 40
17.500000
 49
13.000000
 49
-1.500000
 49
1.500000
 49
-1.500000
  0
LTYPE
  2
PHANTOM
 70
    64
  3
_____ _ _ _____ _ _ _____ _ _ _____ _ _ ____  
 72
    65
 73
     6
 40
15.500000
 49
8.000000
 49
-1.500000
 49
1.500000
 49
-1.500000
 49
1.500000
 49
-1.500000
  0
LTYPE
  2
DASHED1
 70
    64
  3
__ __ __ __ __ __ __ __ __ __ __ __ __ __ __
 72
    65
 73
     2
 40
1.500000
 49
1.000000
 49
-0.500000
  0
LTYPE
  2
DASHED2
 70
    64
  3
__ __ __ __ __ __ __ __ __ __ __ __ __ __ __
 72
    65
 73
     2
 40
3.500000
 49
2.500000
 49
-1.000000
  0
LTYPE
  2
DASHED3
 70
    64
  3
__ __ __ __ __ __ __ __ __ __ __ __ __ __ __
 72
    65
 73
     2
 40
6.000000
 49
4.000000
 49
-2.000000
  0
LTYPE
  2
DASHED4
 70
    64
  3
__ __ __ __ __ __ __ __ __ __ __ __ __ __ __
 72
    65
 73
     2
 40
12.000000
 49
10.000000
 49
-2.000000
  0
LTYPE
  2
DASHED5
 70
    64
  3
__ __ __ __ __ __ __ __ __ __ __ __ __ __ __
 72
    65
 73
     2
 40
17.000000
 49
15.000000
 49
-2.000000
  0
LTYPE
  2
DASHED6
 70
    64
  3
__ __ __ __ __ __ __ __ __ __ __ __ __ __ __
 72
    65
 73
     2
 40
29.000000
 49
27.000000
 49
-2.000000
  0
LTYPE
  2
PHANTOM1
 70
    64
  3
_____ _ _ _____ _ _ _____ _ _ _____ _ _ ____  
 72
    65
 73
     6
 40
31.000000
 49
25.000000
 49
-1.500000
 49
1.000000
 49
-1.000000
 49
1.000000
 49
-1.500000
  0
LTYPE
  2
PHANTOM2
 70
    64
  3
_____ _ _ _____ _ _ _____ _ _ _____ _ _ ____  
 72
    65
 73
     6
 40
36.000000
 49
27.000000
 49
-1.500000
 49
2.500000
 49
-1.000000
 49
2.500000
 49
-1.500000
  0
LTYPE
  2
PHANTOM3
 70
    64
  3
_____ _ _ _____ _ _ _____ _ _ _____ _ _ ____  
 72
    65
 73
     6
 40
78.000000
 49
64.000000
 49
-2.000000
 49
4.000000
 49
-2.000000
 49
4.000000
 49
-2.000000
  0
LTYPE
  2
CENTER1
 70
    64
  3
____ _ ____ _ ____ _ ____ _ ____ _ ____ _ ____
 72
    65
 73
     4
 40
19.000000
 49
14.000000
 49
-1.000000
 49
3.000000
 49
-1.000000
  0
LTYPE
  2
CENTER2
 70
    64
  3
____ _ ____ _ ____ _ ____ _ ____ _ ____ _ ____
 72
    65
 73
     4
 40
28.500000
 49
25.000000
 49
-1.000000
 49
1.500000
 49
-1.000000
  0
LTYPE
  2
CENTER3
 70
    64
  3
____ _ ____ _ ____ _ ____ _ ____ _ ____ _ ____
 72
    65
 73
     4
 40
31.500000
 49
27.000000
 49
-1.000000
 49
2.500000
 49
-1.000000
  0
LTYPE
  2
CENTER4
 70
    64
  3
____ _ ____ _ ____ _ ____ _ ____ _ ____ _ ____
 72
    65
 73
     4
 40
50.000000
 49
45.000000
 49
-1.000000
 49
3.000000
 49
-1.000000
  0
LTYPE
  2
CENTER5
 70
    64
  3
____ _ ____ _ ____ _ ____ _ ____ _ ____ _ ____
 72
    65
 73
     4
 40
100.000000
 49
92.000000
 49
-2.000000
 49
4.000000
 49
-2.000000
  0
LTYPE
  2
SBK1
 70
    64
  3
______ _ _ _ ______ _ _ _ ______ _ _ _ _____  
 72
    65
 73
     8
 40
60.500000
 49
45.000000
 49
-2.000000
 49
2.500000
 49
-2.000000
 49
2.500000
 49
-2.000000
 49
2.500000
 49
-2.000000
  0
LTYPE
  2
SBK2
 70
    64
  3
______ _ _ _ ______ _ _ _ ______ _ _ _ _____  
 72
    65
 73
     8
 40
84.000000
 49
64.000000
 49
-2.000000
 49
4.000000
 49
-2.000000
 49
4.000000
 49
-2.000000
 49
4.000000
 49
-2.000000
  0
LTYPE
  2
STCH
 70
    64
  3
__ __ __ __ __ __ __ __ __ __ __ __ __ __ __
 72
    65
 73
     2
 40
3.000000
 49
1.000000
 49
-2.000000
  0
LTYPE
  2
MTCH
 70
    64
  3
_____ _ _ _____ _ _ _____ _ _ _____ _ _ ____  
 72
    65
 73
     6
 40
80.000000
 49
66.000000
 49
-2.000000
 49
4.000000
 49
-2.000000
 49
4.000000
 49
-2.000000
  0
ENDTAB
  0
TABLE
  2
LAYER
 70
     1
  0
LAYER
  2
0
 70
     0
 62
     7
  6
CONTINUOUS
  0
ENDTAB
  0
TABLE
  2
STYLE
 70
     1
  0
STYLE
  2
STANDARD
 70
     0
 40
0.000000
 41
1.000000
 50
0.000000
 71
     0
 42
0.200000
  3
txt
  4
BIGFONT
  0
ENDTAB
  0
TABLE
  2
VIEW
 70
     0
  0
ENDTAB
  0
ENDSEC
  0
SECTION
  2
BLOCKS
  0
ENDSEC
  0
SECTION
  2
ENTITIES
  0
LINE
  8
0
 10
399.799988
 20
276.250000
 11
399.799988
 21
-276.750000
  0
LINE
  8
0
 10
-399.250000
 20
276.250000
 11
-399.250000
 21
-276.750000
  0
LINE
  8
0
 10
-399.250000
 20
276.250000
 11
399.799988
 21
276.250000
  0
LINE
  8
0
 10
-399.250000
 20
-276.750000
 11
399.799988
 21
-276.750000
  0
LINE
  8
0
 10
239.799988
 20
-251.750000
 11
399.799988
 21
-251.750000
  0
LINE
  8
0
 10
239.799988
 20
251.250000
 11
399.799988
 21
251.250000
  0
LINE
  8
0
 10
-399.250000
 20
251.250000
 11
-239.250000
 21
251.250000
  0
LINE
  8
0
 10
239.799988
 20
-251.750000
 11
239.799988
 21
-276.750000
  0
LINE
  8
0
 10
239.799988
 20
251.250000
 11
239.799988
 21
276.250000
  0
LINE
  8
0
 10
-239.250000
 20
276.250000
 11
-239.250000
 21
251.250000
  0
LINE
  8
0
 62
     4
 10
-213.594803
 20
-14.070335
 11
-213.594803
 21
-240.070343
  0
LINE
  8
0
 62
     4
 10
-213.594803
 20
-14.070335
 11
-188.594803
 21
-14.070335
  0
LINE
  8
0
 62
     4
 10
-213.594803
 20
-240.070343
 11
-188.594803
 21
-240.070343
  0
LINE
  8
0
  6
CENTER
 62
     1
 10
-218.594803
 20
-218.070343
 11
-182.301468
 21
-218.070343
  0
LINE
  8
0
  6
CENTER
 62
     1
 10
-218.594803
 20
-36.070335
 11
-180.929092
 21
-36.070335
  0
LINE
  8
0
  6
CENTER
 62
     1
 10
-218.594803
 20
-127.070335
 11
-69.053299
 21
-127.070335
  0
LINE
  8
0
 62
     4
 10
-188.594803
 20
-14.070335
 11
-188.594803
 21
-240.070343
  0
LINE
  8
0
 62
     4
 10
-148.394791
 20
-125.570335
 11
-143.538467
 21
-125.570335
  0
LINE
  8
0
 62
     4
 10
-148.394791
 20
-128.570343
 11
-143.538467
 21
-128.570343
  0
LINE
  8
0
 62
     4
 10
-146.394791
 20
-133.570343
 11
-145.056290
 21
-133.570343
  0
LINE
  8
0
 62
     4
 10
-146.394791
 20
-120.570335
 11
-145.056290
 21
-120.570335
  0
LINE
  8
0
 62
     4
 10
-148.394791
 20
-122.570335
 11
-148.394791
 21
-125.570335
  0
LINE
  8
0
 62
     4
 10
-148.394791
 20
-128.570343
 11
-148.394791
 21
-131.570343
  0
LINE
  8
0
  6
CENTER
 62
     1
 10
-123.594803
 20
-69.174736
 11
-123.594803
 21
-182.765030
  0
LINE
  8
0
 62
     4
 10
-186.650162
 20
-55.301216
 11
-107.764587
 21
-84.946732
  0
LINE
  8
0
 62
     4
 10
-186.650116
 20
-198.839478
 11
-107.764519
 21
-169.193954
  0
LINE
  8
0
  6
CENTER
 62
     1
 10
5.945236
 20
-127.070335
 11
256.295837
 21
-127.070335
  0
LINE
  8
0
 62
     4
 10
19.905197
 20
-14.070335
 11
245.905197
 21
-14.070335
  0
LINE
  8
0
  6
CENTER
 62
     1
 10
223.905197
 20
-199.117950
 11
223.905197
 21
-237.333969
  0
LINE
  8
0
  6
CENTER
 62
     1
 10
206.884689
 20
-218.070343
 11
241.434738
 21
-218.070343
  0
LINE
  8
0
  6
CENTER
 62
     1
 10
223.905197
 20
-17.117943
 11
223.905197
 21
-55.333977
  0
LINE
  8
0
  6
CENTER
 62
     1
 10
206.884689
 20
-36.070335
 11
241.434738
 21
-36.070335
  0
LINE
  8
0
  6
CENTER
 62
     1
 10
41.905197
 20
-199.117950
 11
41.905197
 21
-237.333984
  0
LINE
  8
0
  6
CENTER
 62
     1
 10
24.884689
 20
-218.070343
 11
59.434738
 21
-218.070343
  0
LINE
  8
0
  6
CENTER
 62
     1
 10
41.905197
 20
-17.117943
 11
41.905197
 21
-55.333977
  0
LINE
  8
0
  6
CENTER
 62
     1
 10
24.884689
 20
-36.070335
 11
59.434738
 21
-36.070335
  0
LINE
  8
0
 62
     4
 10
19.905197
 20
-240.070343
 11
245.905197
 21
-240.070343
  0
LINE
  8
0
 62
     4
 10
245.905197
 20
-14.070335
 11
245.905197
 21
-240.070343
  0
LINE
  8
0
 62
     4
 10
19.905197
 20
-14.070335
 11
19.905197
 21
-240.070343
  0
LINE
  8
0
 62
     4
 10
157.905197
 20
-82.070335
 11
157.905197
 21
-172.070343
  0
LINE
  8
0
 62
     4
 10
107.905197
 20
-82.070335
 11
107.905197
 21
-172.070343
  0
LINE
  8
0
 62
     4
 10
182.905197
 20
-82.070335
 11
182.905197
 21
-172.070343
  0
LINE
  8
0
 62
     4
 10
82.905197
 20
-82.070335
 11
82.905197
 21
-172.070343
  0
LINE
  8
0
 62
     4
 10
82.905197
 20
-172.070343
 11
84.405197
 21
-172.070343
  0
LINE
  8
0
 62
     4
 10
82.905197
 20
-82.070335
 11
84.405197
 21
-82.070335
  0
LINE
  8
0
 62
     4
 10
106.405197
 20
-82.070335
 11
107.905197
 21
-82.070335
  0
LINE
  8
0
 62
     4
 10
157.905197
 20
-82.070335
 11
159.405197
 21
-82.070335
  0
LINE
  8
0
 62
     4
 10
181.405197
 20
-82.070335
 11
182.905197
 21
-82.070335
  0
LINE
  8
0
 62
     4
 10
106.405197
 20
-172.070343
 11
107.905197
 21
-172.070343
  0
LINE
  8
0
 62
     4
 10
157.905197
 20
-172.070343
 11
159.405197
 21
-172.070343
  0
LINE
  8
0
 62
     4
 10
181.405197
 20
-172.070343
 11
182.905197
 21
-172.070343
  0
LINE
  8
0
 62
     4
 10
86.405197
 20
-174.070343
 11
86.405197
 21
-196.570343
  0
LINE
  8
0
 62
     4
 10
104.405197
 20
-174.070343
 11
104.405197
 21
-196.570343
  0
LINE
  8
0
 62
     4
 10
161.405197
 20
-174.070343
 11
161.405197
 21
-196.570343
  0
LINE
  8
0
 62
     4
 10
179.405197
 20
-174.070343
 11
179.405197
 21
-196.570343
  0
LINE
  8
0
  6
CENTER
 62
     1
 10
132.905197
 20
-8.156395
 11
132.905197
 21
-248.347137
  0
LINE
  8
0
 62
     4
 10
104.405197
 20
-57.570335
 11
104.405197
 21
-80.070335
  0
LINE
  8
0
 62
     4
 10
161.405197
 20
-57.570335
 11
161.405197
 21
-80.070335
  0
LINE
  8
0
 62
     4
 10
179.405197
 20
-57.570335
 11
179.405197
 21
-80.070335
  0
LINE
  8
0
 62
     4
 10
86.405197
 20
-57.570335
 11
86.405197
 21
-80.070335
  0
LINE
  8
0
 62
     4
 10
183.655197
 20
-104.820335
 11
185.455185
 21
-104.820335
  0
LINE
  8
0
 62
     4
 10
82.155197
 20
-107.070335
 11
82.905197
 21
-107.070335
  0
LINE
  8
0
 62
     4
 10
185.455185
 20
-147.070343
 11
189.405197
 21
-147.070343
  0
LINE
  8
0
 62
     4
 10
82.155197
 20
-147.070343
 11
82.905197
 21
-147.070343
  0
LINE
  8
0
 62
     4
 10
185.455185
 20
-107.070335
 11
189.405197
 21
-107.070335
  0
LINE
  8
0
 62
     4
 10
189.405197
 20
-107.070335
 11
189.405197
 21
-147.070343
  0
LINE
  8
0
 62
     4
 10
76.405197
 20
-107.070335
 11
76.405197
 21
-147.070343
  0
LINE
  8
0
 62
     4
 10
76.405197
 20
-107.070335
 11
80.355209
 21
-107.070335
  0
LINE
  8
0
 62
     4
 10
76.405197
 20
-147.070343
 11
80.355209
 21
-147.070343
  0
LINE
  8
0
 62
     4
 10
107.905197
 20
-107.070335
 11
157.905197
 21
-107.070335
  0
LINE
  8
0
 62
     4
 10
107.905197
 20
-147.070343
 11
157.905197
 21
-147.070343
  0
LINE
  8
0
 62
     4
 10
182.905197
 20
-107.070335
 11
183.655197
 21
-107.070335
  0
LINE
  8
0
 62
     4
 10
182.905197
 20
-147.070343
 11
183.655197
 21
-147.070343
  0
LINE
  8
0
 62
     4
 10
80.355209
 20
-104.820335
 11
82.155197
 21
-104.820335
  0
LINE
  8
0
 62
     4
 10
80.355209
 20
-149.320343
 11
82.155197
 21
-149.320343
  0
LINE
  8
0
 62
     4
 10
183.655197
 20
-104.820335
 11
183.655197
 21
-149.320343
  0
LINE
  8
0
 62
     4
 10
82.155197
 20
-104.820335
 11
82.155197
 21
-149.320343
  0
LINE
  8
0
 62
     4
 10
80.355209
 20
-104.820335
 11
80.355209
 21
-149.320343
  0
LINE
  8
0
 62
     4
 10
185.455185
 20
-104.820335
 11
185.455185
 21
-149.320343
  0
LINE
  8
0
 62
     4
 10
183.655197
 20
-149.320343
 11
185.455185
 21
-149.320343
  0
LINE
  8
0
 62
     4
 10
-185.594803
 20
103.408852
 11
-107.764587
 21
103.408852
  0
LINE
  8
0
 62
     4
 10
-185.594803
 20
160.408844
 11
-107.764587
 21
160.408844
  0
LINE
  8
0
 62
     4
 10
-185.594803
 20
178.408844
 11
-107.764587
 21
178.408844
  0
LINE
  8
0
 62
     4
 10
-185.594803
 20
85.408852
 11
-107.764587
 21
85.408852
  0
LINE
  8
0
 62
     4
 10
-143.594803
 20
188.408844
 11
-103.594803
 21
188.408844
  0
LINE
  8
0
 62
     4
 10
-143.594803
 20
75.408852
 11
-103.594803
 21
75.408852
  0
LINE
  8
0
 62
     4
 10
-143.594772
 20
75.408913
 11
-143.594772
 21
79.358925
  0
LINE
  8
0
 62
     4
 10
-103.594772
 20
75.408913
 11
-103.594772
 21
79.358925
  0
LINE
  8
0
 62
     4
 10
-143.594772
 20
106.908913
 11
-143.594772
 21
156.908905
  0
LINE
  8
0
 62
     4
 10
-103.594772
 20
106.908913
 11
-103.594772
 21
156.908905
  0
LINE
  8
0
 62
     4
 10
-143.594772
 20
181.908905
 11
-143.594772
 21
182.658905
  0
LINE
  8
0
 62
     4
 10
-103.594772
 20
181.908905
 11
-103.594772
 21
182.658905
  0
LINE
  8
0
 62
     4
 10
-148.394791
 20
182.658844
 11
-100.094803
 21
182.658844
  0
LINE
  8
0
 62
     4
 10
-148.394791
 20
81.158852
 11
-100.094803
 21
81.158852
  0
LINE
  8
0
 62
     4
 10
-148.394791
 20
79.358864
 11
-100.094803
 21
79.358864
  0
LINE
  8
0
 62
     4
 10
-148.394791
 20
184.458832
 11
-100.094803
 21
184.458832
  0
LINE
  8
0
 62
     4
 10
-103.594772
 20
81.158913
 11
-103.594772
 21
81.908913
  0
LINE
  8
0
 62
     4
 10
-143.594772
 20
81.158913
 11
-143.594772
 21
81.908913
  0
LINE
  8
0
 62
     4
 10
-143.594772
 20
184.458893
 11
-143.594772
 21
188.408905
  0
LINE
  8
0
 62
     4
 10
-103.594772
 20
184.458893
 11
-103.594772
 21
188.408905
  0
LINE
  8
0
 62
     4
 10
-213.594772
 20
18.908913
 11
-213.594772
 21
244.908905
  0
LINE
  8
0
 62
     4
 10
-188.594772
 20
18.908913
 11
-188.594772
 21
244.908905
  0
LINE
  8
0
  6
CENTER
 62
     1
 10
-123.594772
 20
40.908913
 11
-123.594772
 21
222.908905
  0
LINE
  8
0
 62
     4
 10
-213.594803
 20
18.908852
 11
-188.594803
 21
18.908852
  0
LINE
  8
0
  6
CENTER
 62
     1
 10
-223.594803
 20
131.908844
 11
-68.594803
 21
131.908844
  0
LINE
  8
0
 62
     4
 10
-213.594803
 20
244.908844
 11
-188.594803
 21
244.908844
  0
LINE
  8
0
  6
CENTER
 62
     1
 10
-223.594803
 20
40.908852
 11
-178.594803
 21
40.908852
  0
LINE
  8
0
  6
CENTER
 62
     1
 10
-223.594803
 20
222.908844
 11
-178.594803
 21
222.908844
  0
LINE
  8
0
 62
     4
 10
-168.594803
 20
81.908852
 11
-78.594803
 21
81.908852
  0
LINE
  8
0
 62
     4
 10
-168.594803
 20
106.908852
 11
-78.594803
 21
106.908852
  0
LINE
  8
0
 62
     4
 10
-168.594772
 20
81.908913
 11
-168.594772
 21
85.408913
  0
LINE
  8
0
 62
     4
 10
-78.594772
 20
81.908913
 11
-78.594772
 21
106.908913
  0
LINE
  8
0
 62
     4
 10
-168.594772
 20
181.908905
 11
-168.594772
 21
178.408905
  0
LINE
  8
0
 62
     4
 10
-168.594803
 20
156.908844
 11
-78.594803
 21
156.908844
  0
LINE
  8
0
 62
     4
 10
-168.594803
 20
181.908844
 11
-78.594803
 21
181.908844
  0
LINE
  8
0
 62
     4
 10
-78.594772
 20
181.908905
 11
-78.594772
 21
156.908905
  0
LINE
  8
0
 62
     4
 10
-168.594772
 20
103.408913
 11
-168.594772
 21
106.908913
  0
LINE
  8
0
 62
     4
 10
-168.594772
 20
160.408905
 11
-168.594772
 21
156.908905
  0
LINE
  8
0
 62
     4
 10
-148.394791
 20
184.458832
 11
-148.394791
 21
182.658844
  0
LINE
  8
0
 62
     4
 10
-100.094803
 20
184.458832
 11
-100.094803
 21
182.658844
  0
LINE
  8
0
 62
     4
 10
-148.394791
 20
81.158852
 11
-148.394791
 21
79.358864
  0
LINE
  8
0
 62
     4
 10
-100.094803
 20
81.158852
 11
-100.094803
 21
79.358864
  0
ARC
  8
0
 62
     4
 10
-145.056290
 20
-135.570343
 40
1.999996
 50
20.519003
 51
90.000000
  0
ARC
  8
0
 62
     4
 10
-145.056290
 20
-118.570335
 40
2.000000
 50
270.000000
 51
339.481201
  0
ARC
  8
0
 62
     4
 10
-146.394791
 20
-122.570335
 40
2.000000
 50
90.000000
 51
180.000000
  0
ARC
  8
0
 62
     4
 10
-146.394791
 20
-131.570343
 40
2.000000
 50
180.000000
 51
270.000000
  0
CIRCLE
  8
0
 62
     4
 10
-123.594803
 20
-127.070335
 40
20.000000
  0
ARC
  8
0
 62
     4
 10
-122.344803
 20
-127.070335
 40
22.250004
 50
200.518860
 51
159.481171
  0
CIRCLE
  8
0
 62
     4
 10
-123.594803
 20
-127.070335
 40
45.000000
  0
ARC
  8
0
 62
     4
 10
-185.594803
 20
-52.492897
 40
3.000000
 50
180.000000
 51
249.403702
  0
ARC
  8
0
 62
     4
 10
-185.594803
 20
-201.647766
 40
3.000002
 50
110.596603
 51
180.000000
  0
CIRCLE
  8
0
 62
     1
 10
223.905197
 20
-218.070343
 40
10.000000
  0
CIRCLE
  8
0
 62
     1
 10
223.905197
 20
-36.070335
 40
10.000000
  0
CIRCLE
  8
0
 62
     1
 10
41.905197
 20
-218.070343
 40
10.000000
  0
CIRCLE
  8
0
 62
     1
 10
41.905197
 20
-36.070335
 40
10.000000
  0
CIRCLE
  8
0
 62
     4
 10
223.905197
 20
-36.070335
 40
7.400000
  0
CIRCLE
  8
0
 62
     4
 10
223.905197
 20
-218.070343
 40
7.400000
  0
CIRCLE
  8
0
 62
     4
 10
41.905197
 20
-218.070343
 40
7.400000
  0
CIRCLE
  8
0
 62
     4
 10
41.905197
 20
-36.070335
 40
7.400000
  0
ARC
  8
0
 62
     4
 10
83.405197
 20
-196.570343
 40
3.000000
 50
270.000000
 51
0.000000
  0
ARC
  8
0
 62
     4
 10
107.405197
 20
-196.570343
 40
3.000000
 50
180.000000
 51
270.000000
  0
ARC
  8
0
 62
     4
 10
158.405197
 20
-196.570343
 40
3.000000
 50
270.000000
 51
0.000000
  0
ARC
  8
0
 62
     4
 10
182.405197
 20
-196.570343
 40
3.000000
 50
180.000000
 51
270.000000
  0
ARC
  8
0
 62
     4
 10
106.405197
 20
-80.070335
 40
2.000000
 50
180.000000
 51
270.000000
  0
ARC
  8
0
 62
     4
 10
84.405197
 20
-80.070335
 40
2.000000
 50
270.000000
 51
0.000000
  0
ARC
  8
0
 62
     4
 10
84.405197
 20
-174.070343
 40
2.000000
 50
0.000000
 51
90.000000
  0
ARC
  8
0
 62
     4
 10
106.405197
 20
-174.070343
 40
2.000000
 50
90.000000
 51
180.000000
  0
ARC
  8
0
 62
     4
 10
159.405197
 20
-174.070343
 40
2.000000
 50
0.000000
 51
90.000000
  0
ARC
  8
0
 62
     4
 10
181.405197
 20
-174.070343
 40
2.000000
 50
90.000000
 51
180.000000
  0
ARC
  8
0
 62
     4
 10
181.405197
 20
-80.070335
 40
2.000000
 50
180.000000
 51
270.000000
  0
ARC
  8
0
 62
     4
 10
159.405197
 20
-80.070335
 40
2.000000
 50
270.000000
 51
0.000000
  0
ARC
  8
0
 62
     4
 10
83.405197
 20
-57.570335
 40
3.000000
 50
0.000000
 51
90.000000
  0
ARC
  8
0
 62
     4
 10
107.405197
 20
-57.570335
 40
3.000000
 50
90.000000
 51
180.000000
  0
ARC
  8
0
 62
     4
 10
158.405197
 20
-57.570335
 40
3.000000
 50
0.000000
 51
90.000000
  0
ARC
  8
0
 62
     4
 10
182.405197
 20
-57.570335
 40
3.000000
 50
90.000000
 51
180.000000
  0
ARC
  8
0
 62
     4
 10
-185.594803
 20
82.408882
 40
3.000000
 50
90.000000
 51
180.000000
  0
ARC
  8
0
 62
     4
 10
-185.594803
 20
106.408882
 40
3.000000
 50
180.000000
 51
270.000000
  0
ARC
  8
0
 62
     4
 10
-185.594803
 20
157.408875
 40
3.000000
 50
90.000000
 51
180.000000
  0
ARC
  8
0
 62
     4
 10
-185.594803
 20
181.408875
 40
3.000000
 50
180.000000
 51
270.000000
  0
TEXT
  8
0
 10
-374.285309
 20
256.649994
 40
9.000000
  1
SD CLEVIS,-7
 50
0.000000
 41
1.052632
 51
0.000000
  7
STANDARD
  0
TEXT
  8
0
 10
242.014816
 20
-274.500000
 40
12.500000
  1
KOGANEI CORP.
 50
0.000000
 41
1.052632
 51
0.000000
  7
STANDARD
  0
TEXT
  8
0
 10
251.264664
 20
256.649994
 40
9.000000
  1
DATE: AUG ,1993
 50
0.000000
 41
1.052632
 51
0.000000
  7
STANDARD
  0
TEXT
  8
0
 10
-384.785309
 20
224.149994
 40
9.000000
  1
BORE:200
 50
0.000000
 41
1.052632
 51
0.000000
  7
STANDARD
  0
ENDSEC
  0
EOF
