  0
SECTION
  2
HEADER
  0
ENDSEC
  0
SECTION
  2
TABLES
  0
TABLE
  2
LTYPE
 70
     4
  0
LTYPE
  2
CONTINUOUS
 70
    64
  3
Solid line
 72
    65
 73
     0
 40
0.000000
  0
LTYPE
  2
DASHED
 70
    64
  3
__ __ __ __ __ __ __ __ __ __ __ __ __ __ __
 72
    65
 73
     2
 40
3.500000
 49
2.000000
 49
-1.500000
  0
LTYPE
  2
CENTER
 70
    64
  3
____ _ ____ _ ____ _ ____ _ ____ _ ____ _ ____
 72
    65
 73
     4
 40
17.500000
 49
13.000000
 49
-1.500000
 49
1.500000
 49
-1.500000
  0
LTYPE
  2
PHANTOM
 70
    64
  3
_____ _ _ _____ _ _ _____ _ _ _____ _ _ ____  
 72
    65
 73
     6
 40
15.500000
 49
8.000000
 49
-1.500000
 49
1.500000
 49
-1.500000
 49
1.500000
 49
-1.500000
  0
LTYPE
  2
DASHED1
 70
    64
  3
__ __ __ __ __ __ __ __ __ __ __ __ __ __ __
 72
    65
 73
     2
 40
1.500000
 49
1.000000
 49
-0.500000
  0
LTYPE
  2
DASHED2
 70
    64
  3
__ __ __ __ __ __ __ __ __ __ __ __ __ __ __
 72
    65
 73
     2
 40
3.500000
 49
2.500000
 49
-1.000000
  0
LTYPE
  2
DASHED3
 70
    64
  3
__ __ __ __ __ __ __ __ __ __ __ __ __ __ __
 72
    65
 73
     2
 40
6.000000
 49
4.000000
 49
-2.000000
  0
LTYPE
  2
DASHED4
 70
    64
  3
__ __ __ __ __ __ __ __ __ __ __ __ __ __ __
 72
    65
 73
     2
 40
12.000000
 49
10.000000
 49
-2.000000
  0
LTYPE
  2
DASHED5
 70
    64
  3
__ __ __ __ __ __ __ __ __ __ __ __ __ __ __
 72
    65
 73
     2
 40
17.000000
 49
15.000000
 49
-2.000000
  0
LTYPE
  2
DASHED6
 70
    64
  3
__ __ __ __ __ __ __ __ __ __ __ __ __ __ __
 72
    65
 73
     2
 40
29.000000
 49
27.000000
 49
-2.000000
  0
LTYPE
  2
PHANTOM1
 70
    64
  3
_____ _ _ _____ _ _ _____ _ _ _____ _ _ ____  
 72
    65
 73
     6
 40
31.000000
 49
25.000000
 49
-1.500000
 49
1.000000
 49
-1.000000
 49
1.000000
 49
-1.500000
  0
LTYPE
  2
PHANTOM2
 70
    64
  3
_____ _ _ _____ _ _ _____ _ _ _____ _ _ ____  
 72
    65
 73
     6
 40
36.000000
 49
27.000000
 49
-1.500000
 49
2.500000
 49
-1.000000
 49
2.500000
 49
-1.500000
  0
LTYPE
  2
PHANTOM3
 70
    64
  3
_____ _ _ _____ _ _ _____ _ _ _____ _ _ ____  
 72
    65
 73
     6
 40
78.000000
 49
64.000000
 49
-2.000000
 49
4.000000
 49
-2.000000
 49
4.000000
 49
-2.000000
  0
LTYPE
  2
CENTER1
 70
    64
  3
____ _ ____ _ ____ _ ____ _ ____ _ ____ _ ____
 72
    65
 73
     4
 40
19.000000
 49
14.000000
 49
-1.000000
 49
3.000000
 49
-1.000000
  0
LTYPE
  2
CENTER2
 70
    64
  3
____ _ ____ _ ____ _ ____ _ ____ _ ____ _ ____
 72
    65
 73
     4
 40
28.500000
 49
25.000000
 49
-1.000000
 49
1.500000
 49
-1.000000
  0
LTYPE
  2
CENTER3
 70
    64
  3
____ _ ____ _ ____ _ ____ _ ____ _ ____ _ ____
 72
    65
 73
     4
 40
31.500000
 49
27.000000
 49
-1.000000
 49
2.500000
 49
-1.000000
  0
LTYPE
  2
CENTER4
 70
    64
  3
____ _ ____ _ ____ _ ____ _ ____ _ ____ _ ____
 72
    65
 73
     4
 40
50.000000
 49
45.000000
 49
-1.000000
 49
3.000000
 49
-1.000000
  0
LTYPE
  2
CENTER5
 70
    64
  3
____ _ ____ _ ____ _ ____ _ ____ _ ____ _ ____
 72
    65
 73
     4
 40
100.000000
 49
92.000000
 49
-2.000000
 49
4.000000
 49
-2.000000
  0
LTYPE
  2
SBK1
 70
    64
  3
______ _ _ _ ______ _ _ _ ______ _ _ _ _____  
 72
    65
 73
     8
 40
60.500000
 49
45.000000
 49
-2.000000
 49
2.500000
 49
-2.000000
 49
2.500000
 49
-2.000000
 49
2.500000
 49
-2.000000
  0
LTYPE
  2
SBK2
 70
    64
  3
______ _ _ _ ______ _ _ _ ______ _ _ _ _____  
 72
    65
 73
     8
 40
84.000000
 49
64.000000
 49
-2.000000
 49
4.000000
 49
-2.000000
 49
4.000000
 49
-2.000000
 49
4.000000
 49
-2.000000
  0
LTYPE
  2
STCH
 70
    64
  3
__ __ __ __ __ __ __ __ __ __ __ __ __ __ __
 72
    65
 73
     2
 40
3.000000
 49
1.000000
 49
-2.000000
  0
LTYPE
  2
MTCH
 70
    64
  3
_____ _ _ _____ _ _ _____ _ _ _____ _ _ ____  
 72
    65
 73
     6
 40
80.000000
 49
66.000000
 49
-2.000000
 49
4.000000
 49
-2.000000
 49
4.000000
 49
-2.000000
  0
ENDTAB
  0
TABLE
  2
LAYER
 70
     1
  0
LAYER
  2
0
 70
     0
 62
     7
  6
CONTINUOUS
  0
ENDTAB
  0
TABLE
  2
STYLE
 70
     1
  0
STYLE
  2
STANDARD
 70
     0
 40
0.000000
 41
1.000000
 50
0.000000
 71
     0
 42
0.200000
  3
txt
  4
BIGFONT
  0
ENDTAB
  0
TABLE
  2
VIEW
 70
     0
  0
ENDTAB
  0
ENDSEC
  0
SECTION
  2
BLOCKS
  0
ENDSEC
  0
SECTION
  2
ENTITIES
  0
LINE
  8
0
 10
399.799988
 20
276.250000
 11
399.799988
 21
-276.750000
  0
LINE
  8
0
 10
-399.250000
 20
276.250000
 11
-399.250000
 21
-276.750000
  0
LINE
  8
0
 10
-399.250000
 20
276.250000
 11
399.799988
 21
276.250000
  0
LINE
  8
0
 10
-399.250000
 20
-276.750000
 11
399.799988
 21
-276.750000
  0
LINE
  8
0
 10
239.799988
 20
-251.750000
 11
399.799988
 21
-251.750000
  0
LINE
  8
0
 10
239.799988
 20
251.250000
 11
399.799988
 21
251.250000
  0
LINE
  8
0
 10
-399.250000
 20
251.250000
 11
-239.250000
 21
251.250000
  0
LINE
  8
0
 10
239.799988
 20
-251.750000
 11
239.799988
 21
-276.750000
  0
LINE
  8
0
 10
239.799988
 20
251.250000
 11
239.799988
 21
276.250000
  0
LINE
  8
0
 10
-239.250000
 20
276.250000
 11
-239.250000
 21
251.250000
  0
LINE
  8
0
 10
0.274994
 20
-276.750000
 11
0.274994
 21
276.250000
  0
LINE
  8
0
 62
     4
 10
-75.000000
 20
-92.032639
 11
-75.000000
 21
-142.032639
  0
LINE
  8
0
 62
     4
 10
-83.000000
 20
-92.032639
 11
-83.000000
 21
-125.532639
  0
LINE
  8
0
 62
     4
 10
-75.000000
 20
-92.032639
 11
-83.000000
 21
-92.032639
  0
LINE
  8
0
 62
     4
 10
-75.000000
 20
-142.032639
 11
-140.000000
 21
-142.032639
  0
LINE
  8
0
 62
     4
 10
-91.500000
 20
-134.032639
 11
-134.000000
 21
-134.032639
  0
LINE
  8
0
  6
CENTER
 62
     1
 10
-120.000000
 20
-129.391113
 11
-120.000000
 21
-146.754074
  0
LINE
  8
0
 62
     4
 10
-140.000000
 20
-140.032639
 11
-140.000000
 21
-142.032639
  0
LINE
  8
0
  6
DASHED
 62
     1
 10
-110.500000
 20
-134.032639
 11
-110.500000
 21
-142.032639
  0
LINE
  8
0
  6
DASHED
 62
     1
 10
-129.500000
 20
-134.032639
 11
-129.500000
 21
-142.032639
  0
LINE
  8
0
  6
CENTER
 62
     2
 10
-107.500000
 20
-114.532639
 11
-67.245079
 21
-114.532639
  0
LINE
  8
0
 10
-101.000000
 20
-121.532639
 11
-97.500000
 21
-121.532639
  0
LINE
  8
0
 10
-101.999992
 20
-108.532654
 11
-101.000000
 21
-107.532661
  0
LINE
  8
0
 10
-101.999992
 20
-120.532623
 11
-100.999985
 21
-121.532623
  0
LINE
  8
0
 10
-96.517517
 20
-101.830933
 11
-86.500000
 21
-101.830933
  0
LINE
  8
0
 10
-96.517517
 20
-108.181793
 11
-86.500000
 21
-108.181793
  0
LINE
  8
0
 10
-96.517517
 20
-120.883499
 11
-86.500000
 21
-120.883499
  0
LINE
  8
0
 10
-96.517517
 20
-127.234344
 11
-86.500000
 21
-127.234344
  0
LINE
  8
0
 10
-86.500000
 20
-101.830933
 11
-86.500000
 21
-127.234344
  0
LINE
  8
0
 10
-97.500000
 20
-103.532639
 11
-97.500000
 21
-125.532639
  0
LINE
  8
0
 10
-97.499954
 20
-103.532600
 11
-96.517479
 21
-101.830925
  0
LINE
  8
0
 10
-97.500038
 20
-125.532677
 11
-96.517555
 21
-127.234375
  0
LINE
  8
0
 10
-102.000000
 20
-108.532639
 11
-102.000000
 21
-120.532639
  0
LINE
  8
0
 10
-101.000000
 20
-107.532639
 11
-101.000000
 21
-121.532639
  0
LINE
  8
0
 10
-101.000000
 20
-107.532639
 11
-97.500000
 21
-107.532639
  0
LINE
  8
0
 10
-86.500000
 20
-102.532639
 11
-83.000000
 21
-102.532639
  0
LINE
  8
0
 10
-86.500000
 20
-126.532639
 11
-83.000000
 21
-126.532639
  0
LINE
  8
0
 62
     2
 10
-102.000000
 20
-108.932640
 11
-97.500000
 21
-108.932640
  0
LINE
  8
0
 62
     2
 10
-102.000000
 20
-120.132637
 11
-97.500000
 21
-120.132637
  0
LINE
  8
0
  6
CENTER
 62
     2
 10
-262.000000
 20
-86.644470
 11
-262.000000
 21
-146.025360
  0
LINE
  8
0
 62
     4
 10
-189.500000
 20
-92.032639
 11
-189.500000
 21
-142.032639
  0
LINE
  8
0
 62
     4
 10
-334.500000
 20
-92.032639
 11
-334.500000
 21
-142.032639
  0
LINE
  8
0
  6
CENTER
 62
     2
 10
-333.000000
 20
-114.532639
 11
-306.000000
 21
-114.532639
  0
LINE
  8
0
 10
-308.500000
 20
-108.181793
 11
-308.500000
 21
-120.883499
  0
LINE
  8
0
 10
-330.500000
 20
-108.181793
 11
-330.500000
 21
-120.883499
  0
LINE
  8
0
 10
-330.499725
 20
-108.182205
 11
-319.499695
 21
-101.831367
  0
LINE
  8
0
 10
-319.499634
 20
-127.234985
 11
-308.499573
 21
-120.884094
  0
LINE
  8
0
 10
-319.499756
 20
-101.830620
 11
-308.499847
 21
-108.181450
  0
LINE
  8
0
 10
-330.499939
 20
-120.883423
 11
-319.499969
 21
-127.234245
  0
LINE
  8
0
  6
CENTER
 62
     2
 10
-319.500000
 20
-99.532639
 11
-319.500000
 21
-129.282639
  0
LINE
  8
0
  6
CENTER
 62
     2
 10
-216.750000
 20
-114.532639
 11
-190.500000
 21
-114.532639
  0
LINE
  8
0
  6
CENTER
 62
     2
 10
-204.500000
 20
-98.782639
 11
-204.500000
 21
-128.032639
  0
LINE
  8
0
 10
-193.500000
 20
-108.181793
 11
-193.500000
 21
-120.883499
  0
LINE
  8
0
 10
-215.500000
 20
-108.181793
 11
-215.500000
 21
-120.883499
  0
LINE
  8
0
 10
-215.499771
 20
-108.182007
 11
-204.499771
 21
-101.831184
  0
LINE
  8
0
 10
-204.499771
 20
-127.234634
 11
-193.499741
 21
-120.883759
  0
LINE
  8
0
 10
-204.499832
 20
-101.830757
 11
-193.499893
 21
-108.181595
  0
LINE
  8
0
 10
-215.499924
 20
-120.883400
 11
-204.499924
 21
-127.234238
  0
LINE
  8
0
 62
     4
 10
-334.500000
 20
-92.032639
 11
-290.284271
 21
-92.032639
  0
LINE
  8
0
 62
     4
 10
-334.500000
 20
-134.032639
 11
-189.500000
 21
-134.032639
  0
LINE
  8
0
 62
     4
 10
-334.500000
 20
-142.032639
 11
-189.500000
 21
-142.032639
  0
LINE
  8
0
 62
     4
 10
-233.715729
 20
-92.032639
 11
-189.500000
 21
-92.032639
  0
LINE
  8
0
  6
CENTER
 62
     1
 10
-212.000000
 20
-131.398834
 11
-212.000000
 21
-146.025360
  0
LINE
  8
0
  6
CENTER
 62
     1
 10
-312.000000
 20
-131.991806
 11
-312.000000
 21
-146.025360
  0
LINE
  8
0
  6
DASHED
 62
     1
 10
-302.500000
 20
-134.032639
 11
-302.500000
 21
-142.032639
  0
LINE
  8
0
  6
DASHED
 62
     1
 10
-321.500000
 20
-134.032639
 11
-321.500000
 21
-142.032639
  0
LINE
  8
0
  6
DASHED
 62
     1
 10
-202.500000
 20
-134.032639
 11
-202.500000
 21
-142.032639
  0
LINE
  8
0
  6
DASHED
 62
     1
 10
-221.500000
 20
-134.032639
 11
-221.500000
 21
-142.032639
  0
LINE
  8
0
 62
     4
 10
-75.000000
 20
139.814529
 11
-75.000000
 21
-5.185478
  0
LINE
  8
0
 62
     4
 10
-83.000000
 20
139.814529
 11
-83.000000
 21
-5.185478
  0
LINE
  8
0
 62
     4
 10
-140.000000
 20
139.814529
 11
-140.000000
 21
-5.185478
  0
LINE
  8
0
 62
     4
 10
-140.000000
 20
-5.185478
 11
-75.000000
 21
-5.185478
  0
LINE
  8
0
 62
     4
 10
-140.000000
 20
139.814529
 11
-75.000000
 21
139.814529
  0
LINE
  8
0
  6
CENTER
 62
     2
 10
-159.972061
 20
67.314529
 11
-60.541023
 21
67.314529
  0
LINE
  8
0
  6
CENTER
 62
     1
 10
-135.000000
 20
17.314529
 11
-105.000000
 21
17.314529
  0
LINE
  8
0
  6
CENTER
 62
     1
 10
-120.000000
 20
32.314529
 11
-120.000000
 21
2.314529
  0
LINE
  8
0
  6
CENTER
 62
     2
 10
-107.500000
 20
124.814529
 11
-67.245079
 21
124.814529
  0
LINE
  8
0
 10
-101.000000
 20
131.814529
 11
-97.500000
 21
131.814529
  0
LINE
  8
0
 10
-102.000015
 20
118.814484
 11
-101.000000
 21
117.814453
  0
LINE
  8
0
 10
-101.999802
 20
130.814331
 11
-100.999802
 21
131.814331
  0
LINE
  8
0
 10
-86.500000
 20
112.814529
 11
-86.500000
 21
136.814529
  0
LINE
  8
0
 10
-102.000000
 20
118.814529
 11
-102.000000
 21
130.814529
  0
LINE
  8
0
 10
-101.000000
 20
117.814529
 11
-101.000000
 21
131.814529
  0
LINE
  8
0
 10
-101.000000
 20
117.814529
 11
-97.500000
 21
117.814529
  0
LINE
  8
0
 10
-86.500000
 20
112.814529
 11
-83.000000
 21
112.814529
  0
LINE
  8
0
 10
-86.500000
 20
136.814529
 11
-83.000000
 21
136.814529
  0
LINE
  8
0
 62
     2
 10
-102.000000
 20
119.214523
 11
-97.500000
 21
119.214523
  0
LINE
  8
0
 62
     2
 10
-102.000000
 20
130.414536
 11
-97.500000
 21
130.414536
  0
LINE
  8
0
  6
CENTER
 62
     1
 10
-135.000000
 20
117.314529
 11
-105.000000
 21
117.314529
  0
LINE
  8
0
  6
CENTER
 62
     1
 10
-120.000000
 20
102.314529
 11
-120.000000
 21
132.314529
  0
LINE
  8
0
 10
-86.482483
 20
135.814529
 11
-97.500000
 21
135.814529
  0
LINE
  8
0
 10
-86.500000
 20
124.814529
 11
-96.517517
 21
124.814529
  0
LINE
  8
0
 10
-86.500000
 20
113.814529
 11
-97.500000
 21
113.814529
  0
LINE
  8
0
 10
-97.500000
 20
135.814529
 11
-97.500000
 21
113.814529
  0
LINE
  8
0
 62
     4
 10
-75.000000
 20
39.030258
 11
-83.000000
 21
39.030258
  0
LINE
  8
0
 62
     4
 10
-75.000000
 20
95.598785
 11
-83.000000
 21
95.598785
  0
LINE
  8
0
  6
CENTER
 62
     2
 10
-107.500000
 20
9.814529
 11
-67.245079
 21
9.814529
  0
LINE
  8
0
 10
-101.000000
 20
2.814529
 11
-97.500000
 21
2.814529
  0
LINE
  8
0
 10
-101.999947
 20
15.814490
 11
-100.999947
 21
16.814491
  0
LINE
  8
0
 10
-101.999992
 20
3.814528
 11
-100.999992
 21
2.814527
  0
LINE
  8
0
 10
-86.500000
 20
21.814529
 11
-86.500000
 21
-2.185471
  0
LINE
  8
0
 10
-102.000000
 20
15.814529
 11
-102.000000
 21
3.814529
  0
LINE
  8
0
 10
-101.000000
 20
16.814529
 11
-101.000000
 21
2.814529
  0
LINE
  8
0
 10
-101.000000
 20
16.814529
 11
-97.500000
 21
16.814529
  0
LINE
  8
0
 10
-86.500000
 20
21.814529
 11
-83.000000
 21
21.814529
  0
LINE
  8
0
 10
-86.500000
 20
-2.185471
 11
-83.000000
 21
-2.185471
  0
LINE
  8
0
 62
     2
 10
-102.000000
 20
15.414536
 11
-97.500000
 21
15.414536
  0
LINE
  8
0
 62
     2
 10
-102.000000
 20
4.214523
 11
-97.500000
 21
4.214523
  0
LINE
  8
0
 10
-86.482483
 20
-1.185471
 11
-97.500000
 21
-1.185471
  0
LINE
  8
0
 10
-86.500000
 20
9.814529
 11
-96.517517
 21
9.814529
  0
LINE
  8
0
 10
-86.500000
 20
20.814529
 11
-97.500000
 21
20.814529
  0
LINE
  8
0
 10
-97.500000
 20
-1.185471
 11
-97.500000
 21
20.814529
  0
LINE
  8
0
 62
     4
 10
325.875366
 20
-80.032639
 11
325.875366
 21
-142.032639
  0
LINE
  8
0
 62
     4
 10
316.875366
 20
-80.032639
 11
316.875366
 21
-124.532639
  0
LINE
  8
0
 62
     4
 10
325.875366
 20
-80.032639
 11
316.875366
 21
-80.032639
  0
LINE
  8
0
 62
     4
 10
325.875366
 20
-142.032639
 11
250.875366
 21
-142.032639
  0
LINE
  8
0
 62
     4
 10
308.375366
 20
-133.032639
 11
256.875366
 21
-133.032639
  0
LINE
  8
0
  6
CENTER
 62
     1
 10
280.875366
 20
-128.207977
 11
280.875366
 21
-146.074646
  0
LINE
  8
0
 62
     4
 10
250.875366
 20
-139.032639
 11
250.875366
 21
-142.032639
  0
LINE
  8
0
  6
DASHED
 62
     1
 10
271.375366
 20
-133.032639
 11
271.375366
 21
-142.032639
  0
LINE
  8
0
  6
DASHED
 62
     1
 10
290.375366
 20
-133.032639
 11
290.375366
 21
-142.032639
  0
LINE
  8
0
  6
CENTER
 62
     2
 10
293.375366
 20
-106.032639
 11
329.893555
 21
-106.032639
  0
LINE
  8
0
 10
299.875366
 20
-113.032639
 11
302.375366
 21
-113.032639
  0
LINE
  8
0
 10
298.875305
 20
-100.032661
 11
299.875305
 21
-99.032654
  0
LINE
  8
0
 10
298.875366
 20
-112.032669
 11
299.875366
 21
-113.032669
  0
LINE
  8
0
 10
303.357849
 20
-93.330933
 11
313.375366
 21
-93.330933
  0
LINE
  8
0
 10
303.357849
 20
-99.681793
 11
313.375366
 21
-99.681793
  0
LINE
  8
0
 10
303.357849
 20
-112.383499
 11
313.375366
 21
-112.383499
  0
LINE
  8
0
 10
303.357849
 20
-118.734344
 11
313.375366
 21
-118.734344
  0
LINE
  8
0
 10
313.375366
 20
-93.330933
 11
313.375366
 21
-118.734344
  0
LINE
  8
0
 10
302.375366
 20
-95.032639
 11
302.375366
 21
-117.032639
  0
LINE
  8
0
 10
302.375336
 20
-95.032654
 11
303.357819
 21
-93.330956
  0
LINE
  8
0
 10
302.375427
 20
-117.032593
 11
303.357910
 21
-118.734306
  0
LINE
  8
0
 10
298.875366
 20
-100.032639
 11
298.875366
 21
-112.032639
  0
LINE
  8
0
 10
299.875366
 20
-99.032639
 11
299.875366
 21
-113.032639
  0
LINE
  8
0
 10
299.875366
 20
-99.032639
 11
302.375366
 21
-99.032639
  0
LINE
  8
0
 10
313.375366
 20
-94.032639
 11
316.875366
 21
-94.032639
  0
LINE
  8
0
 10
313.375366
 20
-118.032639
 11
316.875366
 21
-118.032639
  0
LINE
  8
0
 62
     2
 10
298.875366
 20
-100.432640
 11
302.375366
 21
-100.432640
  0
LINE
  8
0
 62
     2
 10
298.875366
 20
-111.632637
 11
302.375366
 21
-111.632637
  0
LINE
  8
0
  6
CENTER
 62
     2
 10
125.875366
 20
-66.125320
 11
125.875366
 21
-146.503174
  0
LINE
  8
0
  6
CENTER
 62
     2
 10
48.375366
 20
-106.032639
 11
75.375366
 21
-106.032639
  0
LINE
  8
0
 10
72.875366
 20
-99.681793
 11
72.875366
 21
-112.383499
  0
LINE
  8
0
 10
50.875366
 20
-99.681793
 11
50.875366
 21
-112.383499
  0
LINE
  8
0
 10
50.875523
 20
-99.681938
 11
61.875523
 21
-93.331116
  0
LINE
  8
0
 10
61.875492
 20
-118.734642
 11
72.875526
 21
-112.383759
  0
LINE
  8
0
 10
61.875443
 20
-93.330772
 11
72.875366
 21
-99.681602
  0
LINE
  8
0
 10
50.875439
 20
-112.383469
 11
61.875404
 21
-118.734291
  0
LINE
  8
0
  6
CENTER
 62
     2
 10
61.875366
 20
-91.032639
 11
61.875366
 21
-119.972305
  0
LINE
  8
0
  6
CENTER
 62
     2
 10
177.625366
 20
-106.032639
 11
203.875366
 21
-106.032639
  0
LINE
  8
0
  6
CENTER
 62
     2
 10
189.875366
 20
-90.282639
 11
189.875366
 21
-119.972305
  0
LINE
  8
0
 10
200.875366
 20
-99.681793
 11
200.875366
 21
-112.383499
  0
LINE
  8
0
 10
178.875366
 20
-99.681793
 11
178.875366
 21
-112.383499
  0
LINE
  8
0
 10
178.875412
 20
-99.681847
 11
189.875443
 21
-93.331009
  0
LINE
  8
0
 10
189.875351
 20
-118.734329
 11
200.875397
 21
-112.383446
  0
LINE
  8
0
 10
189.875397
 20
-93.330872
 11
200.875320
 21
-99.681702
  0
LINE
  8
0
 10
178.875412
 20
-112.383476
 11
189.875412
 21
-118.734306
  0
LINE
  8
0
 62
     4
 10
45.875366
 20
-80.032639
 11
45.875366
 21
-142.032639
  0
LINE
  8
0
 62
     4
 10
205.875366
 20
-80.032639
 11
205.875366
 21
-142.032639
  0
LINE
  8
0
 62
     4
 10
45.875366
 20
-80.032639
 11
101.771423
 21
-80.032639
  0
LINE
  8
0
 62
     4
 10
45.875366
 20
-142.032639
 11
205.875366
 21
-142.032639
  0
LINE
  8
0
 62
     4
 10
45.875366
 20
-133.032639
 11
205.875366
 21
-133.032639
  0
LINE
  8
0
 62
     4
 10
149.979309
 20
-80.032639
 11
205.875366
 21
-80.032639
  0
LINE
  8
0
  6
CENTER
 62
     1
 10
69.875366
 20
-129.790817
 11
69.875366
 21
-146.085358
  0
LINE
  8
0
  6
CENTER
 62
     1
 10
181.875366
 20
-130.417526
 11
181.875366
 21
-146.503174
  0
LINE
  8
0
  6
DASHED
 62
     1
 10
79.375366
 20
-133.032639
 11
79.375366
 21
-142.032639
  0
LINE
  8
0
  6
DASHED
 62
     1
 10
60.375366
 20
-133.032639
 11
60.375366
 21
-142.032639
  0
LINE
  8
0
  6
DASHED
 62
     1
 10
172.375366
 20
-133.032639
 11
172.375366
 21
-142.032639
  0
LINE
  8
0
  6
DASHED
 62
     1
 10
191.375366
 20
-133.032639
 11
191.375366
 21
-142.032639
  0
LINE
  8
0
  6
CENTER
 62
     2
 10
292.375366
 20
3.314545
 11
332.630280
 21
3.314545
  0
LINE
  8
0
 10
298.875366
 20
-3.685455
 11
302.375366
 21
-3.685455
  0
LINE
  8
0
 10
297.875366
 20
9.314612
 11
298.875366
 21
10.314613
  0
LINE
  8
0
 10
297.875336
 20
-2.685505
 11
298.875336
 21
-3.685506
  0
LINE
  8
0
 10
313.375366
 20
15.314545
 11
313.375366
 21
-8.685455
  0
LINE
  8
0
 10
297.875366
 20
9.314545
 11
297.875366
 21
-2.685455
  0
LINE
  8
0
 10
298.875366
 20
10.314545
 11
298.875366
 21
-3.685455
  0
LINE
  8
0
 10
298.875366
 20
10.314545
 11
302.375366
 21
10.314545
  0
LINE
  8
0
 10
313.375366
 20
15.314545
 11
316.875366
 21
15.314545
  0
LINE
  8
0
 10
313.375366
 20
-8.685455
 11
316.875366
 21
-8.685455
  0
LINE
  8
0
 62
     2
 10
297.875366
 20
8.914551
 11
302.375366
 21
8.914551
  0
LINE
  8
0
 62
     2
 10
297.875366
 20
-2.285461
 11
302.375366
 21
-2.285461
  0
LINE
  8
0
 10
313.392883
 20
-7.685455
 11
302.375366
 21
-7.685455
  0
LINE
  8
0
 10
313.375366
 20
3.314545
 11
303.357849
 21
3.314545
  0
LINE
  8
0
 10
313.375366
 20
14.314545
 11
302.375366
 21
14.314545
  0
LINE
  8
0
 10
302.375366
 20
-7.685455
 11
302.375366
 21
14.314545
  0
LINE
  8
0
 62
     4
 10
250.875366
 20
147.314529
 11
250.875366
 21
-12.685455
  0
LINE
  8
0
 62
     4
 10
325.875366
 20
147.314529
 11
325.875366
 21
-12.685455
  0
LINE
  8
0
 62
     4
 10
316.875366
 20
147.314529
 11
316.875366
 21
-12.685455
  0
LINE
  8
0
 62
     4
 10
250.875366
 20
-12.685455
 11
325.875366
 21
-12.685455
  0
LINE
  8
0
 62
     4
 10
250.875366
 20
147.314529
 11
325.875366
 21
147.314529
  0
LINE
  8
0
  6
CENTER
 62
     2
 10
238.375366
 20
67.314529
 11
338.375366
 21
67.314529
  0
LINE
  8
0
 62
     4
 10
325.875366
 20
43.210571
 11
316.875366
 21
43.210571
  0
LINE
  8
0
 62
     4
 10
325.875366
 20
91.418457
 11
316.875366
 21
91.418457
  0
LINE
  8
0
  6
CENTER
 62
     1
 10
265.875366
 20
11.314529
 11
295.875366
 21
11.314529
  0
LINE
  8
0
  6
CENTER
 62
     1
 10
280.875366
 20
26.314529
 11
280.875366
 21
-3.685471
  0
LINE
  8
0
  6
CENTER
 62
     2
 10
292.375366
 20
131.314514
 11
332.630280
 21
131.314514
  0
LINE
  8
0
 10
298.875366
 20
138.314514
 11
302.375366
 21
138.314514
  0
LINE
  8
0
 10
297.875366
 20
125.314499
 11
298.875366
 21
124.314499
  0
LINE
  8
0
 10
297.875366
 20
137.314545
 11
298.875336
 21
138.314529
  0
LINE
  8
0
 10
313.375366
 20
119.314514
 11
313.375366
 21
143.314514
  0
LINE
  8
0
 10
297.875366
 20
125.314514
 11
297.875366
 21
137.314514
  0
LINE
  8
0
 10
298.875366
 20
124.314514
 11
298.875366
 21
138.314514
  0
LINE
  8
0
 10
298.875366
 20
124.314514
 11
302.375366
 21
124.314514
  0
LINE
  8
0
 10
313.375366
 20
119.314514
 11
316.875366
 21
119.314514
  0
LINE
  8
0
 10
313.375366
 20
143.314514
 11
316.875366
 21
143.314514
  0
LINE
  8
0
 62
     2
 10
297.875366
 20
125.714508
 11
302.375366
 21
125.714508
  0
LINE
  8
0
 62
     2
 10
297.875366
 20
136.914520
 11
302.375366
 21
136.914520
  0
LINE
  8
0
 10
313.392883
 20
142.314514
 11
302.375366
 21
142.314514
  0
LINE
  8
0
 10
313.375366
 20
131.314514
 11
303.357849
 21
131.314514
  0
LINE
  8
0
 10
313.375366
 20
120.314514
 11
302.375366
 21
120.314514
  0
LINE
  8
0
 10
302.375366
 20
142.314514
 11
302.375366
 21
120.314514
  0
LINE
  8
0
  6
CENTER
 62
     1
 10
265.875366
 20
123.314529
 11
295.875366
 21
123.314529
  0
LINE
  8
0
  6
CENTER
 62
     1
 10
280.875366
 20
108.314529
 11
280.875366
 21
138.314529
  0
ARC
  8
0
 62
     4
 10
-91.500000
 20
-125.532639
 40
8.500000
 50
269.999939
 51
0.000000
  0
ARC
  8
0
 62
     4
 10
-134.000000
 20
-140.032639
 40
6.000000
 50
90.000000
 51
180.000000
  0
CIRCLE
  8
0
 10
-319.500000
 20
-114.532639
 40
7.000000
  0
CIRCLE
  8
0
 10
-319.500000
 20
-114.532639
 40
10.500000
  0
CIRCLE
  8
0
 10
-204.500000
 20
-114.532639
 40
7.000000
  0
CIRCLE
  8
0
 10
-204.500000
 20
-114.532639
 40
10.500000
  0
CIRCLE
  8
0
 62
     2
 10
-204.500000
 20
-114.532639
 40
5.600000
  0
CIRCLE
  8
0
 62
     2
 10
-319.500000
 20
-114.532639
 40
5.600000
  0
ARC
  8
0
 62
     4
 10
-262.000000
 20
-57.032639
 40
44.999992
 50
231.057556
 51
308.942444
  0
CIRCLE
  8
0
 62
     4
 10
-120.000000
 20
17.314529
 40
9.500000
  0
ARC
  8
0
 10
-81.614052
 20
130.314529
 40
15.885946
 50
159.743835
 51
200.256104
  0
CIRCLE
  8
0
 62
     4
 10
-120.000000
 20
117.314529
 40
9.500000
  0
ARC
  8
0
 10
-81.614052
 20
119.314529
 40
15.885946
 50
159.743835
 51
200.256104
  0
ARC
  8
0
 10
-81.614052
 20
15.314529
 40
15.885947
 50
159.743820
 51
200.256073
  0
ARC
  8
0
 10
-81.614052
 20
4.314529
 40
15.885947
 50
159.743820
 51
200.256073
  0
ARC
  8
0
 62
     4
 10
256.875366
 20
-139.032639
 40
6.000000
 50
90.000000
 51
180.000000
  0
ARC
  8
0
 62
     4
 10
308.375366
 20
-124.532639
 40
8.500000
 50
270.000000
 51
0.000000
  0
ARC
  8
0
 62
     4
 10
125.875366
 20
-42.032639
 40
45.000004
 50
237.612442
 51
302.387543
  0
CIRCLE
  8
0
 10
61.875366
 20
-106.032639
 40
7.000000
  0
CIRCLE
  8
0
 10
61.875366
 20
-106.032639
 40
10.500000
  0
CIRCLE
  8
0
 10
189.875366
 20
-106.032639
 40
7.000000
  0
CIRCLE
  8
0
 10
189.875366
 20
-106.032639
 40
10.500000
  0
CIRCLE
  8
0
 62
     2
 10
189.875366
 20
-106.032639
 40
5.600000
  0
CIRCLE
  8
0
 62
     2
 10
61.875366
 20
-106.032639
 40
5.600000
  0
ARC
  8
0
 10
318.261322
 20
8.814545
 40
15.885954
 50
159.743835
 51
200.256088
  0
ARC
  8
0
 10
318.261322
 20
-2.185455
 40
15.885955
 50
159.743835
 51
200.256088
  0
CIRCLE
  8
0
 62
     4
 10
280.875366
 20
11.314529
 40
9.500000
  0
ARC
  8
0
 10
318.261322
 20
125.814514
 40
15.885953
 50
159.743851
 51
200.256104
  0
ARC
  8
0
 10
318.261322
 20
136.814514
 40
15.885953
 50
159.743851
 51
200.256104
  0
CIRCLE
  8
0
 62
     4
 10
280.875366
 20
123.314529
 40
9.500000
  0
POLYLINE
  8
0
 66
     1
  0
VERTEX
  8
0
 10
-96.517517
 20
-108.181793
  0
VERTEX
  8
0
 10
-96.771301
 20
-109.064995
  0
VERTEX
  8
0
 10
-96.989189
 20
-109.959305
  0
VERTEX
  8
0
 10
-97.170029
 20
-110.862869
  0
VERTEX
  8
0
 10
-97.312675
 20
-111.773834
  0
VERTEX
  8
0
 10
-97.415977
 20
-112.690353
  0
VERTEX
  8
0
 10
-97.478806
 20
-113.610565
  0
VERTEX
  8
0
 10
-97.500000
 20
-114.532639
  0
VERTEX
  8
0
 10
-97.478806
 20
-115.454712
  0
VERTEX
  8
0
 10
-97.415977
 20
-116.374931
  0
VERTEX
  8
0
 10
-97.312675
 20
-117.291451
  0
VERTEX
  8
0
 10
-97.170029
 20
-118.202415
  0
VERTEX
  8
0
 10
-96.989189
 20
-119.105980
  0
VERTEX
  8
0
 10
-96.771301
 20
-120.000290
  0
VERTEX
  8
0
 10
-96.517517
 20
-120.883499
  0
SEQEND
  0
POLYLINE
  8
0
 66
     1
  0
VERTEX
  8
0
 10
-96.517517
 20
-120.883499
  0
VERTEX
  8
0
 10
-96.916992
 20
-121.620117
  0
VERTEX
  8
0
 10
-97.227394
 20
-122.405792
  0
VERTEX
  8
0
 10
-97.428474
 20
-123.224174
  0
VERTEX
  8
0
 10
-97.500000
 20
-124.058914
  0
VERTEX
  8
0
 10
-97.428474
 20
-124.893654
  0
VERTEX
  8
0
 10
-97.227394
 20
-125.712044
  0
VERTEX
  8
0
 10
-96.916992
 20
-126.497726
  0
VERTEX
  8
0
 10
-96.517517
 20
-127.234344
  0
SEQEND
  0
POLYLINE
  8
0
 66
     1
  0
VERTEX
  8
0
 10
-96.517517
 20
-101.830933
  0
VERTEX
  8
0
 10
-96.916992
 20
-102.567551
  0
VERTEX
  8
0
 10
-97.227394
 20
-103.353233
  0
VERTEX
  8
0
 10
-97.428474
 20
-104.171623
  0
VERTEX
  8
0
 10
-97.500000
 20
-105.006363
  0
VERTEX
  8
0
 10
-97.428474
 20
-105.841103
  0
VERTEX
  8
0
 10
-97.227394
 20
-106.659492
  0
VERTEX
  8
0
 10
-96.916992
 20
-107.445175
  0
VERTEX
  8
0
 10
-96.517517
 20
-108.181793
  0
SEQEND
  0
POLYLINE
  8
0
 66
     1
  0
VERTEX
  8
0
 10
303.357849
 20
-93.330933
  0
VERTEX
  8
0
 10
302.958374
 20
-94.067551
  0
VERTEX
  8
0
 10
302.647980
 20
-94.853233
  0
VERTEX
  8
0
 10
302.446899
 20
-95.671623
  0
VERTEX
  8
0
 10
302.375366
 20
-96.506363
  0
VERTEX
  8
0
 10
302.446899
 20
-97.341103
  0
VERTEX
  8
0
 10
302.647980
 20
-98.159492
  0
VERTEX
  8
0
 10
302.958374
 20
-98.945175
  0
VERTEX
  8
0
 10
303.357849
 20
-99.681793
  0
SEQEND
  0
POLYLINE
  8
0
 66
     1
  0
VERTEX
  8
0
 10
303.357849
 20
-112.383499
  0
VERTEX
  8
0
 10
302.958374
 20
-113.120117
  0
VERTEX
  8
0
 10
302.647980
 20
-113.905792
  0
VERTEX
  8
0
 10
302.446899
 20
-114.724182
  0
VERTEX
  8
0
 10
302.375366
 20
-115.558922
  0
VERTEX
  8
0
 10
302.446899
 20
-116.393661
  0
VERTEX
  8
0
 10
302.647980
 20
-117.212051
  0
VERTEX
  8
0
 10
302.958374
 20
-117.997726
  0
VERTEX
  8
0
 10
303.357849
 20
-118.734344
  0
SEQEND
  0
POLYLINE
  8
0
 66
     1
  0
VERTEX
  8
0
 10
303.357849
 20
-99.681793
  0
VERTEX
  8
0
 10
303.104065
 20
-100.564995
  0
VERTEX
  8
0
 10
302.886169
 20
-101.459305
  0
VERTEX
  8
0
 10
302.705353
 20
-102.362869
  0
VERTEX
  8
0
 10
302.562683
 20
-103.273834
  0
VERTEX
  8
0
 10
302.459381
 20
-104.190353
  0
VERTEX
  8
0
 10
302.396576
 20
-105.110565
  0
VERTEX
  8
0
 10
302.375366
 20
-106.032639
  0
VERTEX
  8
0
 10
302.396576
 20
-106.954712
  0
VERTEX
  8
0
 10
302.459381
 20
-107.874931
  0
VERTEX
  8
0
 10
302.562683
 20
-108.791451
  0
VERTEX
  8
0
 10
302.705353
 20
-109.702415
  0
VERTEX
  8
0
 10
302.886169
 20
-110.605980
  0
VERTEX
  8
0
 10
303.104065
 20
-111.500290
  0
VERTEX
  8
0
 10
303.357849
 20
-112.383499
  0
SEQEND
  0
TEXT
  8
0
 10
-369.785309
 20
256.649994
 40
9.000000
  1
SD FOOT ,-1
 50
0.000000
 41
1.052632
 51
0.000000
  7
STANDARD
  0
TEXT
  8
0
 10
242.014816
 20
-274.500000
 40
12.500000
  1
KOGANEI CORP.
 50
0.000000
 41
1.052632
 51
0.000000
  7
STANDARD
  0
TEXT
  8
0
 10
251.264664
 20
256.649994
 40
9.000000
  1
DATE: AUG ,1993
 50
0.000000
 41
1.052632
 51
0.000000
  7
STANDARD
  0
TEXT
  8
0
 10
14.739680
 20
224.149994
 40
9.000000
  1
BORE:140
 50
0.000000
 41
1.052632
 51
0.000000
  7
STANDARD
  0
TEXT
  8
0
 10
-384.785309
 20
224.149994
 40
9.000000
  1
BORE:125
 50
0.000000
 41
1.052632
 51
0.000000
  7
STANDARD
  0
ENDSEC
  0
EOF
