  0
SECTION
  2
HEADER
  0
ENDSEC
  0
SECTION
  2
TABLES
  0
TABLE
  2
LTYPE
 70
     4
  0
LTYPE
  2
CONTINUOUS
 70
    64
  3
Solid line
 72
    65
 73
     0
 40
0.000000
  0
LTYPE
  2
DASHED
 70
    64
  3
__ __ __ __ __ __ __ __ __ __ __ __ __ __ __
 72
    65
 73
     2
 40
3.500000
 49
2.000000
 49
-1.500000
  0
LTYPE
  2
CENTER
 70
    64
  3
____ _ ____ _ ____ _ ____ _ ____ _ ____ _ ____
 72
    65
 73
     4
 40
17.500000
 49
13.000000
 49
-1.500000
 49
1.500000
 49
-1.500000
  0
LTYPE
  2
PHANTOM
 70
    64
  3
_____ _ _ _____ _ _ _____ _ _ _____ _ _ ____  
 72
    65
 73
     6
 40
15.500000
 49
8.000000
 49
-1.500000
 49
1.500000
 49
-1.500000
 49
1.500000
 49
-1.500000
  0
LTYPE
  2
DASHED1
 70
    64
  3
__ __ __ __ __ __ __ __ __ __ __ __ __ __ __
 72
    65
 73
     2
 40
1.500000
 49
1.000000
 49
-0.500000
  0
LTYPE
  2
DASHED2
 70
    64
  3
__ __ __ __ __ __ __ __ __ __ __ __ __ __ __
 72
    65
 73
     2
 40
3.500000
 49
2.500000
 49
-1.000000
  0
LTYPE
  2
DASHED3
 70
    64
  3
__ __ __ __ __ __ __ __ __ __ __ __ __ __ __
 72
    65
 73
     2
 40
6.000000
 49
4.000000
 49
-2.000000
  0
LTYPE
  2
DASHED4
 70
    64
  3
__ __ __ __ __ __ __ __ __ __ __ __ __ __ __
 72
    65
 73
     2
 40
12.000000
 49
10.000000
 49
-2.000000
  0
LTYPE
  2
DASHED5
 70
    64
  3
__ __ __ __ __ __ __ __ __ __ __ __ __ __ __
 72
    65
 73
     2
 40
17.000000
 49
15.000000
 49
-2.000000
  0
LTYPE
  2
DASHED6
 70
    64
  3
__ __ __ __ __ __ __ __ __ __ __ __ __ __ __
 72
    65
 73
     2
 40
29.000000
 49
27.000000
 49
-2.000000
  0
LTYPE
  2
PHANTOM1
 70
    64
  3
_____ _ _ _____ _ _ _____ _ _ _____ _ _ ____  
 72
    65
 73
     6
 40
31.000000
 49
25.000000
 49
-1.500000
 49
1.000000
 49
-1.000000
 49
1.000000
 49
-1.500000
  0
LTYPE
  2
PHANTOM2
 70
    64
  3
_____ _ _ _____ _ _ _____ _ _ _____ _ _ ____  
 72
    65
 73
     6
 40
36.000000
 49
27.000000
 49
-1.500000
 49
2.500000
 49
-1.000000
 49
2.500000
 49
-1.500000
  0
LTYPE
  2
PHANTOM3
 70
    64
  3
_____ _ _ _____ _ _ _____ _ _ _____ _ _ ____  
 72
    65
 73
     6
 40
78.000000
 49
64.000000
 49
-2.000000
 49
4.000000
 49
-2.000000
 49
4.000000
 49
-2.000000
  0
LTYPE
  2
CENTER1
 70
    64
  3
____ _ ____ _ ____ _ ____ _ ____ _ ____ _ ____
 72
    65
 73
     4
 40
19.000000
 49
14.000000
 49
-1.000000
 49
3.000000
 49
-1.000000
  0
LTYPE
  2
CENTER2
 70
    64
  3
____ _ ____ _ ____ _ ____ _ ____ _ ____ _ ____
 72
    65
 73
     4
 40
28.500000
 49
25.000000
 49
-1.000000
 49
1.500000
 49
-1.000000
  0
LTYPE
  2
CENTER3
 70
    64
  3
____ _ ____ _ ____ _ ____ _ ____ _ ____ _ ____
 72
    65
 73
     4
 40
31.500000
 49
27.000000
 49
-1.000000
 49
2.500000
 49
-1.000000
  0
LTYPE
  2
CENTER4
 70
    64
  3
____ _ ____ _ ____ _ ____ _ ____ _ ____ _ ____
 72
    65
 73
     4
 40
50.000000
 49
45.000000
 49
-1.000000
 49
3.000000
 49
-1.000000
  0
LTYPE
  2
CENTER5
 70
    64
  3
____ _ ____ _ ____ _ ____ _ ____ _ ____ _ ____
 72
    65
 73
     4
 40
100.000000
 49
92.000000
 49
-2.000000
 49
4.000000
 49
-2.000000
  0
LTYPE
  2
SBK1
 70
    64
  3
______ _ _ _ ______ _ _ _ ______ _ _ _ _____  
 72
    65
 73
     8
 40
60.500000
 49
45.000000
 49
-2.000000
 49
2.500000
 49
-2.000000
 49
2.500000
 49
-2.000000
 49
2.500000
 49
-2.000000
  0
LTYPE
  2
SBK2
 70
    64
  3
______ _ _ _ ______ _ _ _ ______ _ _ _ _____  
 72
    65
 73
     8
 40
84.000000
 49
64.000000
 49
-2.000000
 49
4.000000
 49
-2.000000
 49
4.000000
 49
-2.000000
 49
4.000000
 49
-2.000000
  0
LTYPE
  2
STCH
 70
    64
  3
__ __ __ __ __ __ __ __ __ __ __ __ __ __ __
 72
    65
 73
     2
 40
3.000000
 49
1.000000
 49
-2.000000
  0
LTYPE
  2
MTCH
 70
    64
  3
_____ _ _ _____ _ _ _____ _ _ _____ _ _ ____  
 72
    65
 73
     6
 40
80.000000
 49
66.000000
 49
-2.000000
 49
4.000000
 49
-2.000000
 49
4.000000
 49
-2.000000
  0
ENDTAB
  0
TABLE
  2
LAYER
 70
     1
  0
LAYER
  2
0
 70
     0
 62
     7
  6
CONTINUOUS
  0
ENDTAB
  0
TABLE
  2
STYLE
 70
     1
  0
STYLE
  2
STANDARD
 70
     0
 40
0.000000
 41
1.000000
 50
0.000000
 71
     0
 42
0.200000
  3
txt
  4
BIGFONT
  0
ENDTAB
  0
TABLE
  2
VIEW
 70
     0
  0
ENDTAB
  0
ENDSEC
  0
SECTION
  2
BLOCKS
  0
ENDSEC
  0
SECTION
  2
ENTITIES
  0
LINE
  8
0
 10
399.799988
 20
276.250000
 11
399.799988
 21
-276.750000
  0
LINE
  8
0
 10
-399.250000
 20
276.250000
 11
-399.250000
 21
-276.750000
  0
LINE
  8
0
 10
-399.250000
 20
276.250000
 11
399.799988
 21
276.250000
  0
LINE
  8
0
 10
-399.250000
 20
-276.750000
 11
399.799988
 21
-276.750000
  0
LINE
  8
0
 10
239.799988
 20
-251.750000
 11
399.799988
 21
-251.750000
  0
LINE
  8
0
 10
239.799988
 20
251.250000
 11
399.799988
 21
251.250000
  0
LINE
  8
0
 10
-399.250000
 20
251.250000
 11
-239.250000
 21
251.250000
  0
LINE
  8
0
 10
239.799988
 20
-251.750000
 11
239.799988
 21
-276.750000
  0
LINE
  8
0
 10
239.799988
 20
251.250000
 11
239.799988
 21
276.250000
  0
LINE
  8
0
 10
-239.250000
 20
276.250000
 11
-239.250000
 21
251.250000
  0
LINE
  8
0
 10
0.274994
 20
-276.750000
 11
0.274994
 21
276.250000
  0
LINE
  8
0
 62
     4
 10
-72.952522
 20
-115.154297
 11
-72.952522
 21
-176.154297
  0
LINE
  8
0
 62
     4
 10
-72.952522
 20
-115.154297
 11
-81.952522
 21
-115.154297
  0
LINE
  8
0
 62
     4
 10
-81.952522
 20
-115.154297
 11
-81.952522
 21
-158.654297
  0
LINE
  8
0
 62
     4
 10
-90.452522
 20
-167.154297
 11
-141.952515
 21
-167.154297
  0
LINE
  8
0
  6
CENTER
 62
     1
 10
-122.952522
 20
-162.277344
 11
-122.952522
 21
-180.906006
  0
LINE
  8
0
  6
DASHED
 62
     1
 10
-113.452522
 20
-167.154297
 11
-113.452522
 21
-176.154297
  0
LINE
  8
0
  6
DASHED
 62
     1
 10
-132.452515
 20
-167.154297
 11
-132.452515
 21
-176.154297
  0
LINE
  8
0
 62
     4
 10
-147.952515
 20
-173.154297
 11
-147.952515
 21
-176.154297
  0
LINE
  8
0
 62
     4
 10
-72.952522
 20
-176.154297
 11
-147.952515
 21
-176.154297
  0
LINE
  8
0
  6
CENTER
 62
     2
 10
-111.828171
 20
-142.154297
 11
-63.143600
 21
-142.154297
  0
LINE
  8
0
 10
-85.952522
 20
-155.654160
 11
-81.952522
 21
-155.654160
  0
LINE
  8
0
 10
-85.952522
 20
-128.654160
 11
-81.952522
 21
-128.654160
  0
LINE
  8
0
 10
-85.952614
 20
-128.304291
 11
-85.952614
 21
-156.004303
  0
LINE
  8
0
 10
-98.952614
 20
-130.654297
 11
-98.952614
 21
-153.654297
  0
LINE
  8
0
 10
-97.595741
 20
-156.004150
 11
-85.952522
 21
-156.004150
  0
LINE
  8
0
 10
-97.595741
 20
-128.304153
 11
-85.952522
 21
-128.304153
  0
LINE
  8
0
 10
-97.595741
 20
-135.229156
 11
-85.952522
 21
-135.229156
  0
LINE
  8
0
 10
-97.595741
 20
-149.079163
 11
-85.952522
 21
-149.079163
  0
LINE
  8
0
 10
-98.952576
 20
-130.654251
 11
-97.595795
 21
-128.304245
  0
LINE
  8
0
 10
-98.952538
 20
-153.654343
 11
-97.595764
 21
-156.004349
  0
LINE
  8
0
 10
-102.452522
 20
-150.154160
 11
-98.952522
 21
-150.154160
  0
LINE
  8
0
 10
-102.452522
 20
-134.154160
 11
-98.952522
 21
-134.154160
  0
LINE
  8
0
 10
-103.452614
 20
-135.154297
 11
-103.452614
 21
-149.154297
  0
LINE
  8
0
 10
-102.452438
 20
-134.154297
 11
-103.452446
 21
-135.154297
  0
LINE
  8
0
 10
-103.452469
 20
-149.154221
 11
-102.452477
 21
-150.154236
  0
LINE
  8
0
 10
-102.452644
 20
-134.154297
 11
-102.452644
 21
-150.154297
  0
LINE
  8
0
 62
     2
 10
-103.452614
 20
-135.554169
 11
-98.952522
 21
-135.554169
  0
LINE
  8
0
 62
     2
 10
-103.452614
 20
-148.754166
 11
-98.952522
 21
-148.754166
  0
LINE
  8
0
  6
CENTER
 62
     2
 10
-286.952515
 20
-111.008865
 11
-286.952515
 21
-181.660065
  0
LINE
  8
0
  6
CENTER
 62
     2
 10
-358.952515
 20
-127.367630
 11
-358.952515
 21
-157.180969
  0
LINE
  8
0
  6
CENTER
 62
     2
 10
-373.407990
 20
-142.154297
 11
-345.521942
 21
-142.154297
  0
LINE
  8
0
 10
-370.952515
 20
-135.226089
 11
-370.952515
 21
-149.082489
  0
LINE
  8
0
 10
-346.952515
 20
-135.226089
 11
-346.952515
 21
-149.082489
  0
LINE
  8
0
 10
-346.952637
 20
-149.082397
 11
-358.952606
 21
-156.010605
  0
LINE
  8
0
 10
-358.952576
 20
-128.297791
 11
-370.952576
 21
-135.225998
  0
LINE
  8
0
 10
-370.952484
 20
-149.082458
 11
-358.952515
 21
-156.010651
  0
LINE
  8
0
 10
-358.952515
 20
-128.297760
 11
-346.952515
 21
-135.225967
  0
LINE
  8
0
 10
-226.952438
 20
-149.082382
 11
-214.952454
 21
-156.010574
  0
LINE
  8
0
 10
-214.952499
 20
-128.297852
 11
-202.952484
 21
-135.226059
  0
LINE
  8
0
  6
CENTER
 62
     2
 10
-214.952515
 20
-127.367630
 11
-214.952515
 21
-157.180969
  0
LINE
  8
0
  6
CENTER
 62
     2
 10
-229.407990
 20
-142.154297
 11
-201.521942
 21
-142.154297
  0
LINE
  8
0
 10
-226.952515
 20
-135.226089
 11
-226.952515
 21
-149.082489
  0
LINE
  8
0
 10
-202.952515
 20
-135.226089
 11
-202.952515
 21
-149.082489
  0
LINE
  8
0
 10
-202.952530
 20
-149.082489
 11
-214.952545
 21
-156.010712
  0
LINE
  8
0
 10
-214.952560
 20
-128.297852
 11
-226.952576
 21
-135.226074
  0
LINE
  8
0
 62
     4
 10
-377.952515
 20
-115.154297
 11
-195.952515
 21
-115.154297
  0
LINE
  8
0
 62
     4
 10
-377.952515
 20
-176.154297
 11
-195.952515
 21
-176.154297
  0
LINE
  8
0
 62
     4
 10
-377.952515
 20
-167.154297
 11
-195.952515
 21
-167.154297
  0
LINE
  8
0
  6
CENTER
 62
     1
 10
-345.952515
 20
-163.959198
 11
-345.952515
 21
-178.963562
  0
LINE
  8
0
  6
CENTER
 62
     1
 10
-227.952515
 20
-163.287369
 11
-227.952515
 21
-179.411438
  0
LINE
  8
0
  6
DASHED
 62
     1
 10
-355.452515
 20
-167.154297
 11
-355.452515
 21
-176.154297
  0
LINE
  8
0
  6
DASHED
 62
     1
 10
-336.452515
 20
-167.154297
 11
-336.452515
 21
-176.154297
  0
LINE
  8
0
  6
DASHED
 62
     1
 10
-218.452515
 20
-167.154297
 11
-218.452515
 21
-176.154297
  0
LINE
  8
0
  6
DASHED
 62
     1
 10
-237.452515
 20
-167.154297
 11
-237.452515
 21
-176.154297
  0
LINE
  8
0
 62
     4
 10
-377.952515
 20
-115.154297
 11
-377.952515
 21
-176.154297
  0
LINE
  8
0
 62
     4
 10
-195.952515
 20
-115.154297
 11
-195.952515
 21
-176.154297
  0
LINE
  8
0
  6
CENTER
 62
     2
 10
-110.097206
 20
-15.535370
 11
-63.143600
 21
-15.535370
  0
LINE
  8
0
 10
-85.952614
 20
-29.035233
 11
-81.952522
 21
-29.035233
  0
LINE
  8
0
 10
-85.952614
 20
-2.035233
 11
-81.952522
 21
-2.035233
  0
LINE
  8
0
 10
-85.952614
 20
-2.035233
 11
-85.952614
 21
-29.035233
  0
LINE
  8
0
 10
-98.952614
 20
-3.535370
 11
-98.952614
 21
-27.535370
  0
LINE
  8
0
 10
-102.452522
 20
-23.535233
 11
-98.952522
 21
-23.535233
  0
LINE
  8
0
 10
-102.452522
 20
-7.535233
 11
-98.952522
 21
-7.535233
  0
LINE
  8
0
 10
-103.452614
 20
-8.535370
 11
-103.452614
 21
-22.535370
  0
LINE
  8
0
 10
-102.452423
 20
-7.535417
 11
-103.452423
 21
-8.535418
  0
LINE
  8
0
 10
-103.452477
 20
-22.535311
 11
-102.452477
 21
-23.535315
  0
LINE
  8
0
 10
-102.452644
 20
-7.535370
 11
-102.452644
 21
-23.535370
  0
LINE
  8
0
 62
     2
 10
-103.452614
 20
-8.935242
 11
-98.952522
 21
-8.935242
  0
LINE
  8
0
 62
     2
 10
-103.452614
 20
-22.135239
 11
-98.952522
 21
-22.135239
  0
LINE
  8
0
 62
     4
 10
-72.952522
 20
147.464630
 11
-72.952522
 21
-34.535370
  0
LINE
  8
0
 62
     4
 10
-81.952522
 20
147.464630
 11
-81.952522
 21
-34.535370
  0
LINE
  8
0
 62
     4
 10
-147.952515
 20
147.464630
 11
-147.952515
 21
-34.535370
  0
LINE
  8
0
 62
     4
 10
-147.952515
 20
-34.535370
 11
-72.952522
 21
-34.535370
  0
LINE
  8
0
 62
     4
 10
-147.952515
 20
147.464630
 11
-72.952522
 21
147.464630
  0
LINE
  8
0
  6
CENTER
 62
     1
 10
-137.952515
 20
-2.535370
 11
-107.952522
 21
-2.535370
  0
LINE
  8
0
  6
CENTER
 62
     1
 10
-122.952522
 20
12.464630
 11
-122.952522
 21
-17.535370
  0
LINE
  8
0
  6
CENTER
 62
     2
 10
-160.452515
 20
56.464630
 11
-60.452522
 21
56.464630
  0
LINE
  8
0
 10
-98.952614
 20
-3.535370
 11
-85.952614
 21
-3.535370
  0
LINE
  8
0
 10
-98.952614
 20
-27.535370
 11
-85.952614
 21
-27.535370
  0
LINE
  8
0
 10
-85.952614
 20
-15.535370
 11
-97.595741
 21
-15.535370
  0
LINE
  8
0
  6
CENTER
 62
     2
 10
-110.097206
 20
128.464630
 11
-63.143600
 21
128.464630
  0
LINE
  8
0
 10
-85.952614
 20
141.964493
 11
-81.952522
 21
141.964493
  0
LINE
  8
0
 10
-85.952614
 20
114.964493
 11
-81.952522
 21
114.964493
  0
LINE
  8
0
 10
-85.952614
 20
114.964493
 11
-85.952614
 21
141.964493
  0
LINE
  8
0
 10
-98.952614
 20
116.464630
 11
-98.952614
 21
140.464630
  0
LINE
  8
0
 10
-102.452522
 20
136.464493
 11
-98.952522
 21
136.464493
  0
LINE
  8
0
 10
-102.452522
 20
120.464493
 11
-98.952522
 21
120.464493
  0
LINE
  8
0
 10
-103.452614
 20
121.464630
 11
-103.452614
 21
135.464630
  0
LINE
  8
0
 10
-102.452415
 20
120.464653
 11
-103.452415
 21
121.464653
  0
LINE
  8
0
 10
-103.452454
 20
135.464554
 11
-102.452454
 21
136.464554
  0
LINE
  8
0
 10
-102.452644
 20
120.464630
 11
-102.452644
 21
136.464630
  0
LINE
  8
0
 62
     2
 10
-103.452614
 20
121.864502
 11
-98.952522
 21
121.864502
  0
LINE
  8
0
 62
     2
 10
-103.452614
 20
135.064499
 11
-98.952522
 21
135.064499
  0
LINE
  8
0
  6
CENTER
 62
     1
 10
-137.952515
 20
115.464630
 11
-107.952522
 21
115.464630
  0
LINE
  8
0
  6
CENTER
 62
     1
 10
-122.952522
 20
100.464630
 11
-122.952522
 21
130.464630
  0
LINE
  8
0
 10
-98.952614
 20
116.464630
 11
-85.952614
 21
116.464630
  0
LINE
  8
0
 10
-98.952614
 20
140.464630
 11
-85.952614
 21
140.464630
  0
LINE
  8
0
 10
-85.952614
 20
128.464630
 11
-97.595741
 21
128.464630
  0
LINE
  8
0
 62
     4
 10
324.801178
 20
-108.654297
 11
314.801178
 21
-108.654297
  0
LINE
  8
0
 62
     4
 10
324.801178
 20
-176.154297
 11
234.801178
 21
-176.154297
  0
LINE
  8
0
  6
CENTER
 62
     1
 10
264.801178
 20
-161.525360
 11
264.801178
 21
-180.192032
  0
LINE
  8
0
 62
     4
 10
234.801178
 20
-173.154297
 11
234.801178
 21
-176.154297
  0
LINE
  8
0
  6
DASHED
 62
     1
 10
276.801178
 20
-166.154297
 11
276.801178
 21
-176.154297
  0
LINE
  8
0
  6
DASHED
 62
     1
 10
252.801178
 20
-166.154297
 11
252.801178
 21
-176.154297
  0
LINE
  8
0
 10
296.556488
 20
-116.569595
 11
310.201172
 21
-116.569595
  0
LINE
  8
0
 10
296.623291
 20
-147.746521
 11
310.201172
 21
-147.746521
  0
LINE
  8
0
 10
310.201172
 20
-147.154297
 11
314.801178
 21
-147.154297
  0
LINE
  8
0
 10
310.201172
 20
-117.154297
 11
314.801178
 21
-117.154297
  0
LINE
  8
0
 10
310.201172
 20
-116.569595
 11
310.201172
 21
-147.746521
  0
LINE
  8
0
 10
295.201172
 20
-118.917084
 11
295.201172
 21
-145.283203
  0
LINE
  8
0
 10
296.573181
 20
-124.363831
 11
310.201172
 21
-124.363831
  0
LINE
  8
0
 10
296.606598
 20
-139.952301
 11
310.201172
 21
-139.952301
  0
LINE
  8
0
 10
296.556549
 20
-116.569626
 11
295.201233
 21
-118.917099
  0
LINE
  8
0
 10
295.201233
 20
-145.283295
 11
296.623352
 21
-147.746475
  0
LINE
  8
0
 10
290.801178
 20
-123.154297
 11
295.201172
 21
-123.154297
  0
LINE
  8
0
 10
290.801178
 20
-141.154297
 11
295.201172
 21
-141.154297
  0
LINE
  8
0
 10
289.801178
 20
-124.154297
 11
289.801178
 21
-140.154297
  0
LINE
  8
0
 10
290.801178
 20
-123.154297
 11
289.801178
 21
-124.154297
  0
LINE
  8
0
 10
289.801147
 20
-140.154312
 11
290.801147
 21
-141.154343
  0
LINE
  8
0
 10
290.801147
 20
-123.154297
 11
290.801147
 21
-141.154297
  0
LINE
  8
0
  6
CENTER
 62
     2
 10
283.431732
 20
-132.154297
 11
332.601349
 21
-132.154297
  0
LINE
  8
0
 62
     2
 10
289.801178
 20
-124.454292
 11
295.201172
 21
-124.454292
  0
LINE
  8
0
 62
     2
 10
289.801178
 20
-139.854294
 11
295.201172
 21
-139.854294
  0
LINE
  8
0
 62
     4
 10
304.801178
 20
-166.154297
 11
241.801178
 21
-166.154297
  0
LINE
  8
0
 62
     4
 10
324.801178
 20
-108.654297
 11
324.801178
 21
-176.154297
  0
LINE
  8
0
 62
     4
 10
314.801178
 20
-108.654297
 11
314.801178
 21
-156.154297
  0
LINE
  8
0
  6
CENTER
 62
     2
 10
108.801178
 20
-91.389877
 11
108.801178
 21
-182.618195
  0
LINE
  8
0
  6
CENTER
 62
     2
 10
189.801178
 20
-113.945312
 11
189.801178
 21
-150.682480
  0
LINE
  8
0
  6
CENTER
 62
     2
 10
172.596924
 20
-132.154297
 11
206.508148
 21
-132.154297
  0
LINE
  8
0
 10
203.301178
 20
-124.367569
 11
203.301178
 21
-139.948517
  0
LINE
  8
0
 10
176.301178
 20
-124.360077
 11
176.301178
 21
-139.956024
  0
LINE
  8
0
 10
203.301163
 20
-139.948486
 11
189.794678
 21
-147.746475
  0
LINE
  8
0
 10
189.794601
 20
-116.569443
 11
176.301071
 21
-124.359947
  0
LINE
  8
0
 10
176.301193
 20
-139.956009
 11
189.794708
 21
-147.746490
  0
LINE
  8
0
 10
189.794678
 20
-116.569557
 11
203.301163
 21
-124.367523
  0
LINE
  8
0
  6
CENTER
 62
     2
 10
27.801178
 20
-113.945312
 11
27.801178
 21
-150.682480
  0
LINE
  8
0
  6
CENTER
 62
     2
 10
10.596954
 20
-132.154297
 11
44.508148
 21
-132.154297
  0
LINE
  8
0
 10
41.301178
 20
-124.367569
 11
41.301178
 21
-139.948517
  0
LINE
  8
0
 10
14.301178
 20
-124.360077
 11
14.301178
 21
-139.956024
  0
LINE
  8
0
 10
41.301071
 20
-139.948502
 11
27.794588
 21
-147.746490
  0
LINE
  8
0
 10
27.794531
 20
-116.569504
 11
14.301052
 21
-124.359978
  0
LINE
  8
0
 10
14.301173
 20
-139.955902
 11
27.794712
 21
-147.746399
  0
LINE
  8
0
 10
27.794712
 20
-116.569443
 11
41.301201
 21
-124.367416
  0
LINE
  8
0
 62
     4
 10
6.801178
 20
-166.154297
 11
210.801178
 21
-166.154297
  0
LINE
  8
0
 62
     4
 10
6.801178
 20
-176.154297
 11
210.801178
 21
-176.154297
  0
LINE
  8
0
 62
     4
 10
6.801178
 20
-108.654297
 11
210.801178
 21
-108.654297
  0
LINE
  8
0
  6
CENTER
 62
     1
 10
42.801178
 20
-162.321991
 11
42.801178
 21
-182.618195
  0
LINE
  8
0
  6
CENTER
 62
     1
 10
174.801178
 20
-161.813690
 11
174.801178
 21
-182.618195
  0
LINE
  8
0
  6
DASHED
 62
     1
 10
30.801178
 20
-166.154297
 11
30.801178
 21
-176.154297
  0
LINE
  8
0
  6
DASHED
 62
     1
 10
54.801178
 20
-166.154297
 11
54.801178
 21
-176.154297
  0
LINE
  8
0
  6
DASHED
 62
     1
 10
162.801178
 20
-166.154297
 11
162.801178
 21
-176.154297
  0
LINE
  8
0
  6
DASHED
 62
     1
 10
186.801178
 20
-166.154297
 11
186.801178
 21
-176.154297
  0
LINE
  8
0
 62
     4
 10
6.801178
 20
-108.654297
 11
6.801178
 21
-176.154297
  0
LINE
  8
0
 62
     4
 10
210.801178
 20
-108.654297
 11
210.801178
 21
-176.154297
  0
LINE
  8
0
 10
315.201172
 20
-52.729904
 11
319.801178
 21
-52.729904
  0
LINE
  8
0
 10
315.201172
 20
-22.729904
 11
319.801178
 21
-22.729904
  0
LINE
  8
0
 10
315.201172
 20
-22.729904
 11
315.201172
 21
-52.729904
  0
LINE
  8
0
 10
300.201172
 20
-24.229904
 11
300.201172
 21
-51.229904
  0
LINE
  8
0
 10
295.801178
 20
-28.729904
 11
300.201172
 21
-28.729904
  0
LINE
  8
0
 10
295.801178
 20
-46.729904
 11
300.201172
 21
-46.729904
  0
LINE
  8
0
 10
294.801178
 20
-29.729904
 11
294.801178
 21
-45.729904
  0
LINE
  8
0
 10
295.801208
 20
-28.729914
 11
294.801208
 21
-29.729914
  0
LINE
  8
0
 10
294.801178
 20
-45.729923
 11
295.801178
 21
-46.729927
  0
LINE
  8
0
 10
295.801147
 20
-28.729904
 11
295.801147
 21
-46.729904
  0
LINE
  8
0
  6
CENTER
 62
     2
 10
288.431732
 20
-37.729904
 11
337.601349
 21
-37.729904
  0
LINE
  8
0
 62
     2
 10
294.801178
 20
-30.029907
 11
300.201172
 21
-30.029907
  0
LINE
  8
0
 62
     2
 10
294.801178
 20
-45.429901
 11
300.201172
 21
-45.429901
  0
LINE
  8
0
 62
     4
 10
239.801178
 20
-58.729904
 11
329.801178
 21
-58.729904
  0
LINE
  8
0
 62
     4
 10
239.801178
 20
145.270111
 11
329.801178
 21
145.270111
  0
LINE
  8
0
 62
     4
 10
329.801178
 20
145.270111
 11
329.801178
 21
-58.729904
  0
LINE
  8
0
 62
     4
 10
319.801178
 20
145.270111
 11
319.801178
 21
-58.729904
  0
LINE
  8
0
 62
     4
 10
239.801178
 20
145.270111
 11
239.801178
 21
-58.729904
  0
LINE
  8
0
  6
CENTER
 62
     2
 10
224.801178
 20
43.270111
 11
344.801178
 21
43.270111
  0
LINE
  8
0
  6
CENTER
 62
     1
 10
269.801178
 20
-5.229904
 11
269.801178
 21
-40.229904
  0
LINE
  8
0
  6
CENTER
 62
     1
 10
252.301178
 20
-22.729904
 11
287.301178
 21
-22.729904
  0
LINE
  8
0
 10
300.201172
 20
-51.229904
 11
315.201172
 21
-51.229904
  0
LINE
  8
0
 10
300.201172
 20
-24.229904
 11
315.201172
 21
-24.229904
  0
LINE
  8
0
 10
301.573181
 20
-37.729904
 11
315.201172
 21
-37.729904
  0
LINE
  8
0
 10
315.201172
 20
139.270111
 11
319.801178
 21
139.270111
  0
LINE
  8
0
 10
315.201172
 20
109.270111
 11
319.801178
 21
109.270111
  0
LINE
  8
0
 10
315.201172
 20
109.270111
 11
315.201172
 21
139.270111
  0
LINE
  8
0
 10
300.201172
 20
110.770111
 11
300.201172
 21
137.770111
  0
LINE
  8
0
 10
295.801178
 20
115.270111
 11
300.201172
 21
115.270111
  0
LINE
  8
0
 10
295.801178
 20
133.270111
 11
300.201172
 21
133.270111
  0
LINE
  8
0
 10
294.801178
 20
116.270111
 11
294.801178
 21
132.270111
  0
LINE
  8
0
 10
295.801147
 20
115.270142
 11
294.801147
 21
116.270142
  0
LINE
  8
0
 10
294.801178
 20
132.270172
 11
295.801178
 21
133.270187
  0
LINE
  8
0
 10
295.801147
 20
115.270111
 11
295.801147
 21
133.270111
  0
LINE
  8
0
  6
CENTER
 62
     2
 10
288.431732
 20
124.270111
 11
337.601349
 21
124.270111
  0
LINE
  8
0
 62
     2
 10
294.801178
 20
116.570129
 11
300.201172
 21
116.570129
  0
LINE
  8
0
 62
     2
 10
294.801178
 20
131.970123
 11
300.201172
 21
131.970123
  0
LINE
  8
0
  6
CENTER
 62
     1
 10
269.801178
 20
91.770111
 11
269.801178
 21
126.770111
  0
LINE
  8
0
  6
CENTER
 62
     1
 10
252.301178
 20
109.270111
 11
287.301178
 21
109.270111
  0
LINE
  8
0
 10
300.201172
 20
137.770111
 11
315.201172
 21
137.770111
  0
LINE
  8
0
 10
300.201172
 20
110.770111
 11
315.201172
 21
110.770111
  0
LINE
  8
0
 10
301.573181
 20
124.270111
 11
315.201172
 21
124.270111
  0
ARC
  8
0
 62
     4
 10
-90.452522
 20
-158.654297
 40
8.500000
 50
269.999939
 51
0.000000
  0
ARC
  8
0
 62
     4
 10
-141.952515
 20
-173.154297
 40
6.000000
 50
90.000000
 51
180.000000
  0
ARC
  8
0
 10
-93.855995
 20
-131.766785
 40
5.096536
 50
137.204651
 51
222.795410
  0
ARC
  8
0
 10
-80.601479
 20
-142.154297
 40
18.351048
 50
157.829620
 51
202.170425
  0
ARC
  8
0
 10
-93.855995
 20
-152.541794
 40
5.096536
 50
137.204651
 51
222.795410
  0
CIRCLE
  8
0
 10
-358.952515
 20
-142.154297
 40
8.000000
  0
CIRCLE
  8
0
 10
-214.952515
 20
-142.154297
 40
8.000000
  0
CIRCLE
  8
0
 10
-358.952515
 20
-142.154297
 40
11.500000
  0
CIRCLE
  8
0
 10
-214.952515
 20
-142.154297
 40
11.500000
  0
CIRCLE
  8
0
 62
     2
 10
-358.952515
 20
-142.154297
 40
6.600000
  0
CIRCLE
  8
0
 62
     2
 10
-214.952515
 20
-142.154297
 40
6.600000
  0
CIRCLE
  8
0
 62
     4
 10
-122.952522
 20
-2.535370
 40
9.500000
  0
ARC
  8
0
 10
-85.008377
 20
-9.535370
 40
13.944235
 50
154.514359
 51
205.485626
  0
ARC
  8
0
 10
-85.008377
 20
-21.535370
 40
13.944240
 50
154.514313
 51
205.485580
  0
CIRCLE
  8
0
 62
     4
 10
-122.952522
 20
115.464630
 40
9.500000
  0
ARC
  8
0
 10
-85.008377
 20
122.464630
 40
13.944237
 50
154.514328
 51
205.485565
  0
ARC
  8
0
 10
-85.008377
 20
134.464630
 40
13.944237
 50
154.514328
 51
205.485596
  0
ARC
  8
0
 10
301.279297
 20
-143.839417
 40
6.078140
 50
140.243668
 51
220.001709
  0
ARC
  8
0
 10
301.451660
 20
-120.456238
 40
6.250496
 50
141.551315
 51
218.694412
  0
ARC
  8
0
 10
317.768250
 20
-132.112686
 40
22.567135
 50
159.917755
 51
200.327759
  0
ARC
  8
0
 62
     4
 10
304.801178
 20
-156.154297
 40
10.000000
 50
270.000000
 51
0.000000
  0
ARC
  8
0
 62
     4
 10
241.801178
 20
-173.154297
 40
7.000000
 50
90.000000
 51
180.000000
  0
CIRCLE
  8
0
 10
189.801178
 20
-132.154297
 40
9.000000
  0
CIRCLE
  8
0
 10
189.801178
 20
-132.154297
 40
13.000000
  0
CIRCLE
  8
0
 10
27.801178
 20
-132.154297
 40
9.000000
  0
CIRCLE
  8
0
 10
27.801178
 20
-132.154297
 40
13.000000
  0
CIRCLE
  8
0
 62
     2
 10
189.801178
 20
-132.154297
 40
7.700000
  0
CIRCLE
  8
0
 62
     2
 10
27.801178
 20
-132.154297
 40
7.700000
  0
CIRCLE
  8
0
 62
     4
 10
269.801178
 20
-22.729904
 40
12.000000
  0
ARC
  8
0
 10
317.491302
 20
-30.979904
 40
17.290115
 50
157.020844
 51
202.979141
  0
ARC
  8
0
 10
317.491302
 20
-44.479904
 40
17.290121
 50
157.020798
 51
202.979065
  0
CIRCLE
  8
0
 62
     4
 10
269.801178
 20
109.270111
 40
12.000000
  0
ARC
  8
0
 10
317.491302
 20
117.520111
 40
17.290119
 50
157.020813
 51
202.979065
  0
ARC
  8
0
 10
317.491302
 20
131.020111
 40
17.290115
 50
157.020828
 51
202.979141
  0
TEXT
  8
0
 10
-369.785309
 20
256.649994
 40
9.000000
  1
SD FOOT ,-1
 50
0.000000
 41
1.052632
 51
0.000000
  7
STANDARD
  0
TEXT
  8
0
 10
242.014816
 20
-274.500000
 40
12.500000
  1
KOGANEI CORP.
 50
0.000000
 41
1.052632
 51
0.000000
  7
STANDARD
  0
TEXT
  8
0
 10
251.264664
 20
256.649994
 40
9.000000
  1
DATE: AUG ,1993
 50
0.000000
 41
1.052632
 51
0.000000
  7
STANDARD
  0
TEXT
  8
0
 10
14.739680
 20
224.149994
 40
9.000000
  1
BORE:180
 50
0.000000
 41
1.052632
 51
0.000000
  7
STANDARD
  0
TEXT
  8
0
 10
-384.785309
 20
224.149994
 40
9.000000
  1
BORE:160
 50
0.000000
 41
1.052632
 51
0.000000
  7
STANDARD
  0
ENDSEC
  0
EOF
