  0
SECTION
  2
HEADER
  0
ENDSEC
  0
SECTION
  2
TABLES
  0
TABLE
  2
LTYPE
 70
     4
  0
LTYPE
  2
CONTINUOUS
 70
    64
  3
Solid line
 72
    65
 73
     0
 40
0.000000
  0
LTYPE
  2
DASHED
 70
    64
  3
__ __ __ __ __ __ __ __ __ __ __ __ __ __ __
 72
    65
 73
     2
 40
3.500000
 49
2.000000
 49
-1.500000
  0
LTYPE
  2
CENTER
 70
    64
  3
____ _ ____ _ ____ _ ____ _ ____ _ ____ _ ____
 72
    65
 73
     4
 40
17.500000
 49
13.000000
 49
-1.500000
 49
1.500000
 49
-1.500000
  0
LTYPE
  2
PHANTOM
 70
    64
  3
_____ _ _ _____ _ _ _____ _ _ _____ _ _ ____  
 72
    65
 73
     6
 40
15.500000
 49
8.000000
 49
-1.500000
 49
1.500000
 49
-1.500000
 49
1.500000
 49
-1.500000
  0
LTYPE
  2
DASHED1
 70
    64
  3
__ __ __ __ __ __ __ __ __ __ __ __ __ __ __
 72
    65
 73
     2
 40
1.500000
 49
1.000000
 49
-0.500000
  0
LTYPE
  2
DASHED2
 70
    64
  3
__ __ __ __ __ __ __ __ __ __ __ __ __ __ __
 72
    65
 73
     2
 40
3.500000
 49
2.500000
 49
-1.000000
  0
LTYPE
  2
DASHED3
 70
    64
  3
__ __ __ __ __ __ __ __ __ __ __ __ __ __ __
 72
    65
 73
     2
 40
6.000000
 49
4.000000
 49
-2.000000
  0
LTYPE
  2
DASHED4
 70
    64
  3
__ __ __ __ __ __ __ __ __ __ __ __ __ __ __
 72
    65
 73
     2
 40
12.000000
 49
10.000000
 49
-2.000000
  0
LTYPE
  2
DASHED5
 70
    64
  3
__ __ __ __ __ __ __ __ __ __ __ __ __ __ __
 72
    65
 73
     2
 40
17.000000
 49
15.000000
 49
-2.000000
  0
LTYPE
  2
DASHED6
 70
    64
  3
__ __ __ __ __ __ __ __ __ __ __ __ __ __ __
 72
    65
 73
     2
 40
29.000000
 49
27.000000
 49
-2.000000
  0
LTYPE
  2
PHANTOM1
 70
    64
  3
_____ _ _ _____ _ _ _____ _ _ _____ _ _ ____  
 72
    65
 73
     6
 40
31.000000
 49
25.000000
 49
-1.500000
 49
1.000000
 49
-1.000000
 49
1.000000
 49
-1.500000
  0
LTYPE
  2
PHANTOM2
 70
    64
  3
_____ _ _ _____ _ _ _____ _ _ _____ _ _ ____  
 72
    65
 73
     6
 40
36.000000
 49
27.000000
 49
-1.500000
 49
2.500000
 49
-1.000000
 49
2.500000
 49
-1.500000
  0
LTYPE
  2
PHANTOM3
 70
    64
  3
_____ _ _ _____ _ _ _____ _ _ _____ _ _ ____  
 72
    65
 73
     6
 40
78.000000
 49
64.000000
 49
-2.000000
 49
4.000000
 49
-2.000000
 49
4.000000
 49
-2.000000
  0
LTYPE
  2
CENTER1
 70
    64
  3
____ _ ____ _ ____ _ ____ _ ____ _ ____ _ ____
 72
    65
 73
     4
 40
19.000000
 49
14.000000
 49
-1.000000
 49
3.000000
 49
-1.000000
  0
LTYPE
  2
CENTER2
 70
    64
  3
____ _ ____ _ ____ _ ____ _ ____ _ ____ _ ____
 72
    65
 73
     4
 40
28.500000
 49
25.000000
 49
-1.000000
 49
1.500000
 49
-1.000000
  0
LTYPE
  2
CENTER3
 70
    64
  3
____ _ ____ _ ____ _ ____ _ ____ _ ____ _ ____
 72
    65
 73
     4
 40
31.500000
 49
27.000000
 49
-1.000000
 49
2.500000
 49
-1.000000
  0
LTYPE
  2
CENTER4
 70
    64
  3
____ _ ____ _ ____ _ ____ _ ____ _ ____ _ ____
 72
    65
 73
     4
 40
50.000000
 49
45.000000
 49
-1.000000
 49
3.000000
 49
-1.000000
  0
LTYPE
  2
CENTER5
 70
    64
  3
____ _ ____ _ ____ _ ____ _ ____ _ ____ _ ____
 72
    65
 73
     4
 40
100.000000
 49
92.000000
 49
-2.000000
 49
4.000000
 49
-2.000000
  0
LTYPE
  2
SBK1
 70
    64
  3
______ _ _ _ ______ _ _ _ ______ _ _ _ _____  
 72
    65
 73
     8
 40
60.500000
 49
45.000000
 49
-2.000000
 49
2.500000
 49
-2.000000
 49
2.500000
 49
-2.000000
 49
2.500000
 49
-2.000000
  0
LTYPE
  2
SBK2
 70
    64
  3
______ _ _ _ ______ _ _ _ ______ _ _ _ _____  
 72
    65
 73
     8
 40
84.000000
 49
64.000000
 49
-2.000000
 49
4.000000
 49
-2.000000
 49
4.000000
 49
-2.000000
 49
4.000000
 49
-2.000000
  0
LTYPE
  2
STCH
 70
    64
  3
__ __ __ __ __ __ __ __ __ __ __ __ __ __ __
 72
    65
 73
     2
 40
3.000000
 49
1.000000
 49
-2.000000
  0
LTYPE
  2
MTCH
 70
    64
  3
_____ _ _ _____ _ _ _____ _ _ _____ _ _ ____  
 72
    65
 73
     6
 40
80.000000
 49
66.000000
 49
-2.000000
 49
4.000000
 49
-2.000000
 49
4.000000
 49
-2.000000
  0
ENDTAB
  0
TABLE
  2
LAYER
 70
     1
  0
LAYER
  2
0
 70
     0
 62
     7
  6
CONTINUOUS
  0
ENDTAB
  0
TABLE
  2
STYLE
 70
     1
  0
STYLE
  2
STANDARD
 70
     0
 40
0.000000
 41
1.000000
 50
0.000000
 71
     0
 42
0.200000
  3
txt
  4
BIGFONT
  0
ENDTAB
  0
TABLE
  2
VIEW
 70
     0
  0
ENDTAB
  0
ENDSEC
  0
SECTION
  2
BLOCKS
  0
ENDSEC
  0
SECTION
  2
ENTITIES
  0
LINE
  8
0
 10
399.799988
 20
276.250000
 11
399.799988
 21
-276.750000
  0
LINE
  8
0
 10
-399.250000
 20
276.250000
 11
-399.250000
 21
-276.750000
  0
LINE
  8
0
 10
-399.250000
 20
276.250000
 11
399.799988
 21
276.250000
  0
LINE
  8
0
 10
-399.250000
 20
-276.750000
 11
399.799988
 21
-276.750000
  0
LINE
  8
0
 10
239.799988
 20
-251.750000
 11
399.799988
 21
-251.750000
  0
LINE
  8
0
 10
239.799988
 20
251.250000
 11
399.799988
 21
251.250000
  0
LINE
  8
0
 10
-399.250000
 20
251.250000
 11
-239.250000
 21
251.250000
  0
LINE
  8
0
 10
239.799988
 20
-251.750000
 11
239.799988
 21
-276.750000
  0
LINE
  8
0
 10
239.799988
 20
251.250000
 11
239.799988
 21
276.250000
  0
LINE
  8
0
 10
-239.250000
 20
276.250000
 11
-239.250000
 21
251.250000
  0
LINE
  8
0
 62
     4
 10
171.106827
 20
-94.440643
 11
171.106827
 21
-168.940643
  0
LINE
  8
0
 62
     4
 10
161.106827
 20
-94.440643
 11
161.106827
 21
-148.940643
  0
LINE
  8
0
 62
     4
 10
171.106827
 20
-94.440643
 11
161.106827
 21
-94.440643
  0
LINE
  8
0
 62
     4
 10
171.106827
 20
-168.940643
 11
81.106827
 21
-168.940643
  0
LINE
  8
0
 62
     4
 10
151.106827
 20
-158.940643
 11
88.106827
 21
-158.940643
  0
LINE
  8
0
  6
CENTER
 62
     1
 10
111.106827
 20
-153.596756
 11
111.106827
 21
-175.033325
  0
LINE
  8
0
 62
     4
 10
81.106827
 20
-165.940643
 11
81.106827
 21
-168.940643
  0
LINE
  8
0
  6
DASHED
 62
     1
 10
99.106827
 20
-158.940643
 11
99.106827
 21
-168.940643
  0
LINE
  8
0
  6
DASHED
 62
     1
 10
123.106827
 20
-158.940643
 11
123.106827
 21
-168.940643
  0
LINE
  8
0
  6
CENTER
 62
     2
 10
133.075912
 20
-127.940643
 11
179.914963
 21
-127.940643
  0
LINE
  8
0
 10
140.006836
 20
-142.440643
 11
141.635254
 21
-145.261139
  0
LINE
  8
0
 10
137.106827
 20
-117.940643
 11
140.006821
 21
-117.940643
  0
LINE
  8
0
 10
137.106827
 20
-137.940643
 11
140.006821
 21
-137.940643
  0
LINE
  8
0
 10
136.106827
 20
-118.940643
 11
136.106827
 21
-136.940643
  0
LINE
  8
0
 10
137.106827
 20
-117.940643
 11
137.106827
 21
-137.940643
  0
LINE
  8
0
 10
137.106827
 20
-117.940643
 11
136.106827
 21
-118.940643
  0
LINE
  8
0
 10
136.106827
 20
-136.940643
 11
137.106842
 21
-137.940659
  0
LINE
  8
0
 10
156.006821
 20
-110.620148
 11
156.006821
 21
-145.261139
  0
LINE
  8
0
 10
156.006821
 20
-144.440643
 11
161.106827
 21
-144.440643
  0
LINE
  8
0
 10
156.006821
 20
-111.440643
 11
161.106827
 21
-111.440643
  0
LINE
  8
0
 10
141.635239
 20
-110.620148
 11
156.006821
 21
-110.620148
  0
LINE
  8
0
 10
141.635239
 20
-145.261139
 11
156.006821
 21
-145.261139
  0
LINE
  8
0
 10
140.006821
 20
-113.440643
 11
140.006821
 21
-142.440643
  0
LINE
  8
0
 10
141.506821
 20
-119.280396
 11
156.006821
 21
-119.280396
  0
LINE
  8
0
 10
141.635239
 20
-136.600891
 11
156.006821
 21
-136.600891
  0
LINE
  8
0
 10
140.006851
 20
-113.440643
 11
141.635254
 21
-110.620155
  0
LINE
  8
0
 62
     2
 10
136.106827
 20
-120.540642
 11
140.006821
 21
-120.540642
  0
LINE
  8
0
 62
     2
 10
136.106827
 20
-135.340637
 11
140.006821
 21
-135.340637
  0
LINE
  8
0
  6
CENTER
 62
     2
 10
-118.893173
 20
-85.625015
 11
-118.893173
 21
-176.843719
  0
LINE
  8
0
 62
     4
 10
-5.893173
 20
-94.440643
 11
-5.893173
 21
-168.940643
  0
LINE
  8
0
 62
     4
 10
-231.893188
 20
-94.440643
 11
-231.893188
 21
-168.940643
  0
LINE
  8
0
  6
CENTER
 62
     2
 10
-27.893173
 20
-108.988258
 11
-27.893173
 21
-147.204285
  0
LINE
  8
0
  6
CENTER
 62
     2
 10
-44.913712
 20
-127.940643
 11
-10.363663
 21
-127.940643
  0
LINE
  8
0
 10
-12.893173
 20
-119.280396
 11
-12.893173
 21
-136.600891
  0
LINE
  8
0
 10
-42.893173
 20
-119.280388
 11
-42.893173
 21
-136.600891
  0
LINE
  8
0
 10
-27.893213
 20
-110.620155
 11
-12.893197
 21
-119.280418
  0
LINE
  8
0
 10
-42.893185
 20
-136.600952
 11
-27.893148
 21
-145.261230
  0
LINE
  8
0
 10
-27.893183
 20
-145.261124
 11
-12.893167
 21
-136.600861
  0
LINE
  8
0
 10
-42.893200
 20
-119.280388
 11
-27.893185
 21
-110.620125
  0
LINE
  8
0
  6
CENTER
 62
     2
 10
-209.893188
 20
-108.988251
 11
-209.893188
 21
-147.204285
  0
LINE
  8
0
  6
CENTER
 62
     2
 10
-226.913696
 20
-127.940643
 11
-192.363632
 21
-127.940643
  0
LINE
  8
0
 10
-194.893173
 20
-119.280396
 11
-194.893173
 21
-136.600891
  0
LINE
  8
0
 10
-224.893188
 20
-119.280380
 11
-224.893188
 21
-136.600891
  0
LINE
  8
0
 10
-209.893280
 20
-110.620293
 11
-194.893280
 21
-119.280548
  0
LINE
  8
0
 10
-224.893280
 20
-136.600983
 11
-209.893265
 21
-145.261246
  0
LINE
  8
0
 10
-209.893234
 20
-145.261093
 11
-194.893234
 21
-136.600830
  0
LINE
  8
0
 10
-224.893234
 20
-119.280235
 11
-209.893234
 21
-110.619980
  0
LINE
  8
0
 62
     4
 10
-231.893188
 20
-168.940643
 11
-5.893173
 21
-168.940643
  0
LINE
  8
0
 62
     4
 10
-231.893188
 20
-158.940643
 11
-5.893173
 21
-158.940643
  0
LINE
  8
0
 62
     4
 10
-231.893188
 20
-94.440643
 11
-5.893173
 21
-94.440643
  0
LINE
  8
0
  6
CENTER
 62
     1
 10
-193.893173
 20
-154.843719
 11
-193.893173
 21
-175.510376
  0
LINE
  8
0
  6
CENTER
 62
     1
 10
-43.893173
 20
-153.510376
 11
-43.893173
 21
-175.510376
  0
LINE
  8
0
  6
DASHED
 62
     1
 10
-205.893188
 20
-158.940643
 11
-205.893188
 21
-168.940643
  0
LINE
  8
0
  6
DASHED
 62
     1
 10
-181.893173
 20
-158.940643
 11
-181.893173
 21
-168.940643
  0
LINE
  8
0
  6
DASHED
 62
     1
 10
-55.893173
 20
-158.940643
 11
-55.893173
 21
-168.940643
  0
LINE
  8
0
  6
DASHED
 62
     1
 10
-31.893173
 20
-158.940643
 11
-31.893173
 21
-168.940643
  0
LINE
  8
0
  6
CENTER
 62
     2
 10
133.075912
 20
-12.577911
 11
179.914963
 21
-12.577911
  0
LINE
  8
0
 10
137.106827
 20
-2.577911
 11
140.006821
 21
-2.577911
  0
LINE
  8
0
 10
137.106827
 20
-22.577911
 11
140.006821
 21
-22.577911
  0
LINE
  8
0
 10
136.106827
 20
-3.577911
 11
136.106827
 21
-21.577911
  0
LINE
  8
0
 10
137.106827
 20
-2.577911
 11
137.106827
 21
-22.577911
  0
LINE
  8
0
 10
137.106827
 20
-2.577936
 11
136.106827
 21
-3.577937
  0
LINE
  8
0
 10
136.106827
 20
-21.577929
 11
137.106827
 21
-22.577930
  0
LINE
  8
0
 10
156.006821
 20
3.922089
 11
156.006821
 21
-29.077911
  0
LINE
  8
0
 10
156.006821
 20
-29.077911
 11
161.106827
 21
-29.077911
  0
LINE
  8
0
 10
156.006821
 20
3.922089
 11
161.106827
 21
3.922089
  0
LINE
  8
0
 10
140.006821
 20
2.422089
 11
140.006821
 21
-27.577911
  0
LINE
  8
0
 62
     2
 10
136.106827
 20
-5.177917
 11
140.006821
 21
-5.177917
  0
LINE
  8
0
 62
     2
 10
136.106827
 20
-19.977905
 11
140.006821
 21
-19.977905
  0
LINE
  8
0
 62
     4
 10
81.106827
 20
-34.577911
 11
171.106827
 21
-34.577911
  0
LINE
  8
0
 62
     4
 10
81.106827
 20
191.422089
 11
171.106827
 21
191.422089
  0
LINE
  8
0
 62
     4
 10
171.106827
 20
191.422089
 11
171.106827
 21
-34.577911
  0
LINE
  8
0
 62
     4
 10
81.106827
 20
191.422089
 11
81.106827
 21
-34.577911
  0
LINE
  8
0
 62
     4
 10
161.106827
 20
191.422089
 11
161.106827
 21
-34.577911
  0
LINE
  8
0
  6
CENTER
 62
     2
 10
61.106827
 20
78.422089
 11
191.106827
 21
78.422089
  0
LINE
  8
0
  6
CENTER
 62
     1
 10
93.606827
 20
3.422089
 11
128.606827
 21
3.422089
  0
LINE
  8
0
  6
CENTER
 62
     1
 10
111.106827
 20
20.922089
 11
111.106827
 21
-14.077911
  0
LINE
  8
0
  6
CENTER
 62
     1
 10
93.606827
 20
153.422089
 11
128.606827
 21
153.422089
  0
LINE
  8
0
  6
CENTER
 62
     1
 10
111.106827
 20
135.922089
 11
111.106827
 21
170.922089
  0
LINE
  8
0
 10
140.006821
 20
-27.577911
 11
156.006821
 21
-27.577911
  0
LINE
  8
0
 10
140.006821
 20
2.422089
 11
156.006821
 21
2.422089
  0
LINE
  8
0
  6
CENTER
 62
     2
 10
133.075912
 20
169.422089
 11
179.914963
 21
169.422089
  0
LINE
  8
0
 10
137.106827
 20
159.422089
 11
140.006821
 21
159.422089
  0
LINE
  8
0
 10
137.106827
 20
179.422089
 11
140.006821
 21
179.422089
  0
LINE
  8
0
 10
136.106827
 20
160.422089
 11
136.106827
 21
178.422089
  0
LINE
  8
0
 10
137.106827
 20
159.422089
 11
137.106827
 21
179.422089
  0
LINE
  8
0
 10
137.106827
 20
159.422104
 11
136.106827
 21
160.422104
  0
LINE
  8
0
 10
136.106827
 20
178.422089
 11
137.106827
 21
179.422089
  0
LINE
  8
0
 10
156.006821
 20
152.922089
 11
156.006821
 21
185.922089
  0
LINE
  8
0
 10
156.006821
 20
185.922089
 11
161.106827
 21
185.922089
  0
LINE
  8
0
 10
156.006821
 20
152.922089
 11
161.106827
 21
152.922089
  0
LINE
  8
0
 10
140.006821
 20
154.422089
 11
140.006821
 21
184.422089
  0
LINE
  8
0
 62
     2
 10
136.106827
 20
162.022095
 11
140.006821
 21
162.022095
  0
LINE
  8
0
 62
     2
 10
136.106827
 20
176.822083
 11
140.006821
 21
176.822083
  0
LINE
  8
0
 10
140.006821
 20
184.422089
 11
156.006821
 21
184.422089
  0
LINE
  8
0
 10
140.006821
 20
154.422089
 11
156.006821
 21
154.422089
  0
ARC
  8
0
 62
     4
 10
151.106827
 20
-148.940643
 40
10.000000
 50
270.000000
 51
0.000000
  0
ARC
  8
0
 62
     4
 10
88.106827
 20
-165.940643
 40
7.000000
 50
90.000000
 51
180.000000
  0
ARC
  8
0
 10
146.578171
 20
-114.950272
 40
6.571332
 50
138.780792
 51
221.219208
  0
ARC
  8
0
 10
163.849533
 20
-127.940643
 40
23.842707
 50
158.701675
 51
201.298294
  0
ARC
  8
0
 10
146.578156
 20
-140.931015
 40
6.571332
 50
138.780792
 51
221.219208
  0
CIRCLE
  8
0
 10
-27.893173
 20
-127.940643
 40
14.500000
  0
CIRCLE
  8
0
 10
-27.893173
 20
-127.940643
 40
10.000000
  0
CIRCLE
  8
0
 10
-209.893188
 20
-127.940643
 40
14.500000
  0
CIRCLE
  8
0
 10
-209.893188
 20
-127.940643
 40
10.000000
  0
CIRCLE
  8
0
 62
     2
 10
-27.893173
 20
-127.940643
 40
7.400000
  0
CIRCLE
  8
0
 62
     2
 10
-209.893188
 20
-127.940643
 40
7.400000
  0
CIRCLE
  8
0
 62
     4
 10
111.106827
 20
3.422089
 40
12.000000
  0
CIRCLE
  8
0
 62
     4
 10
111.106827
 20
153.422089
 40
12.000000
  0
ARC
  8
0
 10
158.092392
 20
-5.077911
 40
18.085569
 50
155.499893
 51
204.500092
  0
ARC
  8
0
 10
158.092392
 20
-20.077911
 40
18.085575
 50
155.499847
 51
204.500031
  0
ARC
  8
0
 10
158.092392
 20
161.922089
 40
18.085577
 50
155.499832
 51
204.500015
  0
ARC
  8
0
 10
158.092392
 20
176.922089
 40
18.085571
 50
155.499878
 51
204.500076
  0
TEXT
  8
0
 10
-369.785309
 20
256.649994
 40
9.000000
  1
SD FOOT ,-1
 50
0.000000
 41
1.052632
 51
0.000000
  7
STANDARD
  0
TEXT
  8
0
 10
242.014816
 20
-274.500000
 40
12.500000
  1
KOGANEI CORP.
 50
0.000000
 41
1.052632
 51
0.000000
  7
STANDARD
  0
TEXT
  8
0
 10
251.264664
 20
256.649994
 40
9.000000
  1
DATE: AUG ,1993
 50
0.000000
 41
1.052632
 51
0.000000
  7
STANDARD
  0
TEXT
  8
0
 10
-384.785309
 20
224.149994
 40
9.000000
  1
BORE:200
 50
0.000000
 41
1.052632
 51
0.000000
  7
STANDARD
  0
ENDSEC
  0
EOF
