  0
SECTION
  2
HEADER
  0
ENDSEC
  0
SECTION
  2
TABLES
  0
TABLE
  2
LTYPE
 70
     4
  0
LTYPE
  2
CONTINUOUS
 70
    64
  3
Solid line
 72
    65
 73
     0
 40
0.000000
  0
LTYPE
  2
DASHED
 70
    64
  3
__ __ __ __ __ __ __ __ __ __ __ __ __ __ __
 72
    65
 73
     2
 40
3.500000
 49
2.000000
 49
-1.500000
  0
LTYPE
  2
CENTER
 70
    64
  3
____ _ ____ _ ____ _ ____ _ ____ _ ____ _ ____
 72
    65
 73
     4
 40
17.500000
 49
13.000000
 49
-1.500000
 49
1.500000
 49
-1.500000
  0
LTYPE
  2
PHANTOM
 70
    64
  3
_____ _ _ _____ _ _ _____ _ _ _____ _ _ ____  
 72
    65
 73
     6
 40
15.500000
 49
8.000000
 49
-1.500000
 49
1.500000
 49
-1.500000
 49
1.500000
 49
-1.500000
  0
LTYPE
  2
DASHED1
 70
    64
  3
__ __ __ __ __ __ __ __ __ __ __ __ __ __ __
 72
    65
 73
     2
 40
1.500000
 49
1.000000
 49
-0.500000
  0
LTYPE
  2
DASHED2
 70
    64
  3
__ __ __ __ __ __ __ __ __ __ __ __ __ __ __
 72
    65
 73
     2
 40
3.500000
 49
2.500000
 49
-1.000000
  0
LTYPE
  2
DASHED3
 70
    64
  3
__ __ __ __ __ __ __ __ __ __ __ __ __ __ __
 72
    65
 73
     2
 40
6.000000
 49
4.000000
 49
-2.000000
  0
LTYPE
  2
DASHED4
 70
    64
  3
__ __ __ __ __ __ __ __ __ __ __ __ __ __ __
 72
    65
 73
     2
 40
12.000000
 49
10.000000
 49
-2.000000
  0
LTYPE
  2
DASHED5
 70
    64
  3
__ __ __ __ __ __ __ __ __ __ __ __ __ __ __
 72
    65
 73
     2
 40
17.000000
 49
15.000000
 49
-2.000000
  0
LTYPE
  2
DASHED6
 70
    64
  3
__ __ __ __ __ __ __ __ __ __ __ __ __ __ __
 72
    65
 73
     2
 40
29.000000
 49
27.000000
 49
-2.000000
  0
LTYPE
  2
PHANTOM1
 70
    64
  3
_____ _ _ _____ _ _ _____ _ _ _____ _ _ ____  
 72
    65
 73
     6
 40
31.000000
 49
25.000000
 49
-1.500000
 49
1.000000
 49
-1.000000
 49
1.000000
 49
-1.500000
  0
LTYPE
  2
PHANTOM2
 70
    64
  3
_____ _ _ _____ _ _ _____ _ _ _____ _ _ ____  
 72
    65
 73
     6
 40
36.000000
 49
27.000000
 49
-1.500000
 49
2.500000
 49
-1.000000
 49
2.500000
 49
-1.500000
  0
LTYPE
  2
PHANTOM3
 70
    64
  3
_____ _ _ _____ _ _ _____ _ _ _____ _ _ ____  
 72
    65
 73
     6
 40
78.000000
 49
64.000000
 49
-2.000000
 49
4.000000
 49
-2.000000
 49
4.000000
 49
-2.000000
  0
LTYPE
  2
CENTER1
 70
    64
  3
____ _ ____ _ ____ _ ____ _ ____ _ ____ _ ____
 72
    65
 73
     4
 40
19.000000
 49
14.000000
 49
-1.000000
 49
3.000000
 49
-1.000000
  0
LTYPE
  2
CENTER2
 70
    64
  3
____ _ ____ _ ____ _ ____ _ ____ _ ____ _ ____
 72
    65
 73
     4
 40
28.500000
 49
25.000000
 49
-1.000000
 49
1.500000
 49
-1.000000
  0
LTYPE
  2
CENTER3
 70
    64
  3
____ _ ____ _ ____ _ ____ _ ____ _ ____ _ ____
 72
    65
 73
     4
 40
31.500000
 49
27.000000
 49
-1.000000
 49
2.500000
 49
-1.000000
  0
LTYPE
  2
CENTER4
 70
    64
  3
____ _ ____ _ ____ _ ____ _ ____ _ ____ _ ____
 72
    65
 73
     4
 40
50.000000
 49
45.000000
 49
-1.000000
 49
3.000000
 49
-1.000000
  0
LTYPE
  2
CENTER5
 70
    64
  3
____ _ ____ _ ____ _ ____ _ ____ _ ____ _ ____
 72
    65
 73
     4
 40
100.000000
 49
92.000000
 49
-2.000000
 49
4.000000
 49
-2.000000
  0
LTYPE
  2
SBK1
 70
    64
  3
______ _ _ _ ______ _ _ _ ______ _ _ _ _____  
 72
    65
 73
     8
 40
60.500000
 49
45.000000
 49
-2.000000
 49
2.500000
 49
-2.000000
 49
2.500000
 49
-2.000000
 49
2.500000
 49
-2.000000
  0
LTYPE
  2
SBK2
 70
    64
  3
______ _ _ _ ______ _ _ _ ______ _ _ _ _____  
 72
    65
 73
     8
 40
84.000000
 49
64.000000
 49
-2.000000
 49
4.000000
 49
-2.000000
 49
4.000000
 49
-2.000000
 49
4.000000
 49
-2.000000
  0
LTYPE
  2
STCH
 70
    64
  3
__ __ __ __ __ __ __ __ __ __ __ __ __ __ __
 72
    65
 73
     2
 40
3.000000
 49
1.000000
 49
-2.000000
  0
LTYPE
  2
MTCH
 70
    64
  3
_____ _ _ _____ _ _ _____ _ _ _____ _ _ ____  
 72
    65
 73
     6
 40
80.000000
 49
66.000000
 49
-2.000000
 49
4.000000
 49
-2.000000
 49
4.000000
 49
-2.000000
  0
ENDTAB
  0
TABLE
  2
LAYER
 70
     1
  0
LAYER
  2
0
 70
     0
 62
     7
  6
CONTINUOUS
  0
ENDTAB
  0
TABLE
  2
STYLE
 70
     1
  0
STYLE
  2
STANDARD
 70
     0
 40
0.000000
 41
1.000000
 50
0.000000
 71
     0
 42
0.200000
  3
txt
  4
BIGFONT
  0
ENDTAB
  0
TABLE
  2
VIEW
 70
     0
  0
ENDTAB
  0
ENDSEC
  0
SECTION
  2
BLOCKS
  0
ENDSEC
  0
SECTION
  2
ENTITIES
  0
LINE
  8
0
 10
399.799988
 20
276.250000
 11
399.799988
 21
-276.750000
  0
LINE
  8
0
 10
-399.250000
 20
276.250000
 11
-399.250000
 21
-276.750000
  0
LINE
  8
0
 10
-399.250000
 20
276.250000
 11
399.799988
 21
276.250000
  0
LINE
  8
0
 10
-399.250000
 20
-276.750000
 11
399.799988
 21
-276.750000
  0
LINE
  8
0
 10
239.799988
 20
-251.750000
 11
399.799988
 21
-251.750000
  0
LINE
  8
0
 10
239.799988
 20
251.250000
 11
399.799988
 21
251.250000
  0
LINE
  8
0
 10
-399.250000
 20
251.250000
 11
-239.250000
 21
251.250000
  0
LINE
  8
0
 10
239.799988
 20
-251.750000
 11
239.799988
 21
-276.750000
  0
LINE
  8
0
 10
239.799988
 20
251.250000
 11
239.799988
 21
276.250000
  0
LINE
  8
0
 10
-239.250000
 20
276.250000
 11
-239.250000
 21
251.250000
  0
LINE
  8
0
 10
0.274994
 20
-0.250000
 11
0.274994
 21
276.250000
  0
LINE
  8
0
 10
-399.250000
 20
-0.250000
 11
399.799988
 21
-0.250000
  0
LINE
  8
0
  6
CENTER
 62
     1
 10
-242.501526
 20
60.000000
 11
-105.001526
 21
60.000000
  0
LINE
  8
0
  6
CENTER
 62
     1
 10
-210.000000
 20
27.500000
 11
-210.000000
 21
92.500000
  0
LINE
  8
0
 62
     4
 10
-110.000000
 20
32.500000
 11
-110.000000
 21
87.500000
  0
LINE
  8
0
 62
     4
 10
-210.001526
 20
32.500000
 11
-110.001526
 21
32.500000
  0
LINE
  8
0
 62
     4
 10
-210.001526
 20
87.500000
 11
-110.001511
 21
87.500000
  0
LINE
  8
0
 62
     4
 10
-175.000000
 20
37.632812
 11
-175.000000
 21
82.367187
  0
LINE
  8
0
 62
     4
 10
-210.001526
 20
37.632812
 11
-175.001526
 21
37.632812
  0
LINE
  8
0
 62
     4
 10
-210.001526
 20
82.367187
 11
-175.001526
 21
82.367187
  0
LINE
  8
0
 62
     4
 10
-324.001282
 20
82.367187
 11
-324.001282
 21
37.632812
  0
LINE
  8
0
 62
     4
 10
-355.998718
 20
82.367187
 11
-355.998718
 21
37.632812
  0
LINE
  8
0
  6
CENTER
 62
     1
 10
-340.000000
 20
92.500000
 11
-340.000000
 21
27.500000
  0
LINE
  8
0
  6
CENTER
 62
     1
 10
-372.500000
 20
60.000000
 11
-307.500000
 21
60.000000
  0
LINE
  8
0
 62
     4
 10
-110.000000
 20
162.500000
 11
-110.000000
 21
217.500000
  0
LINE
  8
0
 62
     4
 10
-110.001541
 20
162.500000
 11
-175.001526
 21
162.500000
  0
LINE
  8
0
 62
     4
 10
-110.001526
 20
217.500000
 11
-175.001526
 21
217.500000
  0
LINE
  8
0
 62
     4
 10
-175.000000
 20
162.500000
 11
-175.000000
 21
174.000000
  0
LINE
  8
0
 62
     4
 10
-175.000000
 20
217.500000
 11
-175.000000
 21
206.000000
  0
LINE
  8
0
  6
CENTER
 62
     1
 10
-242.501526
 20
190.000000
 11
-105.001526
 21
190.000000
  0
LINE
  8
0
  6
CENTER
 62
     1
 10
-210.000000
 20
170.000000
 11
-210.000000
 21
210.000000
  0
LINE
  8
0
 62
     4
 10
-232.367798
 20
174.000000
 11
-175.001526
 21
174.000000
  0
LINE
  8
0
 62
     4
 10
-232.367798
 20
206.000000
 11
-175.001526
 21
206.000000
  0
LINE
  8
0
  6
DASHED
 62
     1
 10
-222.500000
 20
174.000000
 11
-222.500000
 21
206.000000
  0
LINE
  8
0
  6
DASHED
 62
     1
 10
-197.500000
 20
174.000000
 11
-197.500000
 21
206.000000
  0
LINE
  8
0
  6
DASHED
 62
     1
 10
-165.001526
 20
205.000000
 11
-110.001526
 21
205.000000
  0
LINE
  8
0
  6
DASHED
 62
     1
 10
-165.001526
 20
175.000000
 11
-110.001526
 21
175.000000
  0
LINE
  8
0
  6
DASHED
 62
     1
 10
-165.000000
 20
175.000000
 11
-165.000000
 21
205.000000
  0
LINE
  8
0
  6
DASHED
 62
     1
 10
-170.001526
 20
204.188004
 11
-170.001526
 21
175.811996
  0
LINE
  8
0
  6
DASHED
 62
     1
 10
-170.001511
 20
204.188004
 11
-178.192963
 21
189.999985
  0
LINE
  8
0
  6
DASHED
 62
     1
 10
-170.001526
 20
175.811996
 11
-110.000000
 21
175.811996
  0
LINE
  8
0
  6
DASHED
 62
     1
 10
-170.001526
 20
204.188004
 11
-110.000000
 21
204.188004
  0
LINE
  8
0
  6
DASHED
 62
     1
 10
-170.001511
 20
175.811981
 11
-178.192963
 21
189.999985
  0
LINE
  8
0
  6
CENTER
 62
     1
 10
154.370529
 20
60.000000
 11
299.370514
 21
60.000000
  0
LINE
  8
0
  6
CENTER
 62
     1
 10
189.372009
 20
95.000000
 11
189.372009
 21
25.000000
  0
LINE
  8
0
 62
     4
 10
294.372009
 20
90.000000
 11
294.372009
 21
30.000000
  0
LINE
  8
0
 62
     4
 10
189.370514
 20
90.000000
 11
294.370514
 21
90.000000
  0
LINE
  8
0
 62
     4
 10
189.370544
 20
30.000000
 11
294.370514
 21
30.000000
  0
LINE
  8
0
 62
     4
 10
229.372009
 20
84.000000
 11
229.372009
 21
36.000000
  0
LINE
  8
0
 62
     4
 10
189.370514
 20
84.000000
 11
229.370514
 21
84.000000
  0
LINE
  8
0
 62
     4
 10
189.370514
 20
36.000000
 11
229.370514
 21
36.000000
  0
LINE
  8
0
 62
     4
 10
77.372009
 20
36.000000
 11
77.372009
 21
84.000000
  0
LINE
  8
0
 62
     4
 10
41.372009
 20
84.000000
 11
41.372009
 21
36.000000
  0
LINE
  8
0
  6
CENTER
 62
     1
 10
59.372009
 20
25.000000
 11
59.372009
 21
95.000000
  0
LINE
  8
0
  6
CENTER
 62
     1
 10
24.372009
 20
60.000000
 11
94.372009
 21
60.000000
  0
LINE
  8
0
 62
     4
 10
294.372009
 20
220.000000
 11
294.372009
 21
160.000000
  0
LINE
  8
0
 62
     4
 10
294.370514
 20
220.000000
 11
229.370514
 21
220.000000
  0
LINE
  8
0
 62
     4
 10
294.370514
 20
160.000000
 11
229.370514
 21
160.000000
  0
LINE
  8
0
 62
     4
 10
229.372009
 20
220.000000
 11
229.372009
 21
208.000000
  0
LINE
  8
0
 62
     4
 10
229.372009
 20
160.000000
 11
229.372009
 21
172.000000
  0
LINE
  8
0
  6
CENTER
 62
     1
 10
154.370499
 20
190.000000
 11
299.370514
 21
190.000000
  0
LINE
  8
0
  6
CENTER
 62
     1
 10
189.372009
 20
212.000000
 11
189.372009
 21
168.000000
  0
LINE
  8
0
 62
     4
 10
165.370499
 20
208.000000
 11
229.370514
 21
208.000000
  0
LINE
  8
0
 62
     4
 10
165.370514
 20
172.000000
 11
229.370514
 21
172.000000
  0
LINE
  8
0
  6
DASHED
 62
     1
 10
175.372009
 20
208.000000
 11
175.372009
 21
172.000000
  0
LINE
  8
0
  6
DASHED
 62
     1
 10
203.372009
 20
208.000000
 11
203.372009
 21
172.000000
  0
LINE
  8
0
  6
DASHED
 62
     1
 10
239.370514
 20
175.000000
 11
294.370514
 21
175.000000
  0
LINE
  8
0
  6
DASHED
 62
     1
 10
239.370514
 20
205.000000
 11
294.370514
 21
205.000000
  0
LINE
  8
0
  6
DASHED
 62
     1
 10
239.372009
 20
205.000000
 11
239.372009
 21
175.000000
  0
LINE
  8
0
  6
DASHED
 62
     1
 10
234.372009
 20
204.188004
 11
234.372009
 21
175.811996
  0
LINE
  8
0
  6
DASHED
 62
     1
 10
234.371994
 20
204.188065
 11
226.180511
 21
190.000000
  0
LINE
  8
0
  6
DASHED
 62
     1
 10
234.372009
 20
204.188004
 11
294.372009
 21
204.188004
  0
LINE
  8
0
  6
DASHED
 62
     1
 10
234.372009
 20
175.811996
 11
294.372009
 21
175.811996
  0
LINE
  8
0
  6
DASHED
 62
     1
 10
234.371902
 20
175.811935
 11
226.180450
 21
189.999939
  0
LINE
  8
0
  6
CENTER
 62
     1
 10
-149.228455
 20
-208.563797
 11
5.771544
 21
-208.563797
  0
LINE
  8
0
  6
CENTER
 62
     1
 10
-109.227005
 20
-168.563797
 11
-109.227005
 21
-248.563782
  0
LINE
  8
0
 62
     4
 10
0.772997
 20
-173.563797
 11
0.772997
 21
-243.563797
  0
LINE
  8
0
 62
     4
 10
-109.228455
 20
-173.563797
 11
0.771544
 21
-173.563797
  0
LINE
  8
0
 62
     4
 10
-109.228455
 20
-243.563797
 11
0.771547
 21
-243.563797
  0
LINE
  8
0
 62
     4
 10
-64.227005
 20
-179.841141
 11
-64.227005
 21
-237.286453
  0
LINE
  8
0
 62
     4
 10
-109.228455
 20
-179.841141
 11
-64.228455
 21
-179.841141
  0
LINE
  8
0
 62
     4
 10
-109.228455
 20
-237.286453
 11
-64.228455
 21
-237.286453
  0
LINE
  8
0
  6
CENTER
 62
     1
 10
-309.226990
 20
-208.563797
 11
-209.227005
 21
-208.563797
  0
LINE
  8
0
  6
CENTER
 62
     1
 10
-259.226990
 20
-258.563782
 11
-259.226990
 21
-158.563797
  0
LINE
  8
0
 62
     4
 10
-279.227203
 20
-179.841141
 11
-279.227203
 21
-237.286453
  0
LINE
  8
0
 62
     4
 10
-239.226791
 20
-179.841141
 11
-239.226791
 21
-237.286453
  0
LINE
  8
0
 62
     4
 10
0.772997
 20
-43.563797
 11
0.772997
 21
-113.563797
  0
LINE
  8
0
 62
     4
 10
0.771521
 20
-43.563797
 11
-64.228485
 21
-43.563797
  0
LINE
  8
0
 62
     4
 10
0.771524
 20
-113.563797
 11
-64.228470
 21
-113.563797
  0
LINE
  8
0
 62
     4
 10
-64.227005
 20
-43.563797
 11
-64.227005
 21
-58.563797
  0
LINE
  8
0
 62
     4
 10
-64.227005
 20
-113.563797
 11
-64.227005
 21
-98.563797
  0
LINE
  8
0
  6
CENTER
 62
     1
 10
-149.228485
 20
-78.563797
 11
5.771523
 21
-78.563797
  0
LINE
  8
0
  6
CENTER
 62
     1
 10
-109.227005
 20
-54.563797
 11
-109.227005
 21
-102.563797
  0
LINE
  8
0
 62
     4
 10
-137.951294
 20
-58.563797
 11
-64.228470
 21
-58.563797
  0
LINE
  8
0
 62
     4
 10
-137.951279
 20
-98.563797
 11
-64.228470
 21
-98.563797
  0
LINE
  8
0
  6
DASHED
 62
     1
 10
-125.227005
 20
-58.563797
 11
-125.227005
 21
-98.563797
  0
LINE
  8
0
  6
DASHED
 62
     1
 10
-93.227005
 20
-58.563797
 11
-93.227005
 21
-98.563797
  0
LINE
  8
0
  6
DASHED
 62
     1
 10
-57.228470
 20
-96.563797
 11
0.771524
 21
-96.563797
  0
LINE
  8
0
  6
DASHED
 62
     1
 10
-57.228477
 20
-60.563797
 11
0.771521
 21
-60.563797
  0
LINE
  8
0
  6
DASHED
 62
     1
 10
-57.227005
 20
-60.563797
 11
-57.227005
 21
-96.563797
  0
LINE
  8
0
  6
DASHED
 62
     1
 10
-62.227005
 20
-61.313797
 11
0.771521
 21
-61.313797
  0
LINE
  8
0
  6
DASHED
 62
     1
 10
-62.227005
 20
-61.375797
 11
-62.227005
 21
-95.751801
  0
LINE
  8
0
  6
DASHED
 62
     1
 10
-62.226990
 20
-61.375809
 11
-72.150558
 21
-78.563797
  0
LINE
  8
0
  6
DASHED
 62
     1
 10
-62.227005
 20
-95.751801
 11
0.772997
 21
-95.751801
  0
LINE
  8
0
  6
DASHED
 62
     1
 10
-62.227005
 20
-61.375797
 11
0.772997
 21
-61.375797
  0
LINE
  8
0
  6
DASHED
 62
     1
 10
-62.226997
 20
-95.751785
 11
-72.150566
 21
-78.563789
  0
CIRCLE
  8
0
 62
     4
 10
-210.001526
 20
60.000000
 40
12.500000
  0
ARC
  8
0
 62
     4
 10
-210.001526
 20
60.000000
 40
27.500000
 50
90.000000
 51
270.000000
  0
ARC
  8
0
 62
     4
 10
-210.001526
 20
60.000000
 40
22.366272
 50
90.000000
 51
269.999969
  0
CIRCLE
  8
0
 62
     4
 10
-340.000000
 20
60.000000
 40
27.500000
  0
ARC
  8
0
 62
     4
 10
-210.001526
 20
190.000000
 40
27.499994
 50
144.421509
 51
215.578522
  0
CIRCLE
  8
0
 62
     4
 10
189.370514
 20
60.000000
 40
14.000000
  0
ARC
  8
0
 62
     4
 10
189.370514
 20
60.000000
 40
30.000000
 50
89.999939
 51
269.999939
  0
ARC
  8
0
 62
     4
 10
189.370514
 20
60.000000
 40
24.000000
 50
89.999924
 51
269.999969
  0
CIRCLE
  8
0
 62
     4
 10
59.372009
 20
60.000000
 40
30.000000
  0
ARC
  8
0
 62
     4
 10
189.370514
 20
190.000000
 40
29.999994
 50
143.130020
 51
216.869827
  0
CIRCLE
  8
0
 62
     4
 10
-109.228455
 20
-208.563797
 40
16.000000
  0
ARC
  8
0
 62
     4
 10
-109.228455
 20
-208.563797
 40
35.000000
 50
89.999924
 51
269.999939
  0
ARC
  8
0
 62
     4
 10
-109.228455
 20
-208.563797
 40
28.722809
 50
89.999924
 51
269.999939
  0
CIRCLE
  8
0
 62
     4
 10
-259.226990
 20
-208.563797
 40
35.000000
  0
ARC
  8
0
 62
     4
 10
-109.228470
 20
-78.563797
 40
34.999996
 50
145.149994
 51
214.849838
  0
TEXT
  8
0
 10
-387.785309
 20
256.649994
 40
9.000000
  1
SD I-KNUCKLE,-I
 50
0.000000
 41
1.052632
 51
0.000000
  7
STANDARD
  0
TEXT
  8
0
 10
242.014816
 20
-274.500000
 40
12.500000
  1
KOGANEI CORP.
 50
0.000000
 41
1.052632
 51
0.000000
  7
STANDARD
  0
TEXT
  8
0
 10
251.264664
 20
256.649994
 40
9.000000
  1
DATE: AUG ,1993
 50
0.000000
 41
1.052632
 51
0.000000
  7
STANDARD
  0
TEXT
  8
0
 10
-384.785309
 20
-52.350002
 40
9.000000
  1
MODEL:I-SD160
 50
0.000000
 41
1.052632
 51
0.000000
  7
STANDARD
  0
TEXT
  8
0
 10
-384.785309
 20
224.149994
 40
9.000000
  1
MODEL:I-SD125
 50
0.000000
 41
1.052632
 51
0.000000
  7
STANDARD
  0
TEXT
  8
0
 10
14.739680
 20
224.149994
 40
9.000000
  1
MODEL:I-SD140
 50
0.000000
 41
1.052632
 51
0.000000
  7
STANDARD
  0
ENDSEC
  0
EOF
