  0
SECTION
  2
HEADER
  0
ENDSEC
  0
SECTION
  2
TABLES
  0
TABLE
  2
LTYPE
 70
     4
  0
LTYPE
  2
CONTINUOUS
 70
    64
  3
Solid line
 72
    65
 73
     0
 40
0.000000
  0
LTYPE
  2
DASHED
 70
    64
  3
__ __ __ __ __ __ __ __ __ __ __ __ __ __ __
 72
    65
 73
     2
 40
3.500000
 49
2.000000
 49
-1.500000
  0
LTYPE
  2
CENTER
 70
    64
  3
____ _ ____ _ ____ _ ____ _ ____ _ ____ _ ____
 72
    65
 73
     4
 40
17.500000
 49
13.000000
 49
-1.500000
 49
1.500000
 49
-1.500000
  0
LTYPE
  2
PHANTOM
 70
    64
  3
_____ _ _ _____ _ _ _____ _ _ _____ _ _ ____  
 72
    65
 73
     6
 40
15.500000
 49
8.000000
 49
-1.500000
 49
1.500000
 49
-1.500000
 49
1.500000
 49
-1.500000
  0
LTYPE
  2
DASHED1
 70
    64
  3
__ __ __ __ __ __ __ __ __ __ __ __ __ __ __
 72
    65
 73
     2
 40
1.500000
 49
1.000000
 49
-0.500000
  0
LTYPE
  2
DASHED2
 70
    64
  3
__ __ __ __ __ __ __ __ __ __ __ __ __ __ __
 72
    65
 73
     2
 40
3.500000
 49
2.500000
 49
-1.000000
  0
LTYPE
  2
DASHED3
 70
    64
  3
__ __ __ __ __ __ __ __ __ __ __ __ __ __ __
 72
    65
 73
     2
 40
6.000000
 49
4.000000
 49
-2.000000
  0
LTYPE
  2
DASHED4
 70
    64
  3
__ __ __ __ __ __ __ __ __ __ __ __ __ __ __
 72
    65
 73
     2
 40
12.000000
 49
10.000000
 49
-2.000000
  0
LTYPE
  2
DASHED5
 70
    64
  3
__ __ __ __ __ __ __ __ __ __ __ __ __ __ __
 72
    65
 73
     2
 40
17.000000
 49
15.000000
 49
-2.000000
  0
LTYPE
  2
DASHED6
 70
    64
  3
__ __ __ __ __ __ __ __ __ __ __ __ __ __ __
 72
    65
 73
     2
 40
29.000000
 49
27.000000
 49
-2.000000
  0
LTYPE
  2
PHANTOM1
 70
    64
  3
_____ _ _ _____ _ _ _____ _ _ _____ _ _ ____  
 72
    65
 73
     6
 40
31.000000
 49
25.000000
 49
-1.500000
 49
1.000000
 49
-1.000000
 49
1.000000
 49
-1.500000
  0
LTYPE
  2
PHANTOM2
 70
    64
  3
_____ _ _ _____ _ _ _____ _ _ _____ _ _ ____  
 72
    65
 73
     6
 40
36.000000
 49
27.000000
 49
-1.500000
 49
2.500000
 49
-1.000000
 49
2.500000
 49
-1.500000
  0
LTYPE
  2
PHANTOM3
 70
    64
  3
_____ _ _ _____ _ _ _____ _ _ _____ _ _ ____  
 72
    65
 73
     6
 40
78.000000
 49
64.000000
 49
-2.000000
 49
4.000000
 49
-2.000000
 49
4.000000
 49
-2.000000
  0
LTYPE
  2
CENTER1
 70
    64
  3
____ _ ____ _ ____ _ ____ _ ____ _ ____ _ ____
 72
    65
 73
     4
 40
19.000000
 49
14.000000
 49
-1.000000
 49
3.000000
 49
-1.000000
  0
LTYPE
  2
CENTER2
 70
    64
  3
____ _ ____ _ ____ _ ____ _ ____ _ ____ _ ____
 72
    65
 73
     4
 40
28.500000
 49
25.000000
 49
-1.000000
 49
1.500000
 49
-1.000000
  0
LTYPE
  2
CENTER3
 70
    64
  3
____ _ ____ _ ____ _ ____ _ ____ _ ____ _ ____
 72
    65
 73
     4
 40
31.500000
 49
27.000000
 49
-1.000000
 49
2.500000
 49
-1.000000
  0
LTYPE
  2
CENTER4
 70
    64
  3
____ _ ____ _ ____ _ ____ _ ____ _ ____ _ ____
 72
    65
 73
     4
 40
50.000000
 49
45.000000
 49
-1.000000
 49
3.000000
 49
-1.000000
  0
LTYPE
  2
CENTER5
 70
    64
  3
____ _ ____ _ ____ _ ____ _ ____ _ ____ _ ____
 72
    65
 73
     4
 40
100.000000
 49
92.000000
 49
-2.000000
 49
4.000000
 49
-2.000000
  0
LTYPE
  2
SBK1
 70
    64
  3
______ _ _ _ ______ _ _ _ ______ _ _ _ _____  
 72
    65
 73
     8
 40
60.500000
 49
45.000000
 49
-2.000000
 49
2.500000
 49
-2.000000
 49
2.500000
 49
-2.000000
 49
2.500000
 49
-2.000000
  0
LTYPE
  2
SBK2
 70
    64
  3
______ _ _ _ ______ _ _ _ ______ _ _ _ _____  
 72
    65
 73
     8
 40
84.000000
 49
64.000000
 49
-2.000000
 49
4.000000
 49
-2.000000
 49
4.000000
 49
-2.000000
 49
4.000000
 49
-2.000000
  0
LTYPE
  2
STCH
 70
    64
  3
__ __ __ __ __ __ __ __ __ __ __ __ __ __ __
 72
    65
 73
     2
 40
3.000000
 49
1.000000
 49
-2.000000
  0
LTYPE
  2
MTCH
 70
    64
  3
_____ _ _ _____ _ _ _____ _ _ _____ _ _ ____  
 72
    65
 73
     6
 40
80.000000
 49
66.000000
 49
-2.000000
 49
4.000000
 49
-2.000000
 49
4.000000
 49
-2.000000
  0
ENDTAB
  0
TABLE
  2
LAYER
 70
     1
  0
LAYER
  2
0
 70
     0
 62
     7
  6
CONTINUOUS
  0
ENDTAB
  0
TABLE
  2
STYLE
 70
     1
  0
STYLE
  2
STANDARD
 70
     0
 40
0.000000
 41
1.000000
 50
0.000000
 71
     0
 42
0.200000
  3
txt
  4
BIGFONT
  0
ENDTAB
  0
TABLE
  2
VIEW
 70
     0
  0
ENDTAB
  0
ENDSEC
  0
SECTION
  2
BLOCKS
  0
ENDSEC
  0
SECTION
  2
ENTITIES
  0
LINE
  8
0
 10
399.799988
 20
276.250000
 11
399.799988
 21
-276.750000
  0
LINE
  8
0
 10
-399.250000
 20
276.250000
 11
-399.250000
 21
-276.750000
  0
LINE
  8
0
 10
-399.250000
 20
276.250000
 11
399.799988
 21
276.250000
  0
LINE
  8
0
 10
-399.250000
 20
-276.750000
 11
399.799988
 21
-276.750000
  0
LINE
  8
0
 10
239.799988
 20
-251.750000
 11
399.799988
 21
-251.750000
  0
LINE
  8
0
 10
239.799988
 20
251.250000
 11
399.799988
 21
251.250000
  0
LINE
  8
0
 10
-399.250000
 20
251.250000
 11
-239.250000
 21
251.250000
  0
LINE
  8
0
 10
239.799988
 20
-251.750000
 11
239.799988
 21
-276.750000
  0
LINE
  8
0
 10
239.799988
 20
251.250000
 11
239.799988
 21
276.250000
  0
LINE
  8
0
 10
-239.250000
 20
276.250000
 11
-239.250000
 21
251.250000
  0
LINE
  8
0
 10
0.274994
 20
-0.250000
 11
0.274994
 21
276.250000
  0
LINE
  8
0
 10
-399.250000
 20
-0.250000
 11
399.799988
 21
-0.250000
  0
LINE
  8
0
  6
CENTER
 62
     1
 10
-250.501404
 20
60.000000
 11
-75.001404
 21
60.000000
  0
LINE
  8
0
  6
CENTER
 62
     1
 10
-205.000000
 20
15.000000
 11
-205.000000
 21
105.000000
  0
LINE
  8
0
 62
     4
 10
-80.000000
 20
20.000000
 11
-80.000000
 21
100.000000
  0
LINE
  8
0
 62
     4
 10
-205.001404
 20
20.000000
 11
-80.001404
 21
20.000000
  0
LINE
  8
0
 62
     4
 10
-205.001404
 20
100.000000
 11
-80.001404
 21
100.000000
  0
LINE
  8
0
 62
     4
 10
-155.000000
 20
28.775391
 11
-155.000000
 21
91.224609
  0
LINE
  8
0
 62
     4
 10
-205.001404
 20
28.775391
 11
-155.001404
 21
28.775391
  0
LINE
  8
0
 62
     4
 10
-205.001404
 20
91.224609
 11
-155.001404
 21
91.224609
  0
LINE
  8
0
 62
     4
 10
-321.489166
 20
91.224609
 11
-321.489166
 21
28.775391
  0
LINE
  8
0
 62
     4
 10
-371.490143
 20
91.224609
 11
-371.490143
 21
28.775391
  0
LINE
  8
0
  6
CENTER
 62
     1
 10
-396.489655
 20
60.000000
 11
-296.489655
 21
60.000000
  0
LINE
  8
0
  6
CENTER
 62
     1
 10
-346.489655
 20
110.000000
 11
-346.489655
 21
10.000000
  0
LINE
  8
0
 62
     4
 10
-80.000000
 20
155.000000
 11
-80.000000
 21
235.000000
  0
LINE
  8
0
 62
     4
 10
-80.001434
 20
155.000000
 11
-155.001434
 21
155.000000
  0
LINE
  8
0
 62
     4
 10
-80.001427
 20
235.000000
 11
-155.001434
 21
235.000000
  0
LINE
  8
0
 62
     4
 10
-155.000000
 20
155.000000
 11
-155.000000
 21
170.000000
  0
LINE
  8
0
 62
     4
 10
-155.000000
 20
235.000000
 11
-155.000000
 21
220.000000
  0
LINE
  8
0
  6
CENTER
 62
     1
 10
-250.501434
 20
195.000000
 11
-75.001427
 21
195.000000
  0
LINE
  8
0
  6
CENTER
 62
     1
 10
-205.000000
 20
166.000000
 11
-205.000000
 21
224.000000
  0
LINE
  8
0
 62
     4
 10
-236.226440
 20
170.000000
 11
-155.001434
 21
170.000000
  0
LINE
  8
0
 62
     4
 10
-236.226410
 20
220.000000
 11
-155.001434
 21
220.000000
  0
LINE
  8
0
  6
DASHED
 62
     1
 10
-225.000000
 20
170.000000
 11
-225.000000
 21
220.000000
  0
LINE
  8
0
  6
DASHED
 62
     1
 10
-185.000000
 20
170.000000
 11
-185.000000
 21
220.000000
  0
LINE
  8
0
  6
DASHED
 62
     1
 10
-145.001434
 20
215.000000
 11
-80.001427
 21
215.000000
  0
LINE
  8
0
  6
DASHED
 62
     1
 10
-145.001434
 20
175.000000
 11
-80.001427
 21
175.000000
  0
LINE
  8
0
  6
DASHED
 62
     1
 10
-145.000000
 20
175.000000
 11
-145.000000
 21
215.000000
  0
LINE
  8
0
  6
DASHED
 62
     1
 10
-150.000000
 20
175.811996
 11
-150.000000
 21
214.188004
  0
LINE
  8
0
  6
DASHED
 62
     1
 10
-150.000107
 20
214.188080
 11
-161.114212
 21
194.937943
  0
LINE
  8
0
  6
DASHED
 62
     1
 10
-150.000000
 20
175.811996
 11
-80.000000
 21
175.811996
  0
LINE
  8
0
  6
DASHED
 62
     1
 10
-150.000000
 20
214.188004
 11
-80.000000
 21
214.188004
  0
LINE
  8
0
  6
DASHED
 62
     1
 10
-150.000031
 20
175.811981
 11
-161.114105
 21
195.062119
  0
LINE
  8
0
  6
CENTER
 62
     1
 10
156.135605
 20
60.000092
 11
331.135590
 21
60.000092
  0
LINE
  8
0
  6
CENTER
 62
     1
 10
201.136963
 20
15.000092
 11
201.136963
 21
105.000092
  0
LINE
  8
0
 62
     4
 10
326.136932
 20
20.000092
 11
326.136932
 21
100.000092
  0
LINE
  8
0
 62
     4
 10
201.135590
 20
20.000092
 11
326.135590
 21
20.000092
  0
LINE
  8
0
 62
     4
 10
201.135620
 20
100.000092
 11
326.135590
 21
100.000092
  0
LINE
  8
0
 62
     4
 10
251.136932
 20
28.775482
 11
251.136932
 21
91.224701
  0
LINE
  8
0
 62
     4
 10
201.135620
 20
91.224701
 11
251.135620
 21
91.224701
  0
LINE
  8
0
 62
     4
 10
201.135620
 20
28.775482
 11
251.135620
 21
28.775482
  0
LINE
  8
0
  6
CENTER
 62
     1
 10
57.372406
 20
105.000092
 11
57.372406
 21
15.000092
  0
LINE
  8
0
  6
CENTER
 62
     1
 10
12.372406
 20
60.000092
 11
102.372406
 21
60.000092
  0
LINE
  8
0
 62
     4
 10
82.372894
 20
91.224701
 11
82.372894
 21
28.775482
  0
LINE
  8
0
 62
     4
 10
32.371918
 20
28.775482
 11
32.371918
 21
91.224701
  0
LINE
  8
0
 62
     4
 10
326.136932
 20
155.000000
 11
326.136932
 21
235.000000
  0
LINE
  8
0
 62
     4
 10
326.135559
 20
155.000000
 11
251.135559
 21
155.000000
  0
LINE
  8
0
 62
     4
 10
326.135590
 20
235.000000
 11
251.135590
 21
235.000000
  0
LINE
  8
0
 62
     4
 10
251.136932
 20
155.000000
 11
251.136932
 21
170.000000
  0
LINE
  8
0
 62
     4
 10
251.136932
 20
235.000000
 11
251.136932
 21
220.000000
  0
LINE
  8
0
  6
CENTER
 62
     1
 10
156.135574
 20
195.000000
 11
331.135590
 21
195.000000
  0
LINE
  8
0
  6
CENTER
 62
     1
 10
201.136963
 20
166.000000
 11
201.136963
 21
224.000000
  0
LINE
  8
0
 62
     4
 10
169.910583
 20
170.000000
 11
251.135559
 21
170.000000
  0
LINE
  8
0
 62
     4
 10
169.910583
 20
220.000000
 11
251.135590
 21
220.000000
  0
LINE
  8
0
  6
DASHED
 62
     1
 10
181.136963
 20
170.000000
 11
181.136963
 21
220.000000
  0
LINE
  8
0
  6
DASHED
 62
     1
 10
221.136963
 20
170.000000
 11
221.136963
 21
220.000000
  0
LINE
  8
0
  6
DASHED
 62
     1
 10
261.135590
 20
217.500000
 11
326.135590
 21
217.500000
  0
LINE
  8
0
  6
DASHED
 62
     1
 10
261.135559
 20
172.500000
 11
326.135559
 21
172.500000
  0
LINE
  8
0
  6
DASHED
 62
     1
 10
261.136932
 20
172.500000
 11
261.136932
 21
217.500000
  0
LINE
  8
0
  6
DASHED
 62
     1
 10
256.136932
 20
173.311996
 11
256.136932
 21
216.688004
  0
LINE
  8
0
  6
DASHED
 62
     1
 10
256.136963
 20
216.688004
 11
243.579483
 21
194.937775
  0
LINE
  8
0
  6
DASHED
 62
     1
 10
256.136932
 20
173.311996
 11
326.136932
 21
173.311996
  0
LINE
  8
0
  6
DASHED
 62
     1
 10
256.136932
 20
216.688004
 11
326.136932
 21
216.688004
  0
LINE
  8
0
  6
DASHED
 62
     1
 10
256.136932
 20
173.311996
 11
243.579468
 21
195.062225
  0
LINE
  8
0
  6
CENTER
 62
     1
 10
-187.873352
 20
-208.563843
 11
-12.873352
 21
-208.563843
  0
LINE
  8
0
  6
CENTER
 62
     1
 10
-142.872070
 20
-253.563843
 11
-142.872070
 21
-163.563843
  0
LINE
  8
0
 62
     4
 10
-17.872070
 20
-248.563843
 11
-17.872070
 21
-168.563843
  0
LINE
  8
0
 62
     4
 10
-142.873352
 20
-248.563843
 11
-17.873352
 21
-248.563843
  0
LINE
  8
0
 62
     4
 10
-142.873352
 20
-168.563843
 11
-17.873352
 21
-168.563843
  0
LINE
  8
0
 62
     4
 10
-92.872070
 20
-239.788452
 11
-92.872070
 21
-177.339233
  0
LINE
  8
0
 62
     4
 10
-142.873352
 20
-177.339233
 11
-92.873352
 21
-177.339233
  0
LINE
  8
0
 62
     4
 10
-142.873352
 20
-239.788452
 11
-92.873352
 21
-239.788452
  0
LINE
  8
0
 62
     4
 10
-280.991028
 20
-177.339233
 11
-280.991028
 21
-239.788452
  0
LINE
  8
0
 62
     4
 10
-330.992004
 20
-177.339233
 11
-330.992004
 21
-239.788452
  0
LINE
  8
0
  6
CENTER
 62
     1
 10
-305.991516
 20
-163.563843
 11
-305.991516
 21
-253.563843
  0
LINE
  8
0
  6
CENTER
 62
     1
 10
-350.991516
 20
-208.563843
 11
-260.991516
 21
-208.563843
  0
LINE
  8
0
 62
     4
 10
-17.872070
 20
-108.563843
 11
-17.872070
 21
-28.563843
  0
LINE
  8
0
 62
     4
 10
-17.873383
 20
-108.563843
 11
-92.873383
 21
-108.563843
  0
LINE
  8
0
 62
     4
 10
-17.873383
 20
-28.563843
 11
-92.873383
 21
-28.563843
  0
LINE
  8
0
 62
     4
 10
-92.872070
 20
-108.563843
 11
-92.872070
 21
-93.563843
  0
LINE
  8
0
 62
     4
 10
-92.872070
 20
-28.563843
 11
-92.872070
 21
-43.563843
  0
LINE
  8
0
  6
CENTER
 62
     1
 10
-187.873383
 20
-68.563843
 11
-12.873383
 21
-68.563843
  0
LINE
  8
0
  6
CENTER
 62
     1
 10
-142.872070
 20
-97.563843
 11
-142.872070
 21
-39.563843
  0
LINE
  8
0
 62
     4
 10
-174.098373
 20
-93.563843
 11
-92.873383
 21
-93.563843
  0
LINE
  8
0
 62
     4
 10
-174.098373
 20
-43.563843
 11
-92.873383
 21
-43.563843
  0
LINE
  8
0
  6
DASHED
 62
     1
 10
-162.872070
 20
-93.563843
 11
-162.872070
 21
-43.563843
  0
LINE
  8
0
  6
DASHED
 62
     1
 10
-122.872070
 20
-93.563843
 11
-122.872070
 21
-43.563843
  0
LINE
  8
0
  6
DASHED
 62
     1
 10
-63.873383
 20
-40.563843
 11
-17.873383
 21
-40.563843
  0
LINE
  8
0
  6
DASHED
 62
     1
 10
-63.873383
 20
-96.563843
 11
-17.873383
 21
-96.563843
  0
LINE
  8
0
  6
DASHED
 62
     1
 10
-63.872070
 20
-96.563843
 11
-63.872070
 21
-40.563843
  0
LINE
  8
0
  6
DASHED
 62
     1
 10
-68.872070
 20
-95.481339
 11
-68.872070
 21
-41.646343
  0
LINE
  8
0
  6
DASHED
 62
     1
 10
-84.460426
 20
-68.646217
 11
-68.872055
 21
-41.646351
  0
LINE
  8
0
  6
DASHED
 62
     1
 10
-68.872070
 20
-95.481339
 11
-17.872070
 21
-95.481339
  0
LINE
  8
0
  6
DASHED
 62
     1
 10
-68.872070
 20
-41.646343
 11
-17.872070
 21
-41.646343
  0
LINE
  8
0
  6
DASHED
 62
     1
 10
-84.460464
 20
-68.481483
 11
-68.872093
 21
-95.481346
  0
CIRCLE
  8
0
 62
     4
 10
-205.001404
 20
60.000000
 40
20.000000
  0
ARC
  8
0
 62
     4
 10
-205.001404
 20
60.000000
 40
40.000000
 50
90.000000
 51
270.000000
  0
ARC
  8
0
 62
     4
 10
-205.001404
 20
60.000000
 40
31.224991
 50
90.000000
 51
270.000000
  0
CIRCLE
  8
0
 62
     4
 10
-346.489655
 20
60.000000
 40
40.000000
  0
ARC
  8
0
 62
     4
 10
-205.001434
 20
195.000000
 40
40.000000
 50
141.317810
 51
218.682220
  0
CIRCLE
  8
0
 62
     4
 10
201.135620
 20
60.000092
 40
20.000000
  0
ARC
  8
0
 62
     4
 10
201.135620
 20
60.000092
 40
40.000000
 50
90.000000
 51
270.000000
  0
ARC
  8
0
 62
     4
 10
201.135620
 20
60.000092
 40
31.224991
 50
90.000000
 51
269.999939
  0
CIRCLE
  8
0
 62
     4
 10
57.372406
 20
60.000092
 40
40.000000
  0
ARC
  8
0
 62
     4
 10
201.135590
 20
195.000000
 40
40.000000
 50
141.317810
 51
218.682220
  0
CIRCLE
  8
0
 62
     4
 10
-142.873352
 20
-208.563843
 40
20.000000
  0
ARC
  8
0
 62
     4
 10
-142.873352
 20
-208.563843
 40
40.000000
 50
90.000000
 51
270.000000
  0
ARC
  8
0
 62
     4
 10
-142.873352
 20
-208.563843
 40
31.224991
 50
90.000000
 51
270.000000
  0
CIRCLE
  8
0
 62
     4
 10
-305.991516
 20
-208.563843
 40
40.000000
  0
ARC
  8
0
 62
     4
 10
-142.873383
 20
-68.563843
 40
40.000004
 50
141.317810
 51
218.682220
  0
TEXT
  8
0
 62
     1
 10
-47.014771
 20
-133077.250000
 40
20.000000
  1
I-SD125
 50
90.000000
 41
1.052632
 51
0.000000
  7
STANDARD
  0
TEXT
  8
0
 62
     1
 10
-47.014771
 20
-133077.250000
 40
20.000000
  1
I-SD125
 50
90.000000
 41
1.052632
 51
0.000000
  7
STANDARD
  0
TEXT
  8
0
 62
     1
 10
-47.014771
 20
-133077.250000
 40
20.000000
  1
I-SD125
 50
90.000000
 41
1.052632
 51
0.000000
  7
STANDARD
  0
TEXT
  8
0
 62
     1
 10
-47.014771
 20
-133077.250000
 40
20.000000
  1
I-SD125
 50
90.000000
 41
1.052632
 51
0.000000
  7
STANDARD
  0
TEXT
  8
0
 62
     1
 10
-47.014771
 20
-133077.250000
 40
20.000000
  1
I-SD125
 50
90.000000
 41
1.052632
 51
0.000000
  7
STANDARD
  0
TEXT
  8
0
 62
     1
 10
-77.001373
 20
1243.034424
 40
20.000000
  1
I-SD200
 50
90.000000
 41
1.052632
 51
0.000000
  7
STANDARD
  0
TEXT
  8
0
 10
-387.785309
 20
256.649994
 40
9.000000
  1
SD I-KNUCKLE,-I
 50
0.000000
 41
1.052632
 51
0.000000
  7
STANDARD
  0
TEXT
  8
0
 10
242.014816
 20
-274.500000
 40
12.500000
  1
KOGANEI CORP.
 50
0.000000
 41
1.052632
 51
0.000000
  7
STANDARD
  0
TEXT
  8
0
 10
251.264664
 20
256.649994
 40
9.000000
  1
DATE: AUG ,1993
 50
0.000000
 41
1.052632
 51
0.000000
  7
STANDARD
  0
TEXT
  8
0
 10
-384.785309
 20
-52.350002
 40
9.000000
  1
MODEL:I-SDZ200
 50
0.000000
 41
1.052632
 51
0.000000
  7
STANDARD
  0
TEXT
  8
0
 10
-384.785309
 20
224.149994
 40
9.000000
  1
MODEL:I-SD180
 50
0.000000
 41
1.052632
 51
0.000000
  7
STANDARD
  0
TEXT
  8
0
 10
14.739680
 20
224.149994
 40
9.000000
  1
MODEL:I-SD200
 50
0.000000
 41
1.052632
 51
0.000000
  7
STANDARD
  0
ENDSEC
  0
EOF
