  0
SECTION
  2
HEADER
  0
ENDSEC
  0
SECTION
  2
TABLES
  0
TABLE
  2
LTYPE
 70
     4
  0
LTYPE
  2
CONTINUOUS
 70
    64
  3
Solid line
 72
    65
 73
     0
 40
0.000000
  0
LTYPE
  2
DASHED
 70
    64
  3
__ __ __ __ __ __ __ __ __ __ __ __ __ __ __
 72
    65
 73
     2
 40
3.500000
 49
2.000000
 49
-1.500000
  0
LTYPE
  2
CENTER
 70
    64
  3
____ _ ____ _ ____ _ ____ _ ____ _ ____ _ ____
 72
    65
 73
     4
 40
17.500000
 49
13.000000
 49
-1.500000
 49
1.500000
 49
-1.500000
  0
LTYPE
  2
PHANTOM
 70
    64
  3
_____ _ _ _____ _ _ _____ _ _ _____ _ _ ____  
 72
    65
 73
     6
 40
15.500000
 49
8.000000
 49
-1.500000
 49
1.500000
 49
-1.500000
 49
1.500000
 49
-1.500000
  0
LTYPE
  2
DASHED1
 70
    64
  3
__ __ __ __ __ __ __ __ __ __ __ __ __ __ __
 72
    65
 73
     2
 40
1.500000
 49
1.000000
 49
-0.500000
  0
LTYPE
  2
DASHED2
 70
    64
  3
__ __ __ __ __ __ __ __ __ __ __ __ __ __ __
 72
    65
 73
     2
 40
3.500000
 49
2.500000
 49
-1.000000
  0
LTYPE
  2
DASHED3
 70
    64
  3
__ __ __ __ __ __ __ __ __ __ __ __ __ __ __
 72
    65
 73
     2
 40
6.000000
 49
4.000000
 49
-2.000000
  0
LTYPE
  2
DASHED4
 70
    64
  3
__ __ __ __ __ __ __ __ __ __ __ __ __ __ __
 72
    65
 73
     2
 40
12.000000
 49
10.000000
 49
-2.000000
  0
LTYPE
  2
DASHED5
 70
    64
  3
__ __ __ __ __ __ __ __ __ __ __ __ __ __ __
 72
    65
 73
     2
 40
17.000000
 49
15.000000
 49
-2.000000
  0
LTYPE
  2
DASHED6
 70
    64
  3
__ __ __ __ __ __ __ __ __ __ __ __ __ __ __
 72
    65
 73
     2
 40
29.000000
 49
27.000000
 49
-2.000000
  0
LTYPE
  2
PHANTOM1
 70
    64
  3
_____ _ _ _____ _ _ _____ _ _ _____ _ _ ____  
 72
    65
 73
     6
 40
31.000000
 49
25.000000
 49
-1.500000
 49
1.000000
 49
-1.000000
 49
1.000000
 49
-1.500000
  0
LTYPE
  2
PHANTOM2
 70
    64
  3
_____ _ _ _____ _ _ _____ _ _ _____ _ _ ____  
 72
    65
 73
     6
 40
36.000000
 49
27.000000
 49
-1.500000
 49
2.500000
 49
-1.000000
 49
2.500000
 49
-1.500000
  0
LTYPE
  2
PHANTOM3
 70
    64
  3
_____ _ _ _____ _ _ _____ _ _ _____ _ _ ____  
 72
    65
 73
     6
 40
78.000000
 49
64.000000
 49
-2.000000
 49
4.000000
 49
-2.000000
 49
4.000000
 49
-2.000000
  0
LTYPE
  2
CENTER1
 70
    64
  3
____ _ ____ _ ____ _ ____ _ ____ _ ____ _ ____
 72
    65
 73
     4
 40
19.000000
 49
14.000000
 49
-1.000000
 49
3.000000
 49
-1.000000
  0
LTYPE
  2
CENTER2
 70
    64
  3
____ _ ____ _ ____ _ ____ _ ____ _ ____ _ ____
 72
    65
 73
     4
 40
28.500000
 49
25.000000
 49
-1.000000
 49
1.500000
 49
-1.000000
  0
LTYPE
  2
CENTER3
 70
    64
  3
____ _ ____ _ ____ _ ____ _ ____ _ ____ _ ____
 72
    65
 73
     4
 40
31.500000
 49
27.000000
 49
-1.000000
 49
2.500000
 49
-1.000000
  0
LTYPE
  2
CENTER4
 70
    64
  3
____ _ ____ _ ____ _ ____ _ ____ _ ____ _ ____
 72
    65
 73
     4
 40
50.000000
 49
45.000000
 49
-1.000000
 49
3.000000
 49
-1.000000
  0
LTYPE
  2
CENTER5
 70
    64
  3
____ _ ____ _ ____ _ ____ _ ____ _ ____ _ ____
 72
    65
 73
     4
 40
100.000000
 49
92.000000
 49
-2.000000
 49
4.000000
 49
-2.000000
  0
LTYPE
  2
SBK1
 70
    64
  3
______ _ _ _ ______ _ _ _ ______ _ _ _ _____  
 72
    65
 73
     8
 40
60.500000
 49
45.000000
 49
-2.000000
 49
2.500000
 49
-2.000000
 49
2.500000
 49
-2.000000
 49
2.500000
 49
-2.000000
  0
LTYPE
  2
SBK2
 70
    64
  3
______ _ _ _ ______ _ _ _ ______ _ _ _ _____  
 72
    65
 73
     8
 40
84.000000
 49
64.000000
 49
-2.000000
 49
4.000000
 49
-2.000000
 49
4.000000
 49
-2.000000
 49
4.000000
 49
-2.000000
  0
LTYPE
  2
STCH
 70
    64
  3
__ __ __ __ __ __ __ __ __ __ __ __ __ __ __
 72
    65
 73
     2
 40
3.000000
 49
1.000000
 49
-2.000000
  0
LTYPE
  2
MTCH
 70
    64
  3
_____ _ _ _____ _ _ _____ _ _ _____ _ _ ____  
 72
    65
 73
     6
 40
80.000000
 49
66.000000
 49
-2.000000
 49
4.000000
 49
-2.000000
 49
4.000000
 49
-2.000000
  0
ENDTAB
  0
TABLE
  2
LAYER
 70
     1
  0
LAYER
  2
0
 70
     0
 62
     7
  6
CONTINUOUS
  0
ENDTAB
  0
TABLE
  2
STYLE
 70
     1
  0
STYLE
  2
STANDARD
 70
     0
 40
0.000000
 41
1.000000
 50
0.000000
 71
     0
 42
0.200000
  3
txt
  4
BIGFONT
  0
ENDTAB
  0
TABLE
  2
VIEW
 70
     0
  0
ENDTAB
  0
ENDSEC
  0
SECTION
  2
BLOCKS
  0
ENDSEC
  0
SECTION
  2
ENTITIES
  0
LINE
  8
0
 10
399.799988
 20
276.250000
 11
399.799988
 21
-276.750000
  0
LINE
  8
0
 10
-399.250000
 20
276.250000
 11
-399.250000
 21
-276.750000
  0
LINE
  8
0
 10
-399.250000
 20
276.250000
 11
399.799988
 21
276.250000
  0
LINE
  8
0
 10
-399.250000
 20
-276.750000
 11
399.799988
 21
-276.750000
  0
LINE
  8
0
 10
239.799988
 20
-251.750000
 11
399.799988
 21
-251.750000
  0
LINE
  8
0
 10
239.799988
 20
251.250000
 11
399.799988
 21
251.250000
  0
LINE
  8
0
 10
-399.250000
 20
251.250000
 11
-239.250000
 21
251.250000
  0
LINE
  8
0
 10
239.799988
 20
-251.750000
 11
239.799988
 21
-276.750000
  0
LINE
  8
0
 10
239.799988
 20
251.250000
 11
239.799988
 21
276.250000
  0
LINE
  8
0
 10
-239.250000
 20
276.250000
 11
-239.250000
 21
251.250000
  0
LINE
  8
0
 10
0.274994
 20
-276.750000
 11
0.274994
 21
276.250000
  0
LINE
  8
0
  6
CENTER
 62
     1
 10
-387.225525
 20
-109.930267
 11
-281.554901
 21
-109.930267
  0
LINE
  8
0
  6
CENTER
 62
     1
 10
-387.225525
 20
-52.430267
 11
-359.225525
 21
-52.430267
  0
LINE
  8
0
  6
CENTER
 62
     1
 10
-387.225525
 20
-167.430267
 11
-359.225525
 21
-167.430267
  0
LINE
  8
0
 62
     4
 10
-382.225525
 20
-37.430267
 11
-382.225525
 21
-182.430267
  0
LINE
  8
0
 62
     4
 10
-382.225525
 20
-37.430267
 11
-364.225525
 21
-37.430267
  0
LINE
  8
0
 62
     4
 10
-382.225525
 20
-182.430267
 11
-364.225525
 21
-182.430267
  0
LINE
  8
0
 62
     4
 10
-364.225525
 20
-37.430267
 11
-364.225525
 21
-182.430267
  0
LINE
  8
0
 62
     4
 10
-362.165894
 20
-154.250412
 11
-308.448914
 21
-136.519196
  0
LINE
  8
0
 62
     4
 10
-362.165863
 20
-65.610115
 11
-308.448883
 21
-83.341331
  0
LINE
  8
0
  6
CENTER
 62
     1
 10
-317.225525
 20
-74.685028
 11
-317.225525
 21
-143.716034
  0
LINE
  8
0
  6
CENTER
 62
     1
 10
-220.842743
 20
-109.930267
 11
-59.314575
 21
-109.930267
  0
LINE
  8
0
  6
CENTER
 62
     1
 10
-142.725525
 20
-33.430267
 11
-142.725525
 21
-186.180267
  0
LINE
  8
0
 62
     4
 10
-215.225525
 20
-37.430267
 11
-70.225525
 21
-37.430267
  0
LINE
  8
0
 62
     4
 10
-215.225525
 20
-182.430267
 11
-70.225525
 21
-182.430267
  0
LINE
  8
0
  6
CENTER
 62
     1
 10
-85.225525
 20
-37.930267
 11
-85.225525
 21
-66.930267
  0
LINE
  8
0
  6
CENTER
 62
     1
 10
-200.225525
 20
-37.430267
 11
-200.225525
 21
-65.930267
  0
LINE
  8
0
  6
CENTER
 62
     1
 10
-213.475525
 20
-52.430267
 11
-186.475525
 21
-52.430267
  0
LINE
  8
0
  6
CENTER
 62
     1
 10
-213.725525
 20
-167.430267
 11
-186.725525
 21
-167.430267
  0
LINE
  8
0
  6
CENTER
 62
     1
 10
-200.225525
 20
-152.430267
 11
-200.225525
 21
-182.180267
  0
LINE
  8
0
  6
CENTER
 62
     1
 10
-97.475525
 20
-167.430267
 11
-71.225525
 21
-167.430267
  0
LINE
  8
0
  6
CENTER
 62
     1
 10
-85.225525
 20
-151.680267
 11
-85.225525
 21
-180.930267
  0
LINE
  8
0
  6
CENTER
 62
     1
 10
-98.475525
 20
-52.430267
 11
-72.225525
 21
-52.430267
  0
LINE
  8
0
 62
     4
 10
-70.225525
 20
-37.430267
 11
-70.225525
 21
-182.430267
  0
LINE
  8
0
 62
     4
 10
-215.225525
 20
-37.430267
 11
-215.225525
 21
-182.430267
  0
LINE
  8
0
 62
     4
 10
-158.725525
 20
-81.930267
 11
-158.725525
 21
-137.930267
  0
LINE
  8
0
 62
     4
 10
-126.725525
 20
-81.930267
 11
-126.725525
 21
-137.930267
  0
LINE
  8
0
 62
     4
 10
-155.725525
 20
-67.930267
 11
-155.725525
 21
-79.930267
  0
LINE
  8
0
 62
     4
 10
-129.725525
 20
-67.930267
 11
-129.725525
 21
-79.930267
  0
LINE
  8
0
 62
     4
 10
-158.725525
 20
-137.930267
 11
-157.725525
 21
-137.930267
  0
LINE
  8
0
 62
     4
 10
-158.725525
 20
-81.930267
 11
-157.725525
 21
-81.930267
  0
LINE
  8
0
 62
     4
 10
-155.725525
 20
-139.930267
 11
-155.725525
 21
-151.930267
  0
LINE
  8
0
 62
     4
 10
-129.725525
 20
-139.930267
 11
-129.725525
 21
-151.930267
  0
LINE
  8
0
 62
     4
 10
-127.725525
 20
-81.930267
 11
-126.725525
 21
-81.930267
  0
LINE
  8
0
 62
     4
 10
-127.725525
 20
-137.930267
 11
-126.725525
 21
-137.930267
  0
LINE
  8
0
  6
DASHED
 62
     1
 10
-158.725525
 20
-122.430267
 11
-126.725525
 21
-122.430267
  0
LINE
  8
0
  6
DASHED
 62
     1
 10
-158.725525
 20
-97.430267
 11
-126.725525
 21
-97.430267
  0
LINE
  8
0
 62
     4
 10
-382.225525
 20
170.281464
 11
-382.225525
 21
25.281464
  0
LINE
  8
0
 62
     4
 10
-364.225525
 20
170.281464
 11
-364.225525
 21
25.281464
  0
LINE
  8
0
 62
     4
 10
-289.225525
 20
113.781464
 11
-289.225525
 21
81.781464
  0
LINE
  8
0
 62
     4
 10
-345.225525
 20
113.781464
 11
-345.225525
 21
110.781464
  0
LINE
  8
0
 62
     4
 10
-382.225525
 20
25.281464
 11
-364.225525
 21
25.281464
  0
LINE
  8
0
 62
     4
 10
-382.225525
 20
170.281464
 11
-364.225525
 21
170.281464
  0
LINE
  8
0
  6
CENTER
 62
     1
 10
-387.225525
 20
97.781464
 11
-281.554901
 21
97.781464
  0
LINE
  8
0
 62
     4
 10
-345.225525
 20
81.781464
 11
-289.225525
 21
81.781464
  0
LINE
  8
0
 62
     4
 10
-345.225525
 20
113.781464
 11
-289.225525
 21
113.781464
  0
LINE
  8
0
 62
     4
 10
-361.225525
 20
110.781464
 11
-308.448883
 21
110.781464
  0
LINE
  8
0
 62
     4
 10
-361.225525
 20
84.781464
 11
-308.448883
 21
84.781464
  0
LINE
  8
0
 62
     4
 10
-345.225525
 20
84.781464
 11
-345.225525
 21
81.781464
  0
LINE
  8
0
  6
CENTER
 62
     1
 10
-387.225525
 20
155.281464
 11
-359.225525
 21
155.281464
  0
LINE
  8
0
  6
CENTER
 62
     1
 10
-387.225525
 20
40.281464
 11
-359.225525
 21
40.281464
  0
LINE
  8
0
  6
CENTER
 62
     1
 10
-317.225525
 20
121.368736
 11
-317.225525
 21
74.022606
  0
LINE
  8
0
  6
CENTER
 62
     1
 10
7.024960
 20
-109.930298
 11
126.163498
 21
-109.930298
  0
LINE
  8
0
 62
     4
 10
14.390205
 20
-29.930298
 11
14.390205
 21
-189.930298
  0
LINE
  8
0
 62
     4
 10
14.390205
 20
-189.930298
 11
34.390205
 21
-189.930298
  0
LINE
  8
0
  6
CENTER
 62
     1
 10
9.390209
 20
-45.930298
 11
39.390205
 21
-45.930298
  0
LINE
  8
0
  6
CENTER
 62
     1
 10
9.390209
 20
-173.930298
 11
39.390205
 21
-173.930298
  0
LINE
  8
0
 62
     4
 10
34.390205
 20
-29.930298
 11
34.390205
 21
-189.930298
  0
LINE
  8
0
  6
CENTER
 62
     1
 10
89.390213
 20
-71.094757
 11
89.390213
 21
-148.586761
  0
LINE
  8
0
 62
     4
 10
36.424469
 20
-161.738647
 11
99.691536
 21
-140.226913
  0
LINE
  8
0
 62
     4
 10
36.424488
 20
-58.121948
 11
99.691544
 21
-79.633690
  0
LINE
  8
0
 62
     4
 10
14.390205
 20
-29.930298
 11
34.390205
 21
-29.930298
  0
LINE
  8
0
  6
CENTER
 62
     1
 10
157.482864
 20
-109.930298
 11
335.859955
 21
-109.930298
  0
LINE
  8
0
  6
CENTER
 62
     1
 10
245.890198
 20
-26.087570
 11
245.890198
 21
-195.411011
  0
LINE
  8
0
  6
CENTER
 62
     1
 10
309.890198
 20
-31.430298
 11
309.890198
 21
-60.430298
  0
LINE
  8
0
  6
CENTER
 62
     1
 10
181.890213
 20
-30.930298
 11
181.890213
 21
-59.430298
  0
LINE
  8
0
  6
CENTER
 62
     1
 10
168.640213
 20
-45.930298
 11
195.640213
 21
-45.930298
  0
LINE
  8
0
  6
CENTER
 62
     1
 10
168.390213
 20
-173.930298
 11
195.390213
 21
-173.930298
  0
LINE
  8
0
  6
CENTER
 62
     1
 10
181.890213
 20
-158.930298
 11
181.890213
 21
-188.680298
  0
LINE
  8
0
  6
CENTER
 62
     1
 10
297.640198
 20
-173.930298
 11
323.890198
 21
-173.930298
  0
LINE
  8
0
  6
CENTER
 62
     1
 10
309.890198
 20
-158.180298
 11
309.890198
 21
-187.430298
  0
LINE
  8
0
  6
CENTER
 62
     1
 10
296.640198
 20
-45.930298
 11
322.890198
 21
-45.930298
  0
LINE
  8
0
 62
     4
 10
165.890213
 20
-29.930298
 11
165.890213
 21
-189.930298
  0
LINE
  8
0
 62
     4
 10
325.890198
 20
-29.930298
 11
325.890198
 21
-189.930298
  0
LINE
  8
0
 62
     4
 10
165.890213
 20
-189.930298
 11
325.890198
 21
-189.930298
  0
LINE
  8
0
 62
     4
 10
165.890213
 20
-29.930298
 11
325.890198
 21
-29.930298
  0
LINE
  8
0
 62
     4
 10
227.890198
 20
-77.930298
 11
227.890198
 21
-141.930298
  0
LINE
  8
0
 62
     4
 10
263.890198
 20
-77.930298
 11
263.890198
 21
-141.930298
  0
LINE
  8
0
 62
     4
 10
260.890198
 20
-60.430298
 11
260.890198
 21
-75.930298
  0
LINE
  8
0
 62
     4
 10
230.890198
 20
-60.430298
 11
230.890198
 21
-75.930298
  0
LINE
  8
0
 62
     4
 10
227.890198
 20
-77.930298
 11
228.890198
 21
-77.930298
  0
LINE
  8
0
 62
     4
 10
227.890198
 20
-141.930298
 11
228.890198
 21
-141.930298
  0
LINE
  8
0
  6
DASHED
 62
     1
 10
227.890198
 20
-123.930298
 11
263.890198
 21
-123.930298
  0
LINE
  8
0
  6
DASHED
 62
     1
 10
227.890198
 20
-95.930298
 11
263.890198
 21
-95.930298
  0
LINE
  8
0
 62
     4
 10
262.890198
 20
-77.930298
 11
263.890198
 21
-77.930298
  0
LINE
  8
0
 62
     4
 10
260.890198
 20
-143.930298
 11
260.890198
 21
-159.430298
  0
LINE
  8
0
 62
     4
 10
230.890198
 20
-143.930298
 11
230.890198
 21
-159.430298
  0
LINE
  8
0
 62
     4
 10
262.890198
 20
-141.930298
 11
263.890198
 21
-141.930298
  0
LINE
  8
0
 62
     4
 10
34.390205
 20
177.781464
 11
34.390205
 21
17.781464
  0
LINE
  8
0
 62
     4
 10
14.390205
 20
177.781464
 11
14.390205
 21
17.781464
  0
LINE
  8
0
 62
     4
 10
14.390205
 20
17.781464
 11
34.390205
 21
17.781464
  0
LINE
  8
0
  6
CENTER
 62
     1
 10
9.390209
 20
97.781464
 11
126.163498
 21
97.781464
  0
LINE
  8
0
 62
     4
 10
14.390205
 20
177.781464
 11
34.390205
 21
177.781464
  0
LINE
  8
0
 62
     4
 10
121.390213
 20
115.781464
 11
121.390213
 21
79.781464
  0
LINE
  8
0
 62
     4
 10
57.390205
 20
115.781464
 11
57.390205
 21
112.781464
  0
LINE
  8
0
 62
     4
 10
57.390205
 20
115.781464
 11
121.390213
 21
115.781464
  0
LINE
  8
0
 62
     4
 10
57.390205
 20
79.781464
 11
121.390213
 21
79.781464
  0
LINE
  8
0
 62
     4
 10
37.390205
 20
82.781464
 11
99.691528
 21
82.781464
  0
LINE
  8
0
 62
     4
 10
37.390205
 20
112.781464
 11
99.691528
 21
112.781464
  0
LINE
  8
0
 62
     4
 10
57.390205
 20
82.781464
 11
57.390205
 21
79.781464
  0
LINE
  8
0
  6
CENTER
 62
     1
 10
89.390213
 20
136.617004
 11
89.390213
 21
59.125000
  0
LINE
  8
0
  6
CENTER
 62
     1
 10
9.390209
 20
161.781464
 11
39.390205
 21
161.781464
  0
LINE
  8
0
  6
CENTER
 62
     1
 10
9.390209
 20
33.781464
 11
39.390205
 21
33.781464
  0
CIRCLE
  8
0
 62
     4
 10
-317.225525
 20
-109.930267
 40
28.000000
  0
CIRCLE
  8
0
 62
     4
 10
-317.225525
 20
-109.930267
 40
12.500000
  0
ARC
  8
0
 62
     4
 10
-361.225525
 20
-62.761314
 40
3.000000
 50
180.000000
 51
251.732407
  0
ARC
  8
0
 62
     4
 10
-361.225525
 20
-157.099213
 40
3.000008
 50
108.267593
 51
180.000000
  0
CIRCLE
  8
0
 62
     1
 10
-200.225525
 20
-167.430267
 40
7.000000
  0
CIRCLE
  8
0
 62
     1
 10
-85.225525
 20
-167.430267
 40
7.000000
  0
CIRCLE
  8
0
 62
     1
 10
-85.225525
 20
-52.430267
 40
7.000000
  0
CIRCLE
  8
0
 62
     1
 10
-200.225525
 20
-52.430267
 40
7.000000
  0
CIRCLE
  8
0
 62
     4
 10
-85.225525
 20
-52.430267
 40
5.600000
  0
CIRCLE
  8
0
 62
     4
 10
-200.225525
 20
-52.430267
 40
5.600000
  0
CIRCLE
  8
0
 62
     4
 10
-85.225525
 20
-167.430267
 40
5.600000
  0
CIRCLE
  8
0
 62
     4
 10
-200.225525
 20
-167.430267
 40
5.600000
  0
ARC
  8
0
 62
     4
 10
-158.725525
 20
-67.930267
 40
3.000000
 50
0.000000
 51
90.000000
  0
ARC
  8
0
 62
     4
 10
-126.725525
 20
-67.930267
 40
3.000000
 50
90.000000
 51
180.000000
  0
ARC
  8
0
 62
     4
 10
-158.725525
 20
-151.930267
 40
3.000000
 50
270.000000
 51
0.000000
  0
ARC
  8
0
 62
     4
 10
-126.725525
 20
-151.930267
 40
3.000000
 50
180.000000
 51
270.000000
  0
ARC
  8
0
 62
     4
 10
-157.725525
 20
-79.930267
 40
2.000000
 50
270.000000
 51
0.000000
  0
ARC
  8
0
 62
     4
 10
-127.725525
 20
-79.930267
 40
2.000000
 50
180.000000
 51
270.000000
  0
ARC
  8
0
 62
     4
 10
-157.725525
 20
-139.930267
 40
2.000000
 50
0.000000
 51
90.000000
  0
ARC
  8
0
 62
     4
 10
-127.725525
 20
-139.930267
 40
2.000000
 50
90.000000
 51
180.000000
  0
ARC
  8
0
 62
     4
 10
-361.225525
 20
113.781464
 40
3.000000
 50
180.000000
 51
270.000000
  0
ARC
  8
0
 62
     4
 10
-361.225525
 20
81.781464
 40
3.000000
 50
90.000000
 51
180.000000
  0
ARC
  8
0
 62
     4
 10
37.390205
 20
-55.281670
 40
3.000000
 50
180.000000
 51
251.221176
  0
CIRCLE
  8
0
 62
     4
 10
89.390213
 20
-109.930298
 40
32.000000
  0
CIRCLE
  8
0
 62
     4
 10
89.390213
 20
-109.930298
 40
14.000000
  0
ARC
  8
0
 62
     4
 10
37.390205
 20
-164.578934
 40
2.999997
 50
108.778854
 51
180.000000
  0
CIRCLE
  8
0
 62
     1
 10
181.890213
 20
-173.930298
 40
7.000000
  0
CIRCLE
  8
0
 62
     1
 10
309.890198
 20
-173.930298
 40
7.000000
  0
CIRCLE
  8
0
 62
     1
 10
309.890198
 20
-45.930298
 40
7.000000
  0
CIRCLE
  8
0
 62
     1
 10
181.890213
 20
-45.930298
 40
7.000000
  0
CIRCLE
  8
0
 62
     4
 10
309.890198
 20
-173.930298
 40
5.600000
  0
CIRCLE
  8
0
 62
     4
 10
309.890198
 20
-45.930298
 40
5.600000
  0
CIRCLE
  8
0
 62
     4
 10
181.890213
 20
-45.930298
 40
5.600000
  0
CIRCLE
  8
0
 62
     4
 10
181.890213
 20
-173.930298
 40
5.600000
  0
ARC
  8
0
 62
     4
 10
228.890198
 20
-75.930298
 40
2.000000
 50
270.000000
 51
0.000000
  0
ARC
  8
0
 62
     4
 10
262.890198
 20
-75.930298
 40
2.000000
 50
180.000000
 51
270.000000
  0
ARC
  8
0
 62
     4
 10
262.890198
 20
-143.930298
 40
2.000000
 50
90.000000
 51
180.000000
  0
ARC
  8
0
 62
     4
 10
228.890198
 20
-143.930298
 40
2.000000
 50
0.000000
 51
90.000000
  0
ARC
  8
0
 62
     4
 10
227.890198
 20
-159.430298
 40
3.000000
 50
270.000000
 51
0.000000
  0
ARC
  8
0
 62
     4
 10
263.890198
 20
-159.430298
 40
3.000000
 50
180.000000
 51
270.000000
  0
ARC
  8
0
 62
     4
 10
263.890198
 20
-60.430298
 40
3.000000
 50
90.000000
 51
180.000000
  0
ARC
  8
0
 62
     4
 10
227.890198
 20
-60.430298
 40
3.000000
 50
0.000000
 51
90.000000
  0
ARC
  8
0
 62
     4
 10
37.390205
 20
115.781464
 40
3.000000
 50
180.000000
 51
270.000000
  0
ARC
  8
0
 62
     4
 10
37.390205
 20
79.781464
 40
3.000000
 50
90.000000
 51
180.000000
  0
TEXT
  8
0
 10
-374.285309
 20
256.649994
 40
9.000000
  1
SD I-TYPE,-8
 50
0.000000
 41
1.052632
 51
0.000000
  7
STANDARD
  0
TEXT
  8
0
 10
242.014816
 20
-274.500000
 40
12.500000
  1
KOGANEI CORP.
 50
0.000000
 41
1.052632
 51
0.000000
  7
STANDARD
  0
TEXT
  8
0
 10
251.264664
 20
256.649994
 40
9.000000
  1
DATE: AUG ,1993
 50
0.000000
 41
1.052632
 51
0.000000
  7
STANDARD
  0
TEXT
  8
0
 10
14.739680
 20
224.149994
 40
9.000000
  1
BORE:140
 50
0.000000
 41
1.052632
 51
0.000000
  7
STANDARD
  0
TEXT
  8
0
 10
-384.785309
 20
224.149994
 40
9.000000
  1
BORE:125
 50
0.000000
 41
1.052632
 51
0.000000
  7
STANDARD
  0
ENDSEC
  0
EOF
