  0
SECTION
  2
HEADER
  0
ENDSEC
  0
SECTION
  2
TABLES
  0
TABLE
  2
LTYPE
 70
     4
  0
LTYPE
  2
CONTINUOUS
 70
    64
  3
Solid line
 72
    65
 73
     0
 40
0.000000
  0
LTYPE
  2
DASHED
 70
    64
  3
__ __ __ __ __ __ __ __ __ __ __ __ __ __ __
 72
    65
 73
     2
 40
3.500000
 49
2.000000
 49
-1.500000
  0
LTYPE
  2
CENTER
 70
    64
  3
____ _ ____ _ ____ _ ____ _ ____ _ ____ _ ____
 72
    65
 73
     4
 40
17.500000
 49
13.000000
 49
-1.500000
 49
1.500000
 49
-1.500000
  0
LTYPE
  2
PHANTOM
 70
    64
  3
_____ _ _ _____ _ _ _____ _ _ _____ _ _ ____  
 72
    65
 73
     6
 40
15.500000
 49
8.000000
 49
-1.500000
 49
1.500000
 49
-1.500000
 49
1.500000
 49
-1.500000
  0
LTYPE
  2
DASHED1
 70
    64
  3
__ __ __ __ __ __ __ __ __ __ __ __ __ __ __
 72
    65
 73
     2
 40
1.500000
 49
1.000000
 49
-0.500000
  0
LTYPE
  2
DASHED2
 70
    64
  3
__ __ __ __ __ __ __ __ __ __ __ __ __ __ __
 72
    65
 73
     2
 40
3.500000
 49
2.500000
 49
-1.000000
  0
LTYPE
  2
DASHED3
 70
    64
  3
__ __ __ __ __ __ __ __ __ __ __ __ __ __ __
 72
    65
 73
     2
 40
6.000000
 49
4.000000
 49
-2.000000
  0
LTYPE
  2
DASHED4
 70
    64
  3
__ __ __ __ __ __ __ __ __ __ __ __ __ __ __
 72
    65
 73
     2
 40
12.000000
 49
10.000000
 49
-2.000000
  0
LTYPE
  2
DASHED5
 70
    64
  3
__ __ __ __ __ __ __ __ __ __ __ __ __ __ __
 72
    65
 73
     2
 40
17.000000
 49
15.000000
 49
-2.000000
  0
LTYPE
  2
DASHED6
 70
    64
  3
__ __ __ __ __ __ __ __ __ __ __ __ __ __ __
 72
    65
 73
     2
 40
29.000000
 49
27.000000
 49
-2.000000
  0
LTYPE
  2
PHANTOM1
 70
    64
  3
_____ _ _ _____ _ _ _____ _ _ _____ _ _ ____  
 72
    65
 73
     6
 40
31.000000
 49
25.000000
 49
-1.500000
 49
1.000000
 49
-1.000000
 49
1.000000
 49
-1.500000
  0
LTYPE
  2
PHANTOM2
 70
    64
  3
_____ _ _ _____ _ _ _____ _ _ _____ _ _ ____  
 72
    65
 73
     6
 40
36.000000
 49
27.000000
 49
-1.500000
 49
2.500000
 49
-1.000000
 49
2.500000
 49
-1.500000
  0
LTYPE
  2
PHANTOM3
 70
    64
  3
_____ _ _ _____ _ _ _____ _ _ _____ _ _ ____  
 72
    65
 73
     6
 40
78.000000
 49
64.000000
 49
-2.000000
 49
4.000000
 49
-2.000000
 49
4.000000
 49
-2.000000
  0
LTYPE
  2
CENTER1
 70
    64
  3
____ _ ____ _ ____ _ ____ _ ____ _ ____ _ ____
 72
    65
 73
     4
 40
19.000000
 49
14.000000
 49
-1.000000
 49
3.000000
 49
-1.000000
  0
LTYPE
  2
CENTER2
 70
    64
  3
____ _ ____ _ ____ _ ____ _ ____ _ ____ _ ____
 72
    65
 73
     4
 40
28.500000
 49
25.000000
 49
-1.000000
 49
1.500000
 49
-1.000000
  0
LTYPE
  2
CENTER3
 70
    64
  3
____ _ ____ _ ____ _ ____ _ ____ _ ____ _ ____
 72
    65
 73
     4
 40
31.500000
 49
27.000000
 49
-1.000000
 49
2.500000
 49
-1.000000
  0
LTYPE
  2
CENTER4
 70
    64
  3
____ _ ____ _ ____ _ ____ _ ____ _ ____ _ ____
 72
    65
 73
     4
 40
50.000000
 49
45.000000
 49
-1.000000
 49
3.000000
 49
-1.000000
  0
LTYPE
  2
CENTER5
 70
    64
  3
____ _ ____ _ ____ _ ____ _ ____ _ ____ _ ____
 72
    65
 73
     4
 40
100.000000
 49
92.000000
 49
-2.000000
 49
4.000000
 49
-2.000000
  0
LTYPE
  2
SBK1
 70
    64
  3
______ _ _ _ ______ _ _ _ ______ _ _ _ _____  
 72
    65
 73
     8
 40
60.500000
 49
45.000000
 49
-2.000000
 49
2.500000
 49
-2.000000
 49
2.500000
 49
-2.000000
 49
2.500000
 49
-2.000000
  0
LTYPE
  2
SBK2
 70
    64
  3
______ _ _ _ ______ _ _ _ ______ _ _ _ _____  
 72
    65
 73
     8
 40
84.000000
 49
64.000000
 49
-2.000000
 49
4.000000
 49
-2.000000
 49
4.000000
 49
-2.000000
 49
4.000000
 49
-2.000000
  0
LTYPE
  2
STCH
 70
    64
  3
__ __ __ __ __ __ __ __ __ __ __ __ __ __ __
 72
    65
 73
     2
 40
3.000000
 49
1.000000
 49
-2.000000
  0
LTYPE
  2
MTCH
 70
    64
  3
_____ _ _ _____ _ _ _____ _ _ _____ _ _ ____  
 72
    65
 73
     6
 40
80.000000
 49
66.000000
 49
-2.000000
 49
4.000000
 49
-2.000000
 49
4.000000
 49
-2.000000
  0
ENDTAB
  0
TABLE
  2
LAYER
 70
     1
  0
LAYER
  2
0
 70
     0
 62
     7
  6
CONTINUOUS
  0
ENDTAB
  0
TABLE
  2
STYLE
 70
     1
  0
STYLE
  2
STANDARD
 70
     0
 40
0.000000
 41
1.000000
 50
0.000000
 71
     0
 42
0.200000
  3
txt
  4
BIGFONT
  0
ENDTAB
  0
TABLE
  2
VIEW
 70
     0
  0
ENDTAB
  0
ENDSEC
  0
SECTION
  2
BLOCKS
  0
ENDSEC
  0
SECTION
  2
ENTITIES
  0
LINE
  8
0
 10
399.799988
 20
276.250000
 11
399.799988
 21
-276.750000
  0
LINE
  8
0
 10
-399.250000
 20
276.250000
 11
-399.250000
 21
-276.750000
  0
LINE
  8
0
 10
-399.250000
 20
276.250000
 11
399.799988
 21
276.250000
  0
LINE
  8
0
 10
-399.250000
 20
-276.750000
 11
399.799988
 21
-276.750000
  0
LINE
  8
0
 10
239.799988
 20
-251.750000
 11
399.799988
 21
-251.750000
  0
LINE
  8
0
 10
239.799988
 20
251.250000
 11
399.799988
 21
251.250000
  0
LINE
  8
0
 10
-399.250000
 20
251.250000
 11
-239.250000
 21
251.250000
  0
LINE
  8
0
 10
239.799988
 20
-251.750000
 11
239.799988
 21
-276.750000
  0
LINE
  8
0
 10
239.799988
 20
251.250000
 11
239.799988
 21
276.250000
  0
LINE
  8
0
 10
-239.250000
 20
276.250000
 11
-239.250000
 21
251.250000
  0
LINE
  8
0
 62
     4
 10
-221.485168
 20
-11.866455
 11
-221.485168
 21
-237.866455
  0
LINE
  8
0
 62
     4
 10
-221.485168
 20
-11.866455
 11
-196.485168
 21
-11.866455
  0
LINE
  8
0
 62
     4
 10
-221.485168
 20
-237.866455
 11
-196.485168
 21
-237.866455
  0
LINE
  8
0
  6
CENTER
 62
     1
 10
-226.485168
 20
-124.866455
 11
-76.943665
 21
-124.866455
  0
LINE
  8
0
 62
     4
 10
-196.485168
 20
-11.866455
 11
-196.485168
 21
-237.866455
  0
LINE
  8
0
  6
CENTER
 62
     1
 10
-131.485168
 20
-66.970856
 11
-131.485168
 21
-180.561157
  0
LINE
  8
0
 62
     4
 10
-194.540421
 20
-53.097309
 11
-115.654846
 21
-82.742828
  0
LINE
  8
0
 62
     4
 10
-194.540527
 20
-196.635574
 11
-115.654976
 21
-166.990067
  0
LINE
  8
0
  6
CENTER
 62
     1
 10
-226.485168
 20
-215.866455
 11
-191.485168
 21
-215.866455
  0
LINE
  8
0
  6
CENTER
 62
     1
 10
-226.485168
 20
-33.866455
 11
-191.485168
 21
-33.866455
  0
LINE
  8
0
  6
CENTER
 62
     1
 10
-1.945129
 20
-124.866455
 11
248.405457
 21
-124.866455
  0
LINE
  8
0
  6
CENTER
 62
     1
 10
125.014832
 20
-5.952515
 11
125.014832
 21
-246.143250
  0
LINE
  8
0
 62
     4
 10
12.014832
 20
-11.866455
 11
238.014832
 21
-11.866455
  0
LINE
  8
0
  6
CENTER
 62
     1
 10
216.014832
 20
-196.914062
 11
216.014832
 21
-235.130096
  0
LINE
  8
0
  6
CENTER
 62
     1
 10
198.994324
 20
-215.866455
 11
233.544373
 21
-215.866455
  0
LINE
  8
0
  6
CENTER
 62
     1
 10
216.014832
 20
-14.914063
 11
216.014832
 21
-53.130096
  0
LINE
  8
0
  6
CENTER
 62
     1
 10
198.994324
 20
-33.866455
 11
233.544373
 21
-33.866455
  0
LINE
  8
0
  6
CENTER
 62
     1
 10
34.014832
 20
-196.914062
 11
34.014832
 21
-235.130096
  0
LINE
  8
0
  6
CENTER
 62
     1
 10
16.994324
 20
-215.866455
 11
51.544373
 21
-215.866455
  0
LINE
  8
0
  6
CENTER
 62
     1
 10
34.014832
 20
-14.914063
 11
34.014832
 21
-53.130096
  0
LINE
  8
0
  6
CENTER
 62
     1
 10
16.994324
 20
-33.866455
 11
51.544373
 21
-33.866455
  0
LINE
  8
0
 62
     4
 10
12.014832
 20
-237.866455
 11
238.014832
 21
-237.866455
  0
LINE
  8
0
 62
     4
 10
238.014832
 20
-11.866455
 11
238.014832
 21
-237.866455
  0
LINE
  8
0
 62
     4
 10
12.014832
 20
-11.866455
 11
12.014832
 21
-237.866455
  0
LINE
  8
0
  6
DASHED
 62
     1
 10
100.014832
 20
-144.866455
 11
150.014832
 21
-144.866455
  0
LINE
  8
0
  6
DASHED
 62
     1
 10
100.014832
 20
-104.866455
 11
150.014832
 21
-104.866455
  0
LINE
  8
0
 62
     4
 10
100.014832
 20
-169.866455
 11
102.014832
 21
-169.866455
  0
LINE
  8
0
 62
     4
 10
100.014832
 20
-79.866455
 11
102.014832
 21
-79.866455
  0
LINE
  8
0
 62
     4
 10
150.014832
 20
-79.866455
 11
150.014832
 21
-169.866455
  0
LINE
  8
0
 62
     4
 10
100.014832
 20
-79.866455
 11
100.014832
 21
-169.866455
  0
LINE
  8
0
 62
     4
 10
105.014832
 20
-55.366455
 11
105.014832
 21
-76.866455
  0
LINE
  8
0
 62
     4
 10
145.014832
 20
-55.366455
 11
145.014832
 21
-76.866455
  0
LINE
  8
0
 62
     4
 10
148.014832
 20
-79.866455
 11
150.014832
 21
-79.866455
  0
LINE
  8
0
 62
     4
 10
148.014832
 20
-169.866455
 11
150.014832
 21
-169.866455
  0
LINE
  8
0
 62
     4
 10
105.014832
 20
-172.866455
 11
105.014832
 21
-194.366455
  0
LINE
  8
0
 62
     4
 10
145.014832
 20
-172.866455
 11
145.014832
 21
-194.366455
  0
LINE
  8
0
 62
     4
 10
-221.485168
 20
250.894775
 11
-221.485168
 21
24.894806
  0
LINE
  8
0
 62
     4
 10
-196.485168
 20
250.894775
 11
-196.485168
 21
24.894806
  0
LINE
  8
0
 62
     4
 10
-176.485168
 20
162.894775
 11
-176.485168
 21
157.894775
  0
LINE
  8
0
 62
     4
 10
-86.485168
 20
162.894775
 11
-86.485168
 21
112.894775
  0
LINE
  8
0
  6
CENTER
 62
     1
 10
-131.485168
 20
184.706909
 11
-131.485168
 21
92.682373
  0
LINE
  8
0
 62
     4
 10
-221.485168
 20
24.894806
 11
-196.485168
 21
24.894806
  0
LINE
  8
0
 62
     4
 10
-221.485168
 20
250.894775
 11
-196.485168
 21
250.894775
  0
LINE
  8
0
  6
CENTER
 62
     1
 10
-226.485168
 20
137.894775
 11
-76.943665
 21
137.894775
  0
LINE
  8
0
 62
     4
 10
-193.485168
 20
157.894775
 11
-115.654877
 21
157.894775
  0
LINE
  8
0
 62
     4
 10
-193.485168
 20
117.894775
 11
-115.654877
 21
117.894775
  0
LINE
  8
0
 62
     4
 10
-176.485168
 20
162.894775
 11
-86.485168
 21
162.894775
  0
LINE
  8
0
 62
     4
 10
-176.485168
 20
112.894775
 11
-86.485168
 21
112.894775
  0
LINE
  8
0
 62
     4
 10
-176.485168
 20
117.894775
 11
-176.485168
 21
112.894775
  0
LINE
  8
0
  6
CENTER
 62
     1
 10
-226.485168
 20
228.894775
 11
-191.485168
 21
228.894775
  0
LINE
  8
0
  6
CENTER
 62
     1
 10
-226.485168
 20
46.894775
 11
-191.485168
 21
46.894775
  0
CIRCLE
  8
0
 62
     4
 10
-131.485168
 20
-124.866455
 40
20.000000
  0
CIRCLE
  8
0
 62
     4
 10
-131.485168
 20
-124.866455
 40
45.000000
  0
ARC
  8
0
 62
     4
 10
-193.485168
 20
-50.289017
 40
3.000000
 50
180.000000
 51
249.403702
  0
ARC
  8
0
 62
     4
 10
-193.485168
 20
-199.443893
 40
3.000002
 50
110.596603
 51
180.000000
  0
CIRCLE
  8
0
 62
     1
 10
216.014832
 20
-215.866455
 40
10.000000
  0
CIRCLE
  8
0
 62
     1
 10
216.014832
 20
-33.866455
 40
10.000000
  0
CIRCLE
  8
0
 62
     1
 10
34.014832
 20
-215.866455
 40
10.000000
  0
CIRCLE
  8
0
 62
     1
 10
34.014832
 20
-33.866455
 40
10.000000
  0
CIRCLE
  8
0
 62
     4
 10
216.014832
 20
-33.866455
 40
7.400000
  0
CIRCLE
  8
0
 62
     4
 10
216.014832
 20
-215.866455
 40
7.400000
  0
CIRCLE
  8
0
 62
     4
 10
34.014832
 20
-215.866455
 40
7.400000
  0
CIRCLE
  8
0
 62
     4
 10
34.014832
 20
-33.866455
 40
7.400000
  0
ARC
  8
0
 62
     4
 10
148.014832
 20
-55.366455
 40
3.000000
 50
90.000000
 51
180.000000
  0
ARC
  8
0
 62
     4
 10
102.014832
 20
-55.366455
 40
3.000000
 50
0.000000
 51
90.000000
  0
ARC
  8
0
 62
     4
 10
102.014832
 20
-194.366455
 40
3.000000
 50
270.000000
 51
0.000000
  0
ARC
  8
0
 62
     4
 10
148.014832
 20
-194.366455
 40
3.000000
 50
180.000000
 51
270.000000
  0
ARC
  8
0
 62
     4
 10
102.014832
 20
-76.866455
 40
3.000000
 50
270.000000
 51
0.000000
  0
ARC
  8
0
 62
     4
 10
148.014832
 20
-76.866455
 40
3.000000
 50
180.000000
 51
270.000000
  0
ARC
  8
0
 62
     4
 10
148.014832
 20
-172.866455
 40
3.000000
 50
90.000000
 51
180.000000
  0
ARC
  8
0
 62
     4
 10
102.014832
 20
-172.866455
 40
3.000000
 50
0.000000
 51
90.000000
  0
ARC
  8
0
 62
     4
 10
-193.485168
 20
160.894775
 40
3.000000
 50
180.000000
 51
270.000000
  0
ARC
  8
0
 62
     4
 10
-193.485168
 20
114.894775
 40
3.000000
 50
90.000000
 51
180.000000
  0
TEXT
  8
0
 10
-374.285309
 20
256.649994
 40
9.000000
  1
SD I-TYPE,-8
 50
0.000000
 41
1.052632
 51
0.000000
  7
STANDARD
  0
TEXT
  8
0
 10
242.014816
 20
-274.500000
 40
12.500000
  1
KOGANEI CORP.
 50
0.000000
 41
1.052632
 51
0.000000
  7
STANDARD
  0
TEXT
  8
0
 10
251.264664
 20
256.649994
 40
9.000000
  1
DATE: AUG ,1993
 50
0.000000
 41
1.052632
 51
0.000000
  7
STANDARD
  0
TEXT
  8
0
 10
-384.785309
 20
224.149994
 40
9.000000
  1
BORE:200
 50
0.000000
 41
1.052632
 51
0.000000
  7
STANDARD
  0
ENDSEC
  0
EOF
