  0
SECTION
  2
HEADER
  0
ENDSEC
  0
SECTION
  2
TABLES
  0
TABLE
  2
LTYPE
 70
     4
  0
LTYPE
  2
CONTINUOUS
 70
    64
  3
Solid line
 72
    65
 73
     0
 40
0.000000
  0
LTYPE
  2
DASHED
 70
    64
  3
__ __ __ __ __ __ __ __ __ __ __ __ __ __ __
 72
    65
 73
     2
 40
3.500000
 49
2.000000
 49
-1.500000
  0
LTYPE
  2
CENTER
 70
    64
  3
____ _ ____ _ ____ _ ____ _ ____ _ ____ _ ____
 72
    65
 73
     4
 40
17.500000
 49
13.000000
 49
-1.500000
 49
1.500000
 49
-1.500000
  0
LTYPE
  2
PHANTOM
 70
    64
  3
_____ _ _ _____ _ _ _____ _ _ _____ _ _ ____  
 72
    65
 73
     6
 40
15.500000
 49
8.000000
 49
-1.500000
 49
1.500000
 49
-1.500000
 49
1.500000
 49
-1.500000
  0
LTYPE
  2
DASHED1
 70
    64
  3
__ __ __ __ __ __ __ __ __ __ __ __ __ __ __
 72
    65
 73
     2
 40
1.500000
 49
1.000000
 49
-0.500000
  0
LTYPE
  2
DASHED2
 70
    64
  3
__ __ __ __ __ __ __ __ __ __ __ __ __ __ __
 72
    65
 73
     2
 40
3.500000
 49
2.500000
 49
-1.000000
  0
LTYPE
  2
DASHED3
 70
    64
  3
__ __ __ __ __ __ __ __ __ __ __ __ __ __ __
 72
    65
 73
     2
 40
6.000000
 49
4.000000
 49
-2.000000
  0
LTYPE
  2
DASHED4
 70
    64
  3
__ __ __ __ __ __ __ __ __ __ __ __ __ __ __
 72
    65
 73
     2
 40
12.000000
 49
10.000000
 49
-2.000000
  0
LTYPE
  2
DASHED5
 70
    64
  3
__ __ __ __ __ __ __ __ __ __ __ __ __ __ __
 72
    65
 73
     2
 40
17.000000
 49
15.000000
 49
-2.000000
  0
LTYPE
  2
DASHED6
 70
    64
  3
__ __ __ __ __ __ __ __ __ __ __ __ __ __ __
 72
    65
 73
     2
 40
29.000000
 49
27.000000
 49
-2.000000
  0
LTYPE
  2
PHANTOM1
 70
    64
  3
_____ _ _ _____ _ _ _____ _ _ _____ _ _ ____  
 72
    65
 73
     6
 40
31.000000
 49
25.000000
 49
-1.500000
 49
1.000000
 49
-1.000000
 49
1.000000
 49
-1.500000
  0
LTYPE
  2
PHANTOM2
 70
    64
  3
_____ _ _ _____ _ _ _____ _ _ _____ _ _ ____  
 72
    65
 73
     6
 40
36.000000
 49
27.000000
 49
-1.500000
 49
2.500000
 49
-1.000000
 49
2.500000
 49
-1.500000
  0
LTYPE
  2
PHANTOM3
 70
    64
  3
_____ _ _ _____ _ _ _____ _ _ _____ _ _ ____  
 72
    65
 73
     6
 40
78.000000
 49
64.000000
 49
-2.000000
 49
4.000000
 49
-2.000000
 49
4.000000
 49
-2.000000
  0
LTYPE
  2
CENTER1
 70
    64
  3
____ _ ____ _ ____ _ ____ _ ____ _ ____ _ ____
 72
    65
 73
     4
 40
19.000000
 49
14.000000
 49
-1.000000
 49
3.000000
 49
-1.000000
  0
LTYPE
  2
CENTER2
 70
    64
  3
____ _ ____ _ ____ _ ____ _ ____ _ ____ _ ____
 72
    65
 73
     4
 40
28.500000
 49
25.000000
 49
-1.000000
 49
1.500000
 49
-1.000000
  0
LTYPE
  2
CENTER3
 70
    64
  3
____ _ ____ _ ____ _ ____ _ ____ _ ____ _ ____
 72
    65
 73
     4
 40
31.500000
 49
27.000000
 49
-1.000000
 49
2.500000
 49
-1.000000
  0
LTYPE
  2
CENTER4
 70
    64
  3
____ _ ____ _ ____ _ ____ _ ____ _ ____ _ ____
 72
    65
 73
     4
 40
50.000000
 49
45.000000
 49
-1.000000
 49
3.000000
 49
-1.000000
  0
LTYPE
  2
CENTER5
 70
    64
  3
____ _ ____ _ ____ _ ____ _ ____ _ ____ _ ____
 72
    65
 73
     4
 40
100.000000
 49
92.000000
 49
-2.000000
 49
4.000000
 49
-2.000000
  0
LTYPE
  2
SBK1
 70
    64
  3
______ _ _ _ ______ _ _ _ ______ _ _ _ _____  
 72
    65
 73
     8
 40
60.500000
 49
45.000000
 49
-2.000000
 49
2.500000
 49
-2.000000
 49
2.500000
 49
-2.000000
 49
2.500000
 49
-2.000000
  0
LTYPE
  2
SBK2
 70
    64
  3
______ _ _ _ ______ _ _ _ ______ _ _ _ _____  
 72
    65
 73
     8
 40
84.000000
 49
64.000000
 49
-2.000000
 49
4.000000
 49
-2.000000
 49
4.000000
 49
-2.000000
 49
4.000000
 49
-2.000000
  0
LTYPE
  2
STCH
 70
    64
  3
__ __ __ __ __ __ __ __ __ __ __ __ __ __ __
 72
    65
 73
     2
 40
3.000000
 49
1.000000
 49
-2.000000
  0
LTYPE
  2
MTCH
 70
    64
  3
_____ _ _ _____ _ _ _____ _ _ _____ _ _ ____  
 72
    65
 73
     6
 40
80.000000
 49
66.000000
 49
-2.000000
 49
4.000000
 49
-2.000000
 49
4.000000
 49
-2.000000
  0
ENDTAB
  0
TABLE
  2
LAYER
 70
     1
  0
LAYER
  2
0
 70
     0
 62
     7
  6
CONTINUOUS
  0
ENDTAB
  0
TABLE
  2
STYLE
 70
     1
  0
STYLE
  2
STANDARD
 70
     0
 40
0.000000
 41
1.000000
 50
0.000000
 71
     0
 42
0.200000
  3
txt
  4
BIGFONT
  0
ENDTAB
  0
TABLE
  2
VIEW
 70
     0
  0
ENDTAB
  0
ENDSEC
  0
SECTION
  2
BLOCKS
  0
ENDSEC
  0
SECTION
  2
ENTITIES
  0
LINE
  8
0
 10
574.500000
 20
400.500000
 11
574.500000
 21
-400.500000
  0
LINE
  8
0
 10
-564.500000
 20
400.500000
 11
574.500000
 21
400.500000
  0
LINE
  8
0
 10
-564.500000
 20
-400.500000
 11
574.500000
 21
-400.500000
  0
LINE
  8
0
 10
-564.500000
 20
400.500000
 11
-564.500000
 21
-400.500000
  0
LINE
  8
0
 10
-564.500000
 20
370.500000
 11
-334.500000
 21
370.500000
  0
LINE
  8
0
 10
344.500000
 20
370.500000
 11
574.500000
 21
370.500000
  0
LINE
  8
0
 10
344.500000
 20
-370.500000
 11
574.500000
 21
-370.500000
  0
LINE
  8
0
 10
344.500000
 20
-370.500000
 11
344.500000
 21
-400.500000
  0
LINE
  8
0
 10
344.500000
 20
400.500000
 11
344.500000
 21
370.500000
  0
LINE
  8
0
 10
-334.500000
 20
400.500000
 11
-334.500000
 21
370.500000
  0
LINE
  8
0
 10
5.000000
 20
-400.500000
 11
5.000000
 21
400.500000
  0
LINE
  8
0
  6
CENTER
 62
     2
 10
-479.910217
 20
-159.759644
 11
-325.660217
 21
-159.759644
  0
LINE
  8
0
  6
CENTER
 62
     2
 10
-403.410217
 20
-83.259644
 11
-403.410217
 21
-236.009644
  0
LINE
  8
0
 10
-330.910217
 20
-87.259644
 11
-330.910217
 21
-232.259644
  0
LINE
  8
0
 10
-475.910217
 20
-87.259644
 11
-475.910217
 21
-232.259644
  0
LINE
  8
0
 10
-475.910217
 20
-87.259644
 11
-330.910217
 21
-87.259644
  0
LINE
  8
0
 10
-475.910217
 20
-232.259644
 11
-330.910217
 21
-232.259644
  0
LINE
  8
0
  6
CENTER
 62
     2
 10
-345.910217
 20
-87.759644
 11
-345.910217
 21
-116.759644
  0
LINE
  8
0
  6
CENTER
 62
     2
 10
-460.910217
 20
-87.259644
 11
-460.910217
 21
-115.759644
  0
LINE
  8
0
  6
CENTER
 62
     2
 10
-474.160217
 20
-102.259644
 11
-447.160217
 21
-102.259644
  0
LINE
  8
0
  6
CENTER
 62
     2
 10
-474.410217
 20
-217.259644
 11
-447.410217
 21
-217.259644
  0
LINE
  8
0
 10
-449.910217
 20
-210.908798
 11
-449.910217
 21
-223.610504
  0
LINE
  8
0
 10
-471.910217
 20
-210.908798
 11
-471.910217
 21
-223.610504
  0
LINE
  8
0
 10
-471.910004
 20
-210.908997
 11
-460.909973
 21
-204.558136
  0
LINE
  8
0
 10
-460.910034
 20
-229.961700
 11
-449.909943
 21
-223.610794
  0
LINE
  8
0
 10
-460.910004
 20
-204.557632
 11
-449.910065
 21
-210.908478
  0
LINE
  8
0
 10
-471.910126
 20
-223.610397
 11
-460.910156
 21
-229.961227
  0
LINE
  8
0
  6
CENTER
 62
     2
 10
-460.910217
 20
-202.259644
 11
-460.910217
 21
-232.009644
  0
LINE
  8
0
  6
CENTER
 62
     2
 10
-358.160217
 20
-217.259644
 11
-331.910217
 21
-217.259644
  0
LINE
  8
0
  6
CENTER
 62
     2
 10
-345.910217
 20
-201.509644
 11
-345.910217
 21
-230.759644
  0
LINE
  8
0
  6
CENTER
 62
     2
 10
-359.160217
 20
-102.259644
 11
-332.910217
 21
-102.259644
  0
LINE
  8
0
  6
CENTER
 62
     2
 10
-282.266296
 20
120.240356
 11
-38.057480
 21
120.240356
  0
LINE
  8
0
 10
-123.410233
 20
192.740356
 11
-123.410233
 21
47.740356
  0
LINE
  8
0
 10
-88.410233
 20
192.740356
 11
-88.410233
 21
47.740356
  0
LINE
  8
0
 10
-123.410233
 20
192.740356
 11
-88.410233
 21
192.740356
  0
LINE
  8
0
 10
-123.410233
 20
47.740356
 11
-88.410233
 21
47.740356
  0
LINE
  8
0
  6
CENTER
 62
     2
 10
-155.244659
 20
177.740356
 11
-22.650391
 21
177.740356
  0
LINE
  8
0
  6
CENTER
 62
     2
 10
-155.910233
 20
62.740356
 11
-53.464554
 21
62.740356
  0
LINE
  8
0
 10
-149.410233
 20
55.740356
 11
-137.910233
 21
55.740356
  0
LINE
  8
0
 10
-150.410172
 20
68.740311
 11
-149.410172
 21
69.740318
  0
LINE
  8
0
 10
-150.410248
 20
56.740341
 11
-149.410248
 21
55.740341
  0
LINE
  8
0
 10
-150.410233
 20
68.740356
 11
-150.410233
 21
56.740356
  0
LINE
  8
0
 10
-149.410233
 20
69.740356
 11
-149.410233
 21
55.740356
  0
LINE
  8
0
 10
-149.410233
 20
69.740356
 11
-137.910233
 21
69.740356
  0
LINE
  8
0
  6
CENTER
 62
     2
 10
-107.410233
 20
134.612366
 11
-107.410233
 21
106.418396
  0
LINE
  8
0
 10
-88.410233
 20
184.740356
 11
-31.127518
 21
184.740356
  0
LINE
  8
0
 10
-88.410233
 20
55.740356
 11
-65.692963
 21
55.740356
  0
LINE
  8
0
 10
-88.410233
 20
170.740356
 11
-34.878815
 21
170.740356
  0
LINE
  8
0
 10
-88.410233
 20
69.740356
 11
-61.941681
 21
69.740356
  0
LINE
  8
0
 10
-150.410156
 20
171.740463
 11
-149.410156
 21
170.740448
  0
LINE
  8
0
 10
-150.410126
 20
183.740234
 11
-149.410110
 21
184.740234
  0
LINE
  8
0
 10
-149.410233
 20
170.740356
 11
-137.910233
 21
170.740356
  0
LINE
  8
0
 10
-150.410233
 20
183.740356
 11
-150.410233
 21
171.740356
  0
LINE
  8
0
 10
-149.410233
 20
184.740356
 11
-149.410233
 21
170.740356
  0
LINE
  8
0
 10
-149.410233
 20
184.740356
 11
-137.910233
 21
184.740356
  0
LINE
  8
0
  6
PHANTOM
 62
     2
 10
-68.098068
 20
46.764282
 11
-29.086008
 21
192.359268
  0
LINE
  8
0
 10
-334.910217
 20
-210.908798
 11
-334.910217
 21
-223.610504
  0
LINE
  8
0
 10
-356.910217
 20
-210.908798
 11
-356.910217
 21
-223.610504
  0
LINE
  8
0
 10
-356.910065
 20
-210.908859
 11
-345.910065
 21
-204.558029
  0
LINE
  8
0
 10
-345.910065
 20
-229.961472
 11
-334.910034
 21
-223.610611
  0
LINE
  8
0
 10
-345.910065
 20
-204.557755
 11
-334.910126
 21
-210.908600
  0
LINE
  8
0
 10
-356.910156
 20
-223.610519
 11
-345.910187
 21
-229.961334
  0
LINE
  8
0
 10
-334.910217
 20
-95.908798
 11
-334.910217
 21
-108.610504
  0
LINE
  8
0
 10
-356.910217
 20
-95.908798
 11
-356.910217
 21
-108.610504
  0
LINE
  8
0
 10
-356.910004
 20
-95.908943
 11
-345.910004
 21
-89.558105
  0
LINE
  8
0
 10
-345.909943
 20
-114.961708
 11
-334.909912
 21
-108.610832
  0
LINE
  8
0
 10
-345.910126
 20
-89.557838
 11
-334.910187
 21
-95.908669
  0
LINE
  8
0
 10
-356.910217
 20
-108.610497
 11
-345.910248
 21
-114.961311
  0
LINE
  8
0
 10
-449.910217
 20
-95.908798
 11
-449.910217
 21
-108.610504
  0
LINE
  8
0
 10
-471.910217
 20
-95.908798
 11
-471.910217
 21
-108.610504
  0
LINE
  8
0
 10
-471.909882
 20
-95.909065
 11
-460.909851
 21
-89.558228
  0
LINE
  8
0
 10
-460.909821
 20
-114.961884
 11
-449.909821
 21
-108.611023
  0
LINE
  8
0
 10
-460.910065
 20
-89.557777
 11
-449.910126
 21
-95.908607
  0
LINE
  8
0
 10
-471.910126
 20
-108.610489
 11
-460.910126
 21
-114.961342
  0
LINE
  8
0
 10
-126.910233
 20
74.740356
 11
-123.410233
 21
74.740356
  0
LINE
  8
0
 10
-126.910233
 20
50.740356
 11
-123.410233
 21
50.740356
  0
LINE
  8
0
 10
-126.910233
 20
189.740356
 11
-123.410233
 21
189.740356
  0
LINE
  8
0
 10
-126.910233
 20
165.740356
 11
-123.410233
 21
165.740356
  0
LINE
  8
0
 62
     2
 10
-150.410233
 20
172.140350
 11
-137.910233
 21
172.140350
  0
LINE
  8
0
 62
     2
 10
-150.410233
 20
183.340363
 11
-137.910233
 21
183.340363
  0
LINE
  8
0
 62
     2
 10
-150.410233
 20
68.340363
 11
-137.910233
 21
68.340363
  0
LINE
  8
0
 62
     2
 10
-150.410233
 20
57.140350
 11
-137.910233
 21
57.140350
  0
LINE
  8
0
 10
-88.410233
 20
187.740356
 11
-30.323654
 21
187.740356
  0
LINE
  8
0
 10
-88.410233
 20
52.740356
 11
-66.496811
 21
52.740356
  0
LINE
  8
0
  6
CENTER
 62
     2
 10
-282.266296
 20
-159.759644
 11
-38.057465
 21
-159.759644
  0
LINE
  8
0
 10
-123.410233
 20
-87.259644
 11
-123.410233
 21
-232.259644
  0
LINE
  8
0
 10
-88.410233
 20
-87.259644
 11
-88.410233
 21
-232.259644
  0
LINE
  8
0
 10
-123.410233
 20
-87.259644
 11
-88.410233
 21
-87.259644
  0
LINE
  8
0
 10
-123.410233
 20
-232.259644
 11
-88.410233
 21
-232.259644
  0
LINE
  8
0
  6
CENTER
 62
     2
 10
-155.244659
 20
-102.259644
 11
-22.650391
 21
-102.259644
  0
LINE
  8
0
  6
CENTER
 62
     2
 10
-155.910233
 20
-217.259644
 11
-53.464554
 21
-217.259644
  0
LINE
  8
0
 10
-149.410233
 20
-224.259644
 11
-137.910233
 21
-224.259644
  0
LINE
  8
0
 10
-150.410202
 20
-211.259628
 11
-149.410202
 21
-210.259628
  0
LINE
  8
0
 10
-150.410202
 20
-223.259598
 11
-149.410202
 21
-224.259598
  0
LINE
  8
0
 10
-136.927750
 20
-204.557938
 11
-126.910233
 21
-204.557938
  0
LINE
  8
0
 10
-136.927750
 20
-210.908798
 11
-126.910233
 21
-210.908798
  0
LINE
  8
0
 10
-136.927750
 20
-223.610504
 11
-126.910233
 21
-223.610504
  0
LINE
  8
0
 10
-136.927750
 20
-229.961349
 11
-126.910233
 21
-229.961349
  0
LINE
  8
0
 10
-126.910233
 20
-204.557938
 11
-126.910233
 21
-229.961349
  0
LINE
  8
0
 10
-137.910233
 20
-206.259644
 11
-137.910233
 21
-228.259644
  0
LINE
  8
0
 10
-137.910202
 20
-206.259598
 11
-136.927719
 21
-204.557907
  0
LINE
  8
0
 10
-137.910263
 20
-228.259705
 11
-136.927780
 21
-229.961395
  0
LINE
  8
0
 10
-150.410233
 20
-211.259644
 11
-150.410233
 21
-223.259644
  0
LINE
  8
0
 10
-149.410233
 20
-210.259644
 11
-149.410233
 21
-224.259644
  0
LINE
  8
0
 10
-149.410233
 20
-210.259644
 11
-137.910233
 21
-210.259644
  0
LINE
  8
0
  6
CENTER
 62
     2
 10
-107.410233
 20
-83.164215
 11
-107.410233
 21
-171.059647
  0
LINE
  8
0
 10
-88.410233
 20
-95.259644
 11
-31.127518
 21
-95.259644
  0
LINE
  8
0
 10
-88.410233
 20
-224.259644
 11
-65.692963
 21
-224.259644
  0
LINE
  8
0
 10
-88.410233
 20
-109.259644
 11
-34.878815
 21
-109.259644
  0
LINE
  8
0
 10
-88.410233
 20
-210.259644
 11
-61.941681
 21
-210.259644
  0
LINE
  8
0
 10
-112.505325
 20
-159.009644
 11
-102.315140
 21
-159.009644
  0
LINE
  8
0
 10
-112.505325
 20
-160.509644
 11
-102.315140
 21
-160.509644
  0
LINE
  8
0
 10
-150.410217
 20
-108.259628
 11
-149.410217
 21
-109.259636
  0
LINE
  8
0
 10
-150.410187
 20
-96.259697
 11
-149.410172
 21
-95.259705
  0
LINE
  8
0
 10
-149.410233
 20
-109.259644
 11
-137.910233
 21
-109.259644
  0
LINE
  8
0
 10
-136.927750
 20
-89.557938
 11
-126.910233
 21
-89.557938
  0
LINE
  8
0
 10
-136.927750
 20
-95.908798
 11
-126.910233
 21
-95.908798
  0
LINE
  8
0
 10
-136.927750
 20
-108.610504
 11
-126.910233
 21
-108.610504
  0
LINE
  8
0
 10
-136.927750
 20
-114.961349
 11
-126.910233
 21
-114.961349
  0
LINE
  8
0
 10
-126.910233
 20
-89.557938
 11
-126.910233
 21
-114.961349
  0
LINE
  8
0
 10
-137.910233
 20
-91.259644
 11
-137.910233
 21
-113.259644
  0
LINE
  8
0
 10
-137.910233
 20
-91.259636
 11
-136.927750
 21
-89.557922
  0
LINE
  8
0
 10
-137.910187
 20
-113.259682
 11
-136.927719
 21
-114.961395
  0
LINE
  8
0
 10
-150.410233
 20
-96.259644
 11
-150.410233
 21
-108.259644
  0
LINE
  8
0
 10
-149.410233
 20
-95.259644
 11
-149.410233
 21
-109.259644
  0
LINE
  8
0
 10
-149.410233
 20
-95.259644
 11
-137.910233
 21
-95.259644
  0
LINE
  8
0
  6
PHANTOM
 62
     2
 10
-68.098083
 20
-233.235733
 11
-29.085991
 21
-87.640633
  0
LINE
  8
0
 10
-126.910233
 20
-205.259644
 11
-123.410233
 21
-205.259644
  0
LINE
  8
0
 10
-126.910233
 20
-229.259644
 11
-123.410233
 21
-229.259644
  0
LINE
  8
0
 10
-126.910233
 20
-90.259644
 11
-123.410233
 21
-90.259644
  0
LINE
  8
0
 10
-126.910233
 20
-114.259644
 11
-123.410233
 21
-114.259644
  0
LINE
  8
0
  6
DASHED
 62
     2
 10
-117.910278
 20
-87.259659
 11
-116.410278
 21
-88.759666
  0
LINE
  8
0
  6
DASHED
 62
     2
 10
-116.410271
 20
-88.759689
 11
-98.410233
 21
-88.759689
  0
LINE
  8
0
  6
DASHED
 62
     2
 10
-96.910217
 20
-87.259659
 11
-98.410217
 21
-88.759666
  0
LINE
  8
0
  6
DASHED
 62
     2
 10
-96.910271
 20
-87.259621
 11
-97.309944
 21
-98.706078
  0
LINE
  8
0
  6
DASHED
 62
     2
 10
-98.410233
 20
-98.609650
 11
-98.410233
 21
-88.759644
  0
LINE
  8
0
  6
DASHED
 62
     2
 10
-116.409698
 20
-88.759659
 11
-116.409698
 21
-97.409653
  0
LINE
  8
0
  6
DASHED
 62
     2
 10
-117.910263
 20
-87.259674
 11
-117.535034
 21
-98.003479
  0
LINE
  8
0
 62
     2
 10
-150.410233
 20
-107.859650
 11
-137.910233
 21
-107.859650
  0
LINE
  8
0
 62
     2
 10
-150.410233
 20
-96.659637
 11
-137.910233
 21
-96.659637
  0
LINE
  8
0
 62
     2
 10
-150.410233
 20
-211.659637
 11
-137.910233
 21
-211.659637
  0
LINE
  8
0
 62
     2
 10
-150.410233
 20
-222.859650
 11
-137.910233
 21
-222.859650
  0
LINE
  8
0
 10
-88.410233
 20
-92.259644
 11
-30.323654
 21
-92.259644
  0
LINE
  8
0
 10
-88.410233
 20
-227.259644
 11
-66.496811
 21
-227.259644
  0
LINE
  8
0
 10
-126.910233
 20
51.740356
 11
-137.910233
 21
51.740356
  0
LINE
  8
0
 10
-126.910233
 20
62.740356
 11
-136.927750
 21
62.740356
  0
LINE
  8
0
 10
-126.910233
 20
50.740356
 11
-126.910233
 21
74.740356
  0
LINE
  8
0
 10
-126.910240
 20
73.740356
 11
-137.910248
 21
73.740356
  0
LINE
  8
0
 10
-137.910233
 20
51.740356
 11
-137.910233
 21
73.740356
  0
LINE
  8
0
 10
-126.910233
 20
166.740356
 11
-137.910233
 21
166.740356
  0
LINE
  8
0
 10
-126.910233
 20
177.740356
 11
-136.927750
 21
177.740356
  0
LINE
  8
0
 10
-126.910233
 20
165.740356
 11
-126.910233
 21
189.740356
  0
LINE
  8
0
 10
-126.910240
 20
188.740356
 11
-137.910248
 21
188.740356
  0
LINE
  8
0
 10
-137.910233
 20
166.740356
 11
-137.910233
 21
188.740356
  0
LINE
  8
0
  6
CENTER
 62
     2
 10
51.049713
 20
-165.651337
 11
221.195099
 21
-165.651337
  0
LINE
  8
0
  6
CENTER
 62
     2
 10
137.505188
 20
-81.808609
 11
137.505188
 21
-251.132050
  0
LINE
  8
0
  6
CENTER
 62
     2
 10
201.505188
 20
-87.151337
 11
201.505188
 21
-116.151337
  0
LINE
  8
0
  6
CENTER
 62
     2
 10
73.505188
 20
-86.651337
 11
73.505188
 21
-115.151337
  0
LINE
  8
0
  6
CENTER
 62
     2
 10
60.255188
 20
-101.651337
 11
87.255188
 21
-101.651337
  0
LINE
  8
0
  6
CENTER
 62
     2
 10
60.005188
 20
-229.651337
 11
87.005188
 21
-229.651337
  0
LINE
  8
0
 10
84.505188
 20
-223.300491
 11
84.505188
 21
-236.002197
  0
LINE
  8
0
 10
62.505188
 20
-223.300491
 11
62.505188
 21
-236.002197
  0
LINE
  8
0
 10
62.505257
 20
-223.300369
 11
73.505257
 21
-216.949554
  0
LINE
  8
0
 10
73.505127
 20
-242.352982
 11
84.505165
 21
-236.002106
  0
LINE
  8
0
 10
73.505287
 20
-216.949448
 11
84.505219
 21
-223.300278
  0
LINE
  8
0
 10
62.505264
 20
-236.002151
 11
73.505234
 21
-242.352966
  0
LINE
  8
0
  6
CENTER
 62
     2
 10
73.505188
 20
-214.651337
 11
73.505188
 21
-244.401337
  0
LINE
  8
0
  6
CENTER
 62
     2
 10
189.255188
 20
-229.651337
 11
215.505188
 21
-229.651337
  0
LINE
  8
0
  6
CENTER
 62
     2
 10
201.505188
 20
-213.901337
 11
201.505188
 21
-243.151337
  0
LINE
  8
0
  6
CENTER
 62
     2
 10
188.255188
 20
-101.651337
 11
214.505188
 21
-101.651337
  0
LINE
  8
0
  6
CENTER
 62
     2
 10
263.005188
 20
120.240356
 11
502.857941
 21
120.240356
  0
LINE
  8
0
 10
417.505188
 20
200.240356
 11
417.505188
 21
40.240356
  0
LINE
  8
0
 10
452.505188
 20
200.240356
 11
452.505188
 21
40.240356
  0
LINE
  8
0
 10
417.505188
 20
200.240356
 11
452.505188
 21
200.240356
  0
LINE
  8
0
  6
CENTER
 62
     2
 10
384.628326
 20
184.240356
 11
520.006714
 21
184.240356
  0
LINE
  8
0
  6
CENTER
 62
     2
 10
385.005188
 20
56.240356
 11
485.709198
 21
56.240356
  0
LINE
  8
0
 10
391.505188
 20
49.240356
 11
403.005188
 21
49.240356
  0
LINE
  8
0
 10
390.505096
 20
62.240307
 11
391.505096
 21
63.240330
  0
LINE
  8
0
 10
390.505096
 20
50.240261
 11
391.505096
 21
49.240261
  0
LINE
  8
0
 10
390.505188
 20
62.240356
 11
390.505188
 21
50.240356
  0
LINE
  8
0
 10
391.505188
 20
63.240356
 11
391.505188
 21
49.240356
  0
LINE
  8
0
 10
391.505188
 20
63.240356
 11
403.005188
 21
63.240356
  0
LINE
  8
0
  6
CENTER
 62
     2
 10
433.505188
 20
133.920837
 11
433.505188
 21
106.467804
  0
LINE
  8
0
 10
452.505188
 20
191.240356
 11
511.529602
 21
191.240356
  0
LINE
  8
0
 10
452.505188
 20
49.240356
 11
473.480774
 21
49.240356
  0
LINE
  8
0
 10
452.505188
 20
177.240356
 11
507.778290
 21
177.240356
  0
LINE
  8
0
 10
452.505188
 20
63.240356
 11
477.232086
 21
63.240356
  0
LINE
  8
0
 10
390.505463
 20
178.240555
 11
391.505463
 21
177.240524
  0
LINE
  8
0
 10
390.505249
 20
190.240356
 11
391.505219
 21
191.240326
  0
LINE
  8
0
 10
391.505188
 20
177.240356
 11
403.005188
 21
177.240356
  0
LINE
  8
0
 10
390.505188
 20
190.240356
 11
390.505188
 21
178.240356
  0
LINE
  8
0
 10
391.505188
 20
191.240356
 11
391.505188
 21
177.240356
  0
LINE
  8
0
 10
391.505188
 20
191.240356
 11
403.005188
 21
191.240356
  0
LINE
  8
0
  6
PHANTOM
 62
     2
 10
471.135223
 20
40.487049
 11
513.751221
 21
199.532120
  0
LINE
  8
0
 10
212.505188
 20
-223.300491
 11
212.505188
 21
-236.002197
  0
LINE
  8
0
 10
190.505188
 20
-223.300491
 11
190.505188
 21
-236.002197
  0
LINE
  8
0
 10
190.505066
 20
-223.300262
 11
201.505081
 21
-216.949417
  0
LINE
  8
0
 10
201.504883
 20
-242.352661
 11
212.504913
 21
-236.001785
  0
LINE
  8
0
 10
201.505188
 20
-216.949570
 11
212.505142
 21
-223.300415
  0
LINE
  8
0
 10
190.505295
 20
-236.002243
 11
201.505310
 21
-242.353088
  0
LINE
  8
0
 10
212.505188
 20
-95.300491
 11
212.505188
 21
-108.002197
  0
LINE
  8
0
 10
190.505188
 20
-95.300491
 11
190.505188
 21
-108.002197
  0
LINE
  8
0
 10
190.505234
 20
-95.300522
 11
201.505264
 21
-88.949677
  0
LINE
  8
0
 10
201.505219
 20
-114.353027
 11
212.505234
 21
-108.002159
  0
LINE
  8
0
 10
201.505127
 20
-88.949760
 11
212.505066
 21
-95.300598
  0
LINE
  8
0
 10
190.505219
 20
-108.002243
 11
201.505188
 21
-114.353065
  0
LINE
  8
0
 10
84.505188
 20
-95.300491
 11
84.505188
 21
-108.002197
  0
LINE
  8
0
 10
62.505188
 20
-95.300491
 11
62.505188
 21
-108.002197
  0
LINE
  8
0
 10
62.505375
 20
-95.300720
 11
73.505402
 21
-88.949883
  0
LINE
  8
0
 10
73.505341
 20
-114.353325
 11
84.505371
 21
-108.002449
  0
LINE
  8
0
 10
73.505173
 20
-88.949684
 11
84.505112
 21
-95.300522
  0
LINE
  8
0
 10
62.505230
 20
-108.002197
 11
73.505219
 21
-114.353035
  0
LINE
  8
0
 10
414.005188
 20
68.240356
 11
417.505188
 21
68.240356
  0
LINE
  8
0
 10
414.005188
 20
44.240356
 11
417.505188
 21
44.240356
  0
LINE
  8
0
 10
414.005188
 20
196.240356
 11
417.505188
 21
196.240356
  0
LINE
  8
0
 10
414.005188
 20
172.240356
 11
417.505188
 21
172.240356
  0
LINE
  8
0
 10
57.505188
 20
-85.651337
 11
57.505188
 21
-245.651337
  0
LINE
  8
0
 10
217.505188
 20
-85.651337
 11
217.505188
 21
-245.651337
  0
LINE
  8
0
 10
57.505188
 20
-245.651337
 11
217.505188
 21
-245.651337
  0
LINE
  8
0
 10
57.505188
 20
-85.651337
 11
217.505188
 21
-85.651337
  0
LINE
  8
0
 10
417.505188
 20
40.240356
 11
452.505188
 21
40.240356
  0
LINE
  8
0
 10
452.505188
 20
195.240356
 11
512.601379
 21
195.240356
  0
LINE
  8
0
 10
452.505188
 20
45.240356
 11
472.408997
 21
45.240356
  0
LINE
  8
0
 62
     2
 10
390.505188
 20
61.840363
 11
403.005188
 21
61.840363
  0
LINE
  8
0
 62
     2
 10
390.505188
 20
50.640350
 11
403.005188
 21
50.640350
  0
LINE
  8
0
 62
     2
 10
390.505188
 20
189.840363
 11
403.005188
 21
189.840363
  0
LINE
  8
0
 62
     2
 10
390.505188
 20
178.640350
 11
403.005188
 21
178.640350
  0
LINE
  8
0
  6
CENTER
 62
     2
 10
263.005188
 20
-165.651337
 11
502.857941
 21
-165.651337
  0
LINE
  8
0
 10
417.505188
 20
-85.651337
 11
417.505188
 21
-245.651337
  0
LINE
  8
0
 10
452.505188
 20
-85.651337
 11
452.505188
 21
-245.651337
  0
LINE
  8
0
 10
417.505188
 20
-85.651337
 11
452.505188
 21
-85.651337
  0
LINE
  8
0
  6
CENTER
 62
     2
 10
384.628326
 20
-101.651337
 11
520.006714
 21
-101.651337
  0
LINE
  8
0
  6
CENTER
 62
     2
 10
385.005188
 20
-229.651337
 11
485.709198
 21
-229.651337
  0
LINE
  8
0
 10
391.505188
 20
-236.651337
 11
403.005188
 21
-236.651337
  0
LINE
  8
0
 10
390.505005
 20
-223.651154
 11
391.505005
 21
-222.651154
  0
LINE
  8
0
 10
390.505127
 20
-235.651337
 11
391.505096
 21
-236.651321
  0
LINE
  8
0
 10
403.987671
 20
-216.949631
 11
414.005188
 21
-216.949631
  0
LINE
  8
0
 10
403.987671
 20
-223.300491
 11
414.005188
 21
-223.300491
  0
LINE
  8
0
 10
403.987671
 20
-236.002197
 11
414.005188
 21
-236.002197
  0
LINE
  8
0
 10
403.987671
 20
-242.353043
 11
414.005188
 21
-242.353043
  0
LINE
  8
0
 10
414.005188
 20
-216.949631
 11
414.005188
 21
-242.353043
  0
LINE
  8
0
 10
403.005188
 20
-218.651337
 11
403.005188
 21
-240.651337
  0
LINE
  8
0
 10
403.005127
 20
-218.651230
 11
403.987579
 21
-216.949539
  0
LINE
  8
0
 10
403.005310
 20
-240.651169
 11
403.987793
 21
-242.352875
  0
LINE
  8
0
 10
390.505188
 20
-223.651337
 11
390.505188
 21
-235.651337
  0
LINE
  8
0
 10
391.505188
 20
-222.651337
 11
391.505188
 21
-236.651337
  0
LINE
  8
0
 10
391.505188
 20
-222.651337
 11
403.005188
 21
-222.651337
  0
LINE
  8
0
  6
CENTER
 62
     2
 10
433.505188
 20
-83.180939
 11
433.505188
 21
-176.951340
  0
LINE
  8
0
 10
452.505188
 20
-94.651337
 11
511.529602
 21
-94.651337
  0
LINE
  8
0
 10
452.505188
 20
-236.651337
 11
473.480774
 21
-236.651337
  0
LINE
  8
0
 10
452.505188
 20
-108.651337
 11
507.778290
 21
-108.651337
  0
LINE
  8
0
 10
452.505188
 20
-222.651337
 11
477.232086
 21
-222.651337
  0
LINE
  8
0
 10
428.410095
 20
-164.901337
 11
438.600281
 21
-164.901337
  0
LINE
  8
0
 10
428.410095
 20
-166.401337
 11
438.600281
 21
-166.401337
  0
LINE
  8
0
 10
390.505493
 20
-107.651115
 11
391.505463
 21
-108.651123
  0
LINE
  8
0
 10
390.505096
 20
-95.651192
 11
391.505127
 21
-94.651199
  0
LINE
  8
0
 10
391.505188
 20
-108.651337
 11
403.005188
 21
-108.651337
  0
LINE
  8
0
 10
403.987671
 20
-88.949631
 11
414.005188
 21
-88.949631
  0
LINE
  8
0
 10
403.987671
 20
-95.300491
 11
414.005188
 21
-95.300491
  0
LINE
  8
0
 10
403.987671
 20
-108.002197
 11
414.005188
 21
-108.002197
  0
LINE
  8
0
 10
403.987671
 20
-114.353043
 11
414.005188
 21
-114.353043
  0
LINE
  8
0
 10
414.005188
 20
-88.949631
 11
414.005188
 21
-114.353043
  0
LINE
  8
0
 10
403.005188
 20
-90.651291
 11
403.005188
 21
-112.651337
  0
LINE
  8
0
 10
403.005310
 20
-90.651390
 11
403.987793
 21
-88.949677
  0
LINE
  8
0
 10
403.005676
 20
-112.651093
 11
403.988159
 21
-114.352798
  0
LINE
  8
0
 10
390.505188
 20
-95.651337
 11
390.505188
 21
-107.651337
  0
LINE
  8
0
 10
391.505188
 20
-94.651337
 11
391.505188
 21
-108.651337
  0
LINE
  8
0
 10
391.505188
 20
-94.651337
 11
403.005188
 21
-94.651337
  0
LINE
  8
0
  6
PHANTOM
 62
     2
 10
471.135254
 20
-245.404617
 11
513.751282
 21
-86.359520
  0
LINE
  8
0
 10
414.005188
 20
-217.651337
 11
417.505188
 21
-217.651337
  0
LINE
  8
0
 10
414.005188
 20
-241.651337
 11
417.505188
 21
-241.651337
  0
LINE
  8
0
 10
414.005188
 20
-89.651337
 11
417.505188
 21
-89.651337
  0
LINE
  8
0
 10
414.005188
 20
-113.651337
 11
417.505188
 21
-113.651337
  0
LINE
  8
0
 10
417.505188
 20
-245.651337
 11
452.505188
 21
-245.651337
  0
LINE
  8
0
  6
DASHED
 62
     2
 10
423.005493
 20
-85.651108
 11
424.505463
 21
-87.151108
  0
LINE
  8
0
  6
DASHED
 62
     2
 10
424.505188
 20
-87.151337
 11
442.505188
 21
-87.151337
  0
LINE
  8
0
  6
DASHED
 62
     2
 10
442.505035
 20
-87.151222
 11
444.005035
 21
-85.651222
  0
LINE
  8
0
  6
DASHED
 62
     2
 10
444.005371
 20
-85.651314
 11
443.605682
 21
-97.097740
  0
LINE
  8
0
  6
DASHED
 62
     2
 10
442.505188
 20
-87.151337
 11
442.505188
 21
-97.001343
  0
LINE
  8
0
  6
DASHED
 62
     2
 10
424.505188
 20
-95.801346
 11
424.505188
 21
-87.151337
  0
LINE
  8
0
  6
DASHED
 62
     2
 10
423.005035
 20
-85.651329
 11
423.380219
 21
-96.395203
  0
LINE
  8
0
 10
452.505188
 20
-90.651337
 11
512.601379
 21
-90.651337
  0
LINE
  8
0
 10
452.505188
 20
-240.651337
 11
472.408997
 21
-240.651337
  0
LINE
  8
0
 62
     2
 10
390.505188
 20
-224.051331
 11
403.005188
 21
-224.051331
  0
LINE
  8
0
 62
     2
 10
390.505188
 20
-235.251343
 11
403.005188
 21
-235.251343
  0
LINE
  8
0
 62
     2
 10
390.505188
 20
-96.051331
 11
403.005188
 21
-96.051331
  0
LINE
  8
0
 62
     2
 10
390.505188
 20
-107.251343
 11
403.005188
 21
-107.251343
  0
LINE
  8
0
 10
414.005188
 20
45.240356
 11
403.005188
 21
45.240356
  0
LINE
  8
0
 10
414.005188
 20
56.240356
 11
403.987671
 21
56.240356
  0
LINE
  8
0
 10
414.005188
 20
44.240356
 11
414.005188
 21
68.240356
  0
LINE
  8
0
 10
414.005188
 20
67.240356
 11
403.005188
 21
67.240356
  0
LINE
  8
0
 10
403.005188
 20
45.240356
 11
403.005188
 21
67.240356
  0
LINE
  8
0
 10
414.005188
 20
173.240356
 11
403.005188
 21
173.240356
  0
LINE
  8
0
 10
414.005188
 20
184.240356
 11
403.987671
 21
184.240356
  0
LINE
  8
0
 10
414.005188
 20
172.240356
 11
414.005188
 21
196.240356
  0
LINE
  8
0
 10
414.005188
 20
195.240356
 11
403.005188
 21
195.240356
  0
LINE
  8
0
 10
403.005188
 20
173.240356
 11
403.005188
 21
195.240356
  0
LINE
  8
0
 62
     4
 10
-128.610245
 20
-115.759644
 11
-128.610245
 21
-203.759644
  0
LINE
  8
0
 62
     4
 10
-127.610245
 20
-114.961349
 11
-127.610245
 21
-204.557938
  0
LINE
  8
0
 62
     4
 10
-128.610077
 20
-115.759682
 11
-127.811752
 21
-114.961342
  0
LINE
  8
0
 62
     4
 10
-136.610245
 20
-127.543152
 11
-136.610245
 21
-138.943146
  0
LINE
  8
0
 62
     4
 10
-136.610245
 20
-180.576141
 11
-136.610245
 21
-191.976151
  0
LINE
  8
0
 62
     4
 10
-135.410233
 20
-123.259644
 11
-135.410233
 21
-126.743134
  0
LINE
  8
0
 62
     4
 10
-128.610199
 20
-203.759613
 11
-127.811874
 21
-204.557922
  0
LINE
  8
0
 62
     4
 10
-134.410233
 20
-122.259644
 11
-128.610245
 21
-122.259644
  0
LINE
  8
0
 62
     4
 10
-134.410233
 20
-197.259644
 11
-128.610245
 21
-197.259644
  0
LINE
  8
0
 62
     4
 10
-135.410233
 20
-139.743134
 11
-135.410233
 21
-179.776154
  0
LINE
  8
0
 62
     4
 10
-135.410233
 20
-192.776154
 11
-135.410233
 21
-196.259644
  0
LINE
  8
0
 62
     4
 10
-135.810242
 20
-192.776154
 11
-128.610245
 21
-192.776154
  0
LINE
  8
0
 62
     4
 10
-135.810242
 20
-179.776154
 11
-128.610245
 21
-179.776154
  0
LINE
  8
0
 62
     4
 10
-135.810242
 20
-126.743134
 11
-128.610245
 21
-126.743134
  0
LINE
  8
0
 62
     4
 10
-135.810242
 20
-139.743134
 11
-128.610245
 21
-139.743134
  0
LINE
  8
0
 62
     4
 10
-136.610321
 20
-127.543129
 11
-135.810318
 21
-126.743126
  0
LINE
  8
0
 62
     4
 10
-136.610229
 20
-138.943130
 11
-135.810226
 21
-139.743134
  0
LINE
  8
0
 62
     4
 10
-135.810242
 20
-179.776138
 11
-136.610245
 21
-180.576141
  0
LINE
  8
0
 62
     4
 10
-136.610275
 20
-191.976151
 11
-135.810272
 21
-192.776169
  0
LINE
  8
0
 62
     4
 10
-135.810272
 20
-126.743134
 11
-135.810272
 21
-139.743134
  0
LINE
  8
0
 62
     4
 10
-135.810242
 20
-179.776154
 11
-135.810242
 21
-192.776154
  0
LINE
  8
0
 62
     4
 10
-126.910233
 20
-204.759644
 11
-123.410233
 21
-204.759644
  0
LINE
  8
0
 62
     4
 10
-126.910233
 20
-114.759644
 11
-123.410233
 21
-114.759644
  0
LINE
  8
0
 62
     4
 10
-226.410233
 20
-144.759644
 11
-226.410233
 21
-174.759644
  0
LINE
  8
0
 62
     4
 10
-223.410233
 20
-144.759644
 11
-223.410233
 21
-174.759644
  0
LINE
  8
0
 62
     4
 10
-223.410172
 20
-174.759613
 11
-218.214035
 21
-177.759613
  0
LINE
  8
0
 62
     4
 10
-223.410141
 20
-144.759766
 11
-218.213989
 21
-141.759766
  0
LINE
  8
0
 62
     4
 10
-218.214081
 20
-141.759644
 11
-196.410233
 21
-141.759644
  0
LINE
  8
0
 62
     4
 10
-218.214081
 20
-177.759644
 11
-196.410233
 21
-177.759644
  0
LINE
  8
0
 62
     4
 10
-218.214081
 20
-151.513428
 11
-211.410233
 21
-151.513428
  0
LINE
  8
0
 62
     4
 10
-218.214081
 20
-168.005859
 11
-211.410233
 21
-168.005859
  0
LINE
  8
0
 62
     4
 10
-211.410233
 20
-151.513428
 11
-211.410233
 21
-168.005859
  0
LINE
  8
0
 62
     4
 10
-218.214081
 20
-141.759644
 11
-218.214081
 21
-151.513428
  0
LINE
  8
0
 62
     4
 10
-218.214081
 20
-168.005859
 11
-218.214081
 21
-177.759644
  0
LINE
  8
0
 62
     1
 10
-211.410706
 20
-151.513290
 11
-218.214539
 21
-168.005707
  0
LINE
  8
0
 62
     1
 10
-218.214005
 20
-151.513412
 11
-211.410156
 21
-168.005814
  0
LINE
  8
0
 62
     4
 10
-146.410217
 20
-130.199738
 11
-136.610229
 21
-129.807739
  0
LINE
  8
0
 62
     4
 10
-146.410263
 20
-189.319626
 11
-136.610260
 21
-189.711624
  0
LINE
  8
0
 62
     4
 10
-161.410233
 20
-123.759644
 11
-161.410233
 21
-195.759644
  0
LINE
  8
0
 62
     4
 10
-146.410233
 20
-129.199677
 11
-146.410233
 21
-190.319641
  0
LINE
  8
0
 62
     4
 10
-181.410233
 20
-123.759644
 11
-181.410233
 21
-195.759644
  0
LINE
  8
0
 62
     4
 10
-196.410233
 20
-140.759644
 11
-196.410233
 21
-178.759644
  0
LINE
  8
0
 62
     4
 10
-159.410233
 20
-129.199677
 11
-149.410233
 21
-129.199677
  0
LINE
  8
0
 62
     4
 10
-159.410233
 20
-190.319641
 11
-149.410233
 21
-190.319641
  0
LINE
  8
0
 62
     4
 10
-149.410233
 20
-129.199677
 11
-149.410233
 21
-190.319641
  0
LINE
  8
0
 62
     4
 10
-193.410233
 20
-140.759644
 11
-193.410233
 21
-178.759644
  0
LINE
  8
0
 62
     4
 10
-193.410233
 20
-140.759644
 11
-183.410233
 21
-140.759644
  0
LINE
  8
0
 62
     4
 10
-193.410233
 20
-178.759644
 11
-183.410233
 21
-178.759644
  0
LINE
  8
0
 62
     4
 10
-159.410233
 20
-129.199677
 11
-159.410233
 21
-190.319641
  0
LINE
  8
0
 62
     4
 10
-183.410233
 20
-140.759644
 11
-183.410233
 21
-178.759644
  0
LINE
  8
0
 62
     4
 10
-183.410233
 20
-141.259644
 11
-182.910233
 21
-141.259644
  0
LINE
  8
0
 62
     4
 10
-183.410233
 20
-178.259644
 11
-182.910233
 21
-178.259644
  0
LINE
  8
0
 62
     4
 10
-159.910233
 20
-129.699677
 11
-159.410233
 21
-129.699677
  0
LINE
  8
0
 62
     4
 10
-159.910233
 20
-189.819641
 11
-159.410233
 21
-189.819641
  0
LINE
  8
0
 62
     4
 10
-159.410233
 20
-158.759644
 11
-149.410233
 21
-158.759644
  0
LINE
  8
0
 62
     4
 10
-159.410233
 20
-160.759644
 11
-149.410233
 21
-160.759644
  0
LINE
  8
0
 62
     4
 10
-159.410233
 20
-157.759644
 11
-149.410233
 21
-157.759644
  0
LINE
  8
0
 62
     4
 10
-158.106384
 20
-163.759644
 11
-150.714081
 21
-163.759644
  0
LINE
  8
0
 62
     4
 10
-150.714096
 20
-163.759659
 11
-150.178192
 21
-161.759628
  0
LINE
  8
0
 62
     4
 10
-158.106400
 20
-163.759644
 11
-158.642288
 21
-161.759644
  0
LINE
  8
0
 62
     4
 10
-150.410233
 20
-156.759644
 11
-150.410233
 21
-157.759644
  0
LINE
  8
0
 62
     4
 10
-158.410233
 20
-156.759644
 11
-158.410233
 21
-157.759644
  0
LINE
  8
0
 62
     4
 10
-156.410233
 20
-154.759644
 11
-152.410233
 21
-154.759644
  0
LINE
  8
0
 62
     4
 10
-152.410233
 20
-158.759644
 11
-152.410233
 21
-160.759644
  0
LINE
  8
0
 62
     4
 10
-156.410233
 20
-158.759644
 11
-156.410233
 21
-160.759644
  0
LINE
  8
0
 62
     1
 10
-155.910233
 20
-158.759644
 11
-155.910233
 21
-160.759644
  0
LINE
  8
0
 62
     1
 10
-152.910233
 20
-158.759644
 11
-152.910233
 21
-160.759644
  0
LINE
  8
0
 62
     4
 10
-156.410233
 20
-169.759644
 11
-152.410233
 21
-169.759644
  0
LINE
  8
0
 62
     4
 10
-156.410233
 20
-163.759644
 11
-156.410233
 21
-169.759644
  0
LINE
  8
0
 62
     1
 10
-155.910233
 20
-163.759644
 11
-155.910233
 21
-169.759644
  0
LINE
  8
0
 62
     1
 10
-152.910233
 20
-163.759644
 11
-152.910233
 21
-169.759644
  0
LINE
  8
0
 62
     4
 10
-152.410233
 20
-163.759644
 11
-152.410233
 21
-169.759644
  0
LINE
  8
0
 62
     1
 10
-171.173080
 20
-122.259644
 11
-171.388763
 21
-122.259644
  0
LINE
  8
0
 62
     1
 10
-171.031281
 20
-197.259644
 11
-171.388763
 21
-197.259644
  0
LINE
  8
0
 62
     4
 10
-178.410233
 20
-123.759644
 11
-178.410233
 21
-195.759644
  0
LINE
  8
0
 62
     4
 10
-175.410233
 20
-123.759644
 11
-175.410233
 21
-195.759644
  0
LINE
  8
0
 62
     4
 10
-172.410233
 20
-123.759644
 11
-172.410233
 21
-195.759644
  0
LINE
  8
0
 62
     4
 10
-164.410233
 20
-123.759644
 11
-164.410233
 21
-195.759644
  0
LINE
  8
0
 62
     4
 10
-167.410233
 20
-123.759644
 11
-167.410233
 21
-195.759644
  0
LINE
  8
0
 62
     4
 10
-170.410233
 20
-123.759644
 11
-170.410233
 21
-195.759644
  0
LINE
  8
0
 62
     4
 10
-190.410233
 20
-154.759644
 11
-186.410233
 21
-154.759644
  0
LINE
  8
0
 62
     4
 10
-192.410233
 20
-156.759644
 11
-192.410233
 21
-157.759644
  0
LINE
  8
0
 62
     4
 10
-184.410233
 20
-156.759644
 11
-184.410233
 21
-157.759644
  0
LINE
  8
0
 62
     4
 10
-193.410233
 20
-157.759644
 11
-183.410233
 21
-157.759644
  0
LINE
  8
0
 62
     4
 10
-193.410233
 20
-158.759644
 11
-183.410233
 21
-158.759644
  0
LINE
  8
0
 62
     4
 10
-186.410233
 20
-158.759644
 11
-186.410233
 21
-160.759644
  0
LINE
  8
0
 62
     1
 10
-186.910233
 20
-158.759644
 11
-186.910233
 21
-160.759644
  0
LINE
  8
0
 62
     1
 10
-189.910233
 20
-158.759644
 11
-189.910233
 21
-160.759644
  0
LINE
  8
0
 62
     4
 10
-190.410233
 20
-158.759644
 11
-190.410233
 21
-160.759644
  0
LINE
  8
0
 62
     4
 10
-193.410233
 20
-160.759644
 11
-183.410233
 21
-160.759644
  0
LINE
  8
0
 62
     4
 10
-184.714111
 20
-163.759689
 11
-184.178207
 21
-161.759674
  0
LINE
  8
0
 62
     4
 10
-192.106384
 20
-163.759644
 11
-184.714081
 21
-163.759644
  0
LINE
  8
0
 62
     4
 10
-186.410233
 20
-163.759644
 11
-186.410233
 21
-169.759644
  0
LINE
  8
0
 62
     1
 10
-186.910233
 20
-163.759644
 11
-186.910233
 21
-169.759644
  0
LINE
  8
0
 62
     1
 10
-189.910233
 20
-163.759644
 11
-189.910233
 21
-169.759644
  0
LINE
  8
0
 62
     4
 10
-190.410233
 20
-163.759644
 11
-190.410233
 21
-169.759644
  0
LINE
  8
0
 62
     4
 10
-192.106415
 20
-163.759628
 11
-192.642303
 21
-161.759644
  0
LINE
  8
0
 62
     4
 10
-190.410233
 20
-169.759644
 11
-186.410233
 21
-169.759644
  0
LINE
  8
0
 62
     4
 10
-159.410233
 20
-161.759644
 11
-149.410233
 21
-161.759644
  0
LINE
  8
0
 62
     4
 10
-193.410233
 20
-161.759644
 11
-183.410233
 21
-161.759644
  0
LINE
  8
0
 62
     1
 10
-276.410217
 20
-174.009644
 11
-226.410233
 21
-174.009644
  0
LINE
  8
0
 62
     4
 10
-276.410217
 20
-145.509644
 11
-276.410217
 21
-174.009644
  0
LINE
  8
0
 62
     4
 10
-275.660217
 20
-144.759644
 11
-223.410233
 21
-144.759644
  0
LINE
  8
0
 62
     4
 10
-275.660217
 20
-174.759644
 11
-223.410233
 21
-174.759644
  0
LINE
  8
0
 62
     4
 10
-276.410461
 20
-145.509491
 11
-275.660461
 21
-144.759476
  0
LINE
  8
0
 62
     4
 10
-276.410492
 20
-174.009872
 11
-275.660492
 21
-174.759872
  0
LINE
  8
0
 62
     1
 10
-276.410217
 20
-145.509644
 11
-226.410233
 21
-145.509644
  0
LINE
  8
0
 62
     1
 10
-226.410233
 20
-174.009613
 11
-225.111191
 21
-174.759613
  0
LINE
  8
0
 62
     4
 10
-275.660217
 20
-144.759644
 11
-275.660217
 21
-174.759644
  0
LINE
  8
0
 62
     1
 10
-226.410263
 20
-145.509628
 11
-225.111237
 21
-144.759628
  0
LINE
  8
0
 62
     4
 10
-432.376343
 20
-188.725815
 11
-429.030273
 21
-189.622406
  0
LINE
  8
0
 62
     4
 10
-433.272736
 20
-185.379486
 11
-432.376160
 21
-188.725555
  0
LINE
  8
0
 62
     4
 10
-429.030029
 20
-189.622284
 11
-427.720306
 21
-188.312561
  0
LINE
  8
0
 62
     4
 10
-433.272736
 20
-185.379639
 11
-431.962952
 21
-184.069870
  0
LINE
  8
0
 62
     4
 10
-429.030060
 20
-129.896973
 11
-427.720337
 21
-131.206711
  0
LINE
  8
0
 62
     4
 10
-432.376404
 20
-130.793594
 11
-433.272980
 21
-134.139664
  0
LINE
  8
0
 62
     4
 10
-429.030121
 20
-129.897064
 11
-432.376190
 21
-130.793640
  0
LINE
  8
0
 62
     4
 10
-433.272614
 20
-134.139587
 11
-431.962891
 21
-135.449310
  0
LINE
  8
0
 62
     4
 10
-374.857300
 20
-184.069717
 11
-373.547546
 21
-185.379486
  0
LINE
  8
0
 62
     4
 10
-373.547791
 20
-185.379501
 11
-374.444397
 21
-188.725571
  0
LINE
  8
0
 62
     4
 10
-374.444214
 20
-188.725616
 11
-377.790222
 21
-189.622177
  0
LINE
  8
0
 62
     4
 10
-379.099884
 20
-188.312363
 11
-377.790192
 21
-189.622070
  0
LINE
  8
0
 62
     4
 10
-379.099945
 20
-131.206909
 11
-377.790192
 21
-129.897141
  0
LINE
  8
0
 62
     4
 10
-377.790375
 20
-129.897141
 11
-374.444275
 21
-130.793732
  0
LINE
  8
0
 62
     4
 10
-374.444122
 20
-130.793625
 11
-373.547546
 21
-134.139648
  0
LINE
  8
0
 62
     4
 10
-374.857300
 20
-135.449509
 11
-373.547577
 21
-134.139786
  0
LINE
  8
0
 62
     4
 10
-387.410217
 20
-151.513428
 11
-387.410217
 21
-168.005859
  0
LINE
  8
0
 62
     4
 10
-419.410217
 20
-151.513428
 11
-419.410217
 21
-168.005859
  0
LINE
  8
0
 62
     4
 10
-380.410217
 20
-154.759644
 11
-376.410217
 21
-154.759644
  0
LINE
  8
0
 62
     4
 10
-382.410217
 20
-156.759644
 11
-382.410217
 21
-157.759644
  0
LINE
  8
0
 62
     4
 10
-374.410217
 20
-156.759644
 11
-374.410217
 21
-157.759644
  0
LINE
  8
0
 62
     4
 10
-383.008026
 20
-157.759644
 11
-373.410217
 21
-157.759644
  0
LINE
  8
0
 62
     4
 10
-382.934631
 20
-158.759644
 11
-373.410217
 21
-158.759644
  0
LINE
  8
0
 62
     1
 10
-376.910217
 20
-158.759644
 11
-376.910217
 21
-160.759644
  0
LINE
  8
0
 62
     4
 10
-376.410217
 20
-158.759644
 11
-376.410217
 21
-160.759644
  0
LINE
  8
0
 62
     1
 10
-379.910217
 20
-158.759644
 11
-379.910217
 21
-160.759644
  0
LINE
  8
0
 62
     4
 10
-380.410217
 20
-158.759644
 11
-380.410217
 21
-160.759644
  0
LINE
  8
0
 62
     4
 10
-382.934631
 20
-160.759644
 11
-373.410217
 21
-160.759644
  0
LINE
  8
0
 62
     4
 10
-382.106567
 20
-163.759644
 11
-382.642456
 21
-161.759628
  0
LINE
  8
0
 62
     4
 10
-382.106384
 20
-163.759644
 11
-374.714050
 21
-163.759644
  0
LINE
  8
0
 62
     4
 10
-380.410217
 20
-163.759644
 11
-380.410217
 21
-169.759644
  0
LINE
  8
0
 62
     1
 10
-379.910217
 20
-163.759644
 11
-379.910217
 21
-169.759644
  0
LINE
  8
0
 62
     1
 10
-376.910217
 20
-163.759644
 11
-376.910217
 21
-169.759644
  0
LINE
  8
0
 62
     4
 10
-376.410217
 20
-163.759644
 11
-376.410217
 21
-169.759644
  0
LINE
  8
0
 62
     4
 10
-374.714020
 20
-163.759674
 11
-374.178131
 21
-161.759644
  0
LINE
  8
0
 62
     4
 10
-380.410217
 20
-169.759644
 11
-376.410217
 21
-169.759644
  0
LINE
  8
0
 62
     4
 10
-383.008026
 20
-161.759644
 11
-373.410217
 21
-161.759644
  0
LINE
  8
0
 62
     4
 10
-373.410217
 20
-157.759644
 11
-373.410217
 21
-158.759644
  0
LINE
  8
0
 62
     4
 10
-373.410217
 20
-160.759644
 11
-373.410217
 21
-161.759644
  0
LINE
  8
0
 62
     4
 10
-128.610245
 20
164.240356
 11
-128.610245
 21
76.240356
  0
LINE
  8
0
 62
     4
 10
-127.610245
 20
165.038635
 11
-127.610245
 21
75.240356
  0
LINE
  8
0
 62
     4
 10
-128.609818
 20
164.240097
 11
-127.609848
 21
165.240097
  0
LINE
  8
0
 62
     4
 10
-136.610245
 20
152.456848
 11
-136.610245
 21
141.056854
  0
LINE
  8
0
 62
     4
 10
-136.610245
 20
99.423859
 11
-136.610245
 21
88.023849
  0
LINE
  8
0
 62
     4
 10
-135.410233
 20
156.740356
 11
-135.410233
 21
153.256866
  0
LINE
  8
0
 62
     4
 10
-128.610291
 20
76.240341
 11
-127.610275
 21
75.240349
  0
LINE
  8
0
 62
     4
 10
-134.410233
 20
157.740356
 11
-128.610245
 21
157.740356
  0
LINE
  8
0
 62
     4
 10
-134.410233
 20
82.740356
 11
-128.610245
 21
82.740356
  0
LINE
  8
0
 62
     4
 10
-135.410233
 20
140.256866
 11
-135.410233
 21
100.223846
  0
LINE
  8
0
 62
     4
 10
-135.410233
 20
87.223846
 11
-135.410233
 21
83.740356
  0
LINE
  8
0
 62
     4
 10
-135.810242
 20
87.223846
 11
-128.610245
 21
87.223846
  0
LINE
  8
0
 62
     4
 10
-135.810242
 20
100.223846
 11
-128.610245
 21
100.223846
  0
LINE
  8
0
 62
     4
 10
-135.810242
 20
153.256866
 11
-128.610245
 21
153.256866
  0
LINE
  8
0
 62
     4
 10
-135.810242
 20
140.256866
 11
-128.610245
 21
140.256866
  0
LINE
  8
0
 62
     4
 10
-136.610352
 20
152.456955
 11
-135.810349
 21
153.256958
  0
LINE
  8
0
 62
     4
 10
-136.610321
 20
141.056763
 11
-135.810318
 21
140.256760
  0
LINE
  8
0
 62
     4
 10
-135.810242
 20
100.223778
 11
-136.610214
 21
99.423798
  0
LINE
  8
0
 62
     4
 10
-136.610214
 20
88.023903
 11
-135.810211
 21
87.223892
  0
LINE
  8
0
 62
     4
 10
-135.810272
 20
153.256866
 11
-135.810272
 21
140.256866
  0
LINE
  8
0
 62
     4
 10
-135.810242
 20
100.223846
 11
-135.810242
 21
87.223846
  0
LINE
  8
0
 62
     4
 10
-127.610237
 20
75.240356
 11
-123.410233
 21
75.240356
  0
LINE
  8
0
 62
     4
 10
-127.610199
 20
165.240356
 11
-123.410233
 21
165.240356
  0
LINE
  8
0
 62
     4
 10
-226.410233
 20
135.240356
 11
-226.410233
 21
105.240356
  0
LINE
  8
0
 62
     4
 10
-223.410233
 20
135.240356
 11
-223.410233
 21
105.240356
  0
LINE
  8
0
 62
     4
 10
-223.410294
 20
105.240250
 11
-221.678299
 21
104.240280
  0
LINE
  8
0
 62
     4
 10
-223.410080
 20
135.240189
 11
-221.677872
 21
136.240280
  0
LINE
  8
0
 62
     4
 10
-210.255539
 20
138.240356
 11
-196.410233
 21
138.240356
  0
LINE
  8
0
 62
     4
 10
-210.255524
 20
102.240356
 11
-196.410233
 21
102.240356
  0
LINE
  8
0
 62
     4
 10
-218.214081
 20
136.240356
 11
-218.214081
 21
104.240356
  0
LINE
  8
0
 62
     4
 10
-146.410217
 20
149.800110
 11
-136.610229
 21
150.192108
  0
LINE
  8
0
 62
     4
 10
-146.410263
 20
90.680656
 11
-136.610275
 21
90.288658
  0
LINE
  8
0
 62
     4
 10
-161.410233
 20
156.240356
 11
-161.410233
 21
84.240356
  0
LINE
  8
0
 62
     4
 10
-146.410233
 20
150.800323
 11
-146.410233
 21
89.680359
  0
LINE
  8
0
 62
     4
 10
-181.410233
 20
156.240356
 11
-181.410233
 21
84.240356
  0
LINE
  8
0
 62
     4
 10
-196.410233
 20
139.240356
 11
-196.410233
 21
101.240356
  0
LINE
  8
0
 62
     4
 10
-159.410233
 20
150.800323
 11
-149.410233
 21
150.800323
  0
LINE
  8
0
 62
     4
 10
-159.410233
 20
89.680359
 11
-149.410233
 21
89.680359
  0
LINE
  8
0
 62
     4
 10
-149.410233
 20
150.800323
 11
-149.410233
 21
78.680344
  0
LINE
  8
0
 62
     4
 10
-193.410233
 20
139.240356
 11
-193.410233
 21
90.240356
  0
LINE
  8
0
 62
     4
 10
-193.410233
 20
139.240356
 11
-183.410233
 21
139.240356
  0
LINE
  8
0
 62
     4
 10
-193.410233
 20
101.240356
 11
-183.410233
 21
101.240356
  0
LINE
  8
0
 62
     4
 10
-159.410233
 20
150.800323
 11
-159.410233
 21
78.680344
  0
LINE
  8
0
 62
     4
 10
-183.410233
 20
139.240356
 11
-183.410233
 21
90.240356
  0
LINE
  8
0
 62
     4
 10
-183.410233
 20
138.740356
 11
-182.910233
 21
138.740356
  0
LINE
  8
0
 62
     4
 10
-183.410233
 20
101.740356
 11
-182.910233
 21
101.740356
  0
LINE
  8
0
 62
     4
 10
-159.910233
 20
150.300323
 11
-159.410233
 21
150.300323
  0
LINE
  8
0
 62
     4
 10
-159.910233
 20
90.180359
 11
-159.410233
 21
90.180359
  0
LINE
  8
0
 62
     1
 10
-171.173080
 20
157.740356
 11
-171.388763
 21
157.740356
  0
LINE
  8
0
 62
     1
 10
-171.031281
 20
82.740356
 11
-171.388763
 21
82.740356
  0
LINE
  8
0
 62
     4
 10
-178.410233
 20
156.240356
 11
-178.410233
 21
84.240356
  0
LINE
  8
0
 62
     4
 10
-175.410233
 20
156.240356
 11
-175.410233
 21
84.240356
  0
LINE
  8
0
 62
     4
 10
-172.410233
 20
156.240356
 11
-172.410233
 21
84.240356
  0
LINE
  8
0
 62
     4
 10
-164.410233
 20
156.240356
 11
-164.410233
 21
84.240356
  0
LINE
  8
0
 62
     4
 10
-167.410233
 20
156.240356
 11
-167.410233
 21
84.240356
  0
LINE
  8
0
 62
     4
 10
-170.410233
 20
156.240356
 11
-170.410233
 21
84.240356
  0
LINE
  8
0
 62
     4
 10
-276.410217
 20
134.490356
 11
-276.410217
 21
105.990356
  0
LINE
  8
0
 62
     4
 10
-275.660217
 20
135.240356
 11
-223.410233
 21
135.240356
  0
LINE
  8
0
 62
     4
 10
-275.660217
 20
105.240356
 11
-223.410233
 21
105.240356
  0
LINE
  8
0
 62
     4
 10
-275.660217
 20
135.240356
 11
-275.660217
 21
105.240356
  0
LINE
  8
0
 62
     1
 10
-226.410263
 20
134.490479
 11
-225.111221
 21
135.240479
  0
LINE
  8
0
 62
     4
 10
-221.677979
 20
136.240356
 11
-211.410233
 21
136.240356
  0
LINE
  8
0
 62
     4
 10
-221.678268
 20
104.240356
 11
-211.410233
 21
104.240356
  0
LINE
  8
0
 62
     4
 10
-159.410248
 20
78.680344
 11
-149.410248
 21
78.680344
  0
LINE
  8
0
 62
     4
 10
-155.895248
 20
82.195541
 11
-152.925400
 21
85.165398
  0
LINE
  8
0
 62
     4
 10
-155.895172
 20
85.165329
 11
-152.925323
 21
82.195473
  0
LINE
  8
0
 62
     4
 10
-189.895279
 20
93.755547
 11
-186.925415
 21
96.725403
  0
LINE
  8
0
 62
     4
 10
-189.895142
 20
96.725311
 11
-186.925278
 21
93.755455
  0
LINE
  8
0
 62
     4
 10
-193.410233
 20
90.240356
 11
-183.410233
 21
90.240356
  0
LINE
  8
0
 62
     4
 10
-211.410065
 20
136.240311
 11
-210.255371
 21
138.240326
  0
LINE
  8
0
 62
     4
 10
-211.410217
 20
104.240387
 11
-210.255524
 21
102.240395
  0
LINE
  8
0
 62
     1
 10
-276.410217
 20
105.990356
 11
-226.410233
 21
105.990356
  0
LINE
  8
0
 62
     1
 10
-276.410217
 20
134.490356
 11
-226.410233
 21
134.490356
  0
LINE
  8
0
 62
     4
 10
-276.410645
 20
134.490723
 11
-275.660645
 21
135.240723
  0
LINE
  8
0
 62
     4
 10
-276.410400
 20
105.990364
 11
-275.660400
 21
105.240364
  0
LINE
  8
0
 62
     1
 10
-226.410187
 20
105.990326
 11
-225.111160
 21
105.240318
  0
LINE
  8
0
 62
     4
 10
412.305176
 20
-121.651337
 11
412.305176
 21
-209.651337
  0
LINE
  8
0
 62
     4
 10
413.305176
 20
-120.651337
 11
413.305176
 21
-210.651337
  0
LINE
  8
0
 62
     4
 10
412.304718
 20
-121.650856
 11
413.304657
 21
-120.650909
  0
LINE
  8
0
 62
     4
 10
404.305176
 20
-133.434845
 11
404.305176
 21
-144.834839
  0
LINE
  8
0
 62
     4
 10
404.305176
 20
-186.467834
 11
404.305176
 21
-197.867844
  0
LINE
  8
0
 62
     4
 10
405.505188
 20
-129.151337
 11
405.505188
 21
-132.634827
  0
LINE
  8
0
 62
     4
 10
412.305054
 20
-209.651413
 11
413.305084
 21
-210.651428
  0
LINE
  8
0
 62
     4
 10
406.505188
 20
-128.151337
 11
412.305176
 21
-128.151337
  0
LINE
  8
0
 62
     4
 10
406.505188
 20
-203.151337
 11
412.305176
 21
-203.151337
  0
LINE
  8
0
 62
     4
 10
405.505188
 20
-145.634827
 11
405.505188
 21
-185.667847
  0
LINE
  8
0
 62
     4
 10
405.505188
 20
-198.667847
 11
405.505188
 21
-202.151337
  0
LINE
  8
0
 62
     4
 10
405.105164
 20
-198.667847
 11
412.305176
 21
-198.667847
  0
LINE
  8
0
 62
     4
 10
405.105164
 20
-185.667847
 11
412.305176
 21
-185.667847
  0
LINE
  8
0
 62
     4
 10
405.105164
 20
-132.634827
 11
412.305176
 21
-132.634827
  0
LINE
  8
0
 62
     4
 10
405.105164
 20
-145.634827
 11
412.305176
 21
-145.634827
  0
LINE
  8
0
 62
     4
 10
404.305298
 20
-133.435028
 11
405.105316
 21
-132.635010
  0
LINE
  8
0
 62
     4
 10
404.304993
 20
-144.834976
 11
405.104980
 21
-145.634964
  0
LINE
  8
0
 62
     4
 10
405.104980
 20
-185.667740
 11
404.304993
 21
-186.467728
  0
LINE
  8
0
 62
     4
 10
404.305420
 20
-197.867706
 11
405.105438
 21
-198.667709
  0
LINE
  8
0
 62
     4
 10
405.105164
 20
-132.634827
 11
405.105164
 21
-145.634827
  0
LINE
  8
0
 62
     4
 10
405.105164
 20
-185.667847
 11
405.105164
 21
-198.667847
  0
LINE
  8
0
 62
     4
 10
413.305206
 20
-210.651337
 11
417.505188
 21
-210.651337
  0
LINE
  8
0
 62
     4
 10
413.305145
 20
-120.651337
 11
417.505188
 21
-120.651337
  0
LINE
  8
0
 62
     4
 10
264.505188
 20
-151.401337
 11
264.505188
 21
-179.901337
  0
LINE
  8
0
 62
     4
 10
265.255188
 20
-150.651337
 11
317.505188
 21
-150.651337
  0
LINE
  8
0
 62
     4
 10
265.255188
 20
-180.651337
 11
317.505188
 21
-180.651337
  0
LINE
  8
0
 62
     4
 10
314.505188
 20
-150.651337
 11
314.505188
 21
-180.651337
  0
LINE
  8
0
 62
     4
 10
317.505188
 20
-150.651337
 11
317.505188
 21
-180.651337
  0
LINE
  8
0
 62
     4
 10
317.505066
 20
-180.651443
 11
322.701202
 21
-183.651413
  0
LINE
  8
0
 62
     4
 10
317.505219
 20
-150.651306
 11
322.701355
 21
-147.651291
  0
LINE
  8
0
 62
     4
 10
322.701355
 20
-147.651337
 11
344.505188
 21
-147.651337
  0
LINE
  8
0
 62
     4
 10
322.701355
 20
-183.651337
 11
344.505188
 21
-183.651337
  0
LINE
  8
0
 62
     4
 10
322.701355
 20
-157.405121
 11
329.505188
 21
-157.405121
  0
LINE
  8
0
 62
     4
 10
322.701355
 20
-173.897552
 11
329.505188
 21
-173.897552
  0
LINE
  8
0
 62
     4
 10
329.505188
 20
-157.405121
 11
329.505188
 21
-173.897552
  0
LINE
  8
0
 62
     4
 10
322.701355
 20
-147.651337
 11
322.701355
 21
-157.405121
  0
LINE
  8
0
 62
     4
 10
322.701355
 20
-173.897552
 11
322.701355
 21
-183.651337
  0
LINE
  8
0
 62
     1
 10
329.505859
 20
-157.405411
 11
322.702026
 21
-173.897842
  0
LINE
  8
0
 62
     1
 10
322.701233
 20
-157.405182
 11
329.505096
 21
-173.897614
  0
LINE
  8
0
 62
     4
 10
394.505157
 20
-136.091446
 11
404.305145
 21
-135.699448
  0
LINE
  8
0
 62
     4
 10
394.505249
 20
-195.211395
 11
404.305237
 21
-195.603394
  0
LINE
  8
0
 62
     1
 10
264.505188
 20
-151.401337
 11
314.505188
 21
-151.401337
  0
LINE
  8
0
 62
     1
 10
314.505249
 20
-151.401367
 11
315.804047
 21
-150.651505
  0
LINE
  8
0
 62
     4
 10
379.505188
 20
-129.651337
 11
379.505188
 21
-201.651337
  0
LINE
  8
0
 62
     4
 10
394.505188
 20
-135.091370
 11
394.505188
 21
-196.211334
  0
LINE
  8
0
 62
     4
 10
359.505188
 20
-129.651337
 11
359.505188
 21
-201.651337
  0
LINE
  8
0
 62
     4
 10
344.505188
 20
-146.651337
 11
344.505188
 21
-184.651337
  0
LINE
  8
0
 62
     4
 10
381.505188
 20
-135.091370
 11
391.505188
 21
-135.091370
  0
LINE
  8
0
 62
     4
 10
381.505188
 20
-196.211334
 11
391.505188
 21
-196.211334
  0
LINE
  8
0
 62
     4
 10
391.505188
 20
-135.091370
 11
391.505188
 21
-196.211334
  0
LINE
  8
0
 62
     4
 10
347.505188
 20
-146.651337
 11
347.505188
 21
-184.651337
  0
LINE
  8
0
 62
     4
 10
347.505188
 20
-146.651337
 11
357.505188
 21
-146.651337
  0
LINE
  8
0
 62
     4
 10
347.505188
 20
-184.651337
 11
357.505188
 21
-184.651337
  0
LINE
  8
0
 62
     4
 10
381.505188
 20
-135.091370
 11
381.505188
 21
-196.211334
  0
LINE
  8
0
 62
     4
 10
357.505188
 20
-146.651337
 11
357.505188
 21
-184.651337
  0
LINE
  8
0
 62
     4
 10
357.505188
 20
-147.151337
 11
358.005188
 21
-147.151337
  0
LINE
  8
0
 62
     4
 10
357.505188
 20
-184.151337
 11
358.005188
 21
-184.151337
  0
LINE
  8
0
 62
     4
 10
381.005188
 20
-135.591370
 11
381.505188
 21
-135.591370
  0
LINE
  8
0
 62
     4
 10
381.005188
 20
-195.711334
 11
381.505188
 21
-195.711334
  0
LINE
  8
0
 62
     4
 10
381.505188
 20
-164.651337
 11
391.505188
 21
-164.651337
  0
LINE
  8
0
 62
     4
 10
381.505188
 20
-166.651337
 11
391.505188
 21
-166.651337
  0
LINE
  8
0
 62
     4
 10
381.505188
 20
-163.651337
 11
391.505188
 21
-163.651337
  0
LINE
  8
0
 62
     4
 10
382.809021
 20
-169.651337
 11
390.201355
 21
-169.651337
  0
LINE
  8
0
 62
     4
 10
390.201202
 20
-169.651276
 11
390.737091
 21
-167.651276
  0
LINE
  8
0
 62
     4
 10
382.809265
 20
-169.651230
 11
382.273376
 21
-167.651230
  0
LINE
  8
0
 62
     4
 10
390.505188
 20
-162.651337
 11
390.505188
 21
-163.651337
  0
LINE
  8
0
 62
     4
 10
382.505188
 20
-162.651337
 11
382.505188
 21
-163.651337
  0
LINE
  8
0
 62
     4
 10
384.505188
 20
-160.651337
 11
388.505188
 21
-160.651337
  0
LINE
  8
0
 62
     4
 10
388.505188
 20
-164.651337
 11
388.505188
 21
-166.651337
  0
LINE
  8
0
 62
     4
 10
384.505188
 20
-164.651337
 11
384.505188
 21
-166.651337
  0
LINE
  8
0
 62
     1
 10
385.005188
 20
-164.651337
 11
385.005188
 21
-166.651337
  0
LINE
  8
0
 62
     1
 10
388.005188
 20
-164.651337
 11
388.005188
 21
-166.651337
  0
LINE
  8
0
 62
     4
 10
384.505188
 20
-175.651337
 11
388.505188
 21
-175.651337
  0
LINE
  8
0
 62
     4
 10
384.505188
 20
-169.651337
 11
384.505188
 21
-175.651337
  0
LINE
  8
0
 62
     1
 10
385.005188
 20
-169.651337
 11
385.005188
 21
-175.651337
  0
LINE
  8
0
 62
     1
 10
388.005188
 20
-169.651337
 11
388.005188
 21
-175.651337
  0
LINE
  8
0
 62
     4
 10
388.505188
 20
-169.651337
 11
388.505188
 21
-175.651337
  0
LINE
  8
0
  6
CENTER
 62
     1
 10
369.742340
 20
-128.151337
 11
369.526672
 21
-128.151337
  0
LINE
  8
0
  6
CENTER
 62
     1
 10
369.884155
 20
-203.151337
 11
369.526672
 21
-203.151337
  0
LINE
  8
0
 62
     4
 10
362.505188
 20
-129.651337
 11
362.505188
 21
-201.651337
  0
LINE
  8
0
 62
     4
 10
365.505188
 20
-129.651337
 11
365.505188
 21
-201.651337
  0
LINE
  8
0
 62
     4
 10
368.505188
 20
-129.651337
 11
368.505188
 21
-201.651337
  0
LINE
  8
0
 62
     4
 10
376.505188
 20
-129.651337
 11
376.505188
 21
-201.651337
  0
LINE
  8
0
 62
     4
 10
373.505188
 20
-129.651337
 11
373.505188
 21
-201.651337
  0
LINE
  8
0
 62
     4
 10
370.505188
 20
-129.651337
 11
370.505188
 21
-201.651337
  0
LINE
  8
0
 62
     4
 10
350.505188
 20
-160.651337
 11
354.505188
 21
-160.651337
  0
LINE
  8
0
 62
     4
 10
348.505188
 20
-162.651337
 11
348.505188
 21
-163.651337
  0
LINE
  8
0
 62
     4
 10
356.505188
 20
-162.651337
 11
356.505188
 21
-163.651337
  0
LINE
  8
0
 62
     4
 10
347.505188
 20
-163.651337
 11
357.505188
 21
-163.651337
  0
LINE
  8
0
 62
     4
 10
347.505188
 20
-164.651337
 11
357.505188
 21
-164.651337
  0
LINE
  8
0
 62
     4
 10
354.505188
 20
-164.651337
 11
354.505188
 21
-166.651337
  0
LINE
  8
0
 62
     1
 10
354.005188
 20
-164.651337
 11
354.005188
 21
-166.651337
  0
LINE
  8
0
 62
     1
 10
351.005188
 20
-164.651337
 11
351.005188
 21
-166.651337
  0
LINE
  8
0
 62
     4
 10
350.505188
 20
-164.651337
 11
350.505188
 21
-166.651337
  0
LINE
  8
0
 62
     4
 10
347.505188
 20
-166.651337
 11
357.505188
 21
-166.651337
  0
LINE
  8
0
 62
     4
 10
356.201202
 20
-169.651367
 11
356.737122
 21
-167.651367
  0
LINE
  8
0
 62
     4
 10
348.809021
 20
-169.651337
 11
356.201355
 21
-169.651337
  0
LINE
  8
0
 62
     4
 10
354.505188
 20
-169.651337
 11
354.505188
 21
-175.651337
  0
LINE
  8
0
 62
     1
 10
354.005188
 20
-169.651337
 11
354.005188
 21
-175.651337
  0
LINE
  8
0
 62
     1
 10
351.005188
 20
-169.651337
 11
351.005188
 21
-175.651337
  0
LINE
  8
0
 62
     4
 10
350.505188
 20
-169.651337
 11
350.505188
 21
-175.651337
  0
LINE
  8
0
 62
     4
 10
348.809204
 20
-169.651260
 11
348.273315
 21
-167.651291
  0
LINE
  8
0
 62
     4
 10
350.505188
 20
-175.651337
 11
354.505188
 21
-175.651337
  0
LINE
  8
0
 62
     4
 10
381.505188
 20
-167.651337
 11
391.505188
 21
-167.651337
  0
LINE
  8
0
 62
     4
 10
347.505188
 20
-167.651337
 11
357.505188
 21
-167.651337
  0
LINE
  8
0
 62
     4
 10
264.505127
 20
-151.401215
 11
265.255096
 21
-150.651230
  0
LINE
  8
0
 62
     1
 10
264.505188
 20
-179.901337
 11
314.505188
 21
-179.901337
  0
LINE
  8
0
 62
     4
 10
264.505127
 20
-179.901413
 11
265.255096
 21
-180.651382
  0
LINE
  8
0
 62
     1
 10
314.505188
 20
-179.901566
 11
315.803955
 21
-180.651413
  0
LINE
  8
0
 62
     4
 10
265.255188
 20
-150.651337
 11
265.255188
 21
-180.651337
  0
LINE
  8
0
 62
     4
 10
108.539116
 20
-194.617416
 11
111.885185
 21
-195.513992
  0
LINE
  8
0
 62
     4
 10
107.642609
 20
-191.271240
 11
108.539177
 21
-194.617294
  0
LINE
  8
0
 62
     4
 10
111.885231
 20
-195.513840
 11
113.194962
 21
-194.204117
  0
LINE
  8
0
 62
     4
 10
107.642570
 20
-191.271164
 11
108.952301
 21
-189.961441
  0
LINE
  8
0
 62
     4
 10
111.885269
 20
-135.788773
 11
113.194992
 21
-137.098495
  0
LINE
  8
0
 62
     4
 10
108.539139
 20
-136.685333
 11
107.642570
 21
-140.031372
  0
LINE
  8
0
 62
     4
 10
111.885277
 20
-135.788742
 11
108.539207
 21
-136.685318
  0
LINE
  8
0
 62
     4
 10
107.642654
 20
-140.031372
 11
108.952385
 21
-141.341110
  0
LINE
  8
0
 62
     4
 10
166.058075
 20
-189.961517
 11
167.367844
 21
-191.271286
  0
LINE
  8
0
 62
     4
 10
167.367889
 20
-191.271301
 11
166.471298
 21
-194.617371
  0
LINE
  8
0
 62
     4
 10
166.471161
 20
-194.617340
 11
163.125153
 21
-195.513901
  0
LINE
  8
0
 62
     4
 10
161.815353
 20
-194.204102
 11
163.125046
 21
-195.513794
  0
LINE
  8
0
 62
     4
 10
161.815338
 20
-137.098450
 11
163.125107
 21
-135.788681
  0
LINE
  8
0
 62
     4
 10
163.125168
 20
-135.788757
 11
166.471237
 21
-136.685333
  0
LINE
  8
0
 62
     4
 10
166.471222
 20
-136.685333
 11
167.367783
 21
-140.031342
  0
LINE
  8
0
 62
     4
 10
166.057968
 20
-141.341171
 11
167.367722
 21
-140.031433
  0
LINE
  8
0
 62
     4
 10
153.505188
 20
-157.405121
 11
153.505188
 21
-173.897552
  0
LINE
  8
0
 62
     4
 10
121.505188
 20
-157.405121
 11
121.505188
 21
-173.897552
  0
LINE
  8
0
 62
     4
 10
160.505188
 20
-160.651337
 11
164.505188
 21
-160.651337
  0
LINE
  8
0
 62
     4
 10
158.505188
 20
-162.651337
 11
158.505188
 21
-163.651337
  0
LINE
  8
0
 62
     4
 10
166.505188
 20
-162.651337
 11
166.505188
 21
-163.651337
  0
LINE
  8
0
 62
     4
 10
157.907394
 20
-163.651337
 11
167.505188
 21
-163.651337
  0
LINE
  8
0
 62
     4
 10
157.980789
 20
-164.651337
 11
167.505188
 21
-164.651337
  0
LINE
  8
0
 62
     1
 10
164.005188
 20
-164.651337
 11
164.005188
 21
-166.651337
  0
LINE
  8
0
 62
     4
 10
164.505188
 20
-164.651337
 11
164.505188
 21
-166.651337
  0
LINE
  8
0
 62
     1
 10
161.005188
 20
-164.651337
 11
161.005188
 21
-166.651337
  0
LINE
  8
0
 62
     4
 10
160.505188
 20
-164.651337
 11
160.505188
 21
-166.651337
  0
LINE
  8
0
 62
     4
 10
157.980789
 20
-166.651337
 11
167.505188
 21
-166.651337
  0
LINE
  8
0
 62
     4
 10
158.809021
 20
-169.651260
 11
158.273117
 21
-167.651245
  0
LINE
  8
0
 62
     4
 10
158.809021
 20
-169.651337
 11
166.201355
 21
-169.651337
  0
LINE
  8
0
 62
     4
 10
160.505188
 20
-169.651337
 11
160.505188
 21
-175.651337
  0
LINE
  8
0
 62
     1
 10
161.005188
 20
-169.651337
 11
161.005188
 21
-175.651337
  0
LINE
  8
0
 62
     1
 10
164.005188
 20
-169.651337
 11
164.005188
 21
-175.651337
  0
LINE
  8
0
 62
     4
 10
164.505188
 20
-169.651337
 11
164.505188
 21
-175.651337
  0
LINE
  8
0
 62
     4
 10
166.201309
 20
-169.651337
 11
166.737228
 21
-167.651291
  0
LINE
  8
0
 62
     4
 10
160.505188
 20
-175.651337
 11
164.505188
 21
-175.651337
  0
LINE
  8
0
 62
     4
 10
157.907394
 20
-167.651337
 11
167.505188
 21
-167.651337
  0
LINE
  8
0
 62
     4
 10
167.505188
 20
-163.651337
 11
167.505188
 21
-164.651337
  0
LINE
  8
0
 62
     4
 10
167.505188
 20
-166.651337
 11
167.505188
 21
-167.651337
  0
LINE
  8
0
 62
     4
 10
412.305176
 20
164.240356
 11
412.305176
 21
76.240356
  0
LINE
  8
0
 62
     4
 10
413.305176
 20
165.240356
 11
413.305176
 21
75.240356
  0
LINE
  8
0
 62
     4
 10
412.305176
 20
164.240433
 11
413.305084
 21
165.240387
  0
LINE
  8
0
 62
     4
 10
404.305176
 20
152.456848
 11
404.305176
 21
141.056854
  0
LINE
  8
0
 62
     4
 10
404.305176
 20
99.423859
 11
404.305176
 21
88.023834
  0
LINE
  8
0
 62
     4
 10
405.505188
 20
156.740356
 11
405.505188
 21
153.256866
  0
LINE
  8
0
 62
     4
 10
412.304993
 20
76.240311
 11
413.305023
 21
75.240295
  0
LINE
  8
0
 62
     4
 10
406.505188
 20
157.740356
 11
412.305176
 21
157.740356
  0
LINE
  8
0
 62
     4
 10
406.505188
 20
82.740356
 11
412.305176
 21
82.740356
  0
LINE
  8
0
 62
     4
 10
405.505188
 20
140.256866
 11
405.505188
 21
100.223846
  0
LINE
  8
0
 62
     4
 10
405.505188
 20
87.223846
 11
405.505188
 21
83.740356
  0
LINE
  8
0
 62
     4
 10
405.105164
 20
87.223846
 11
412.305176
 21
87.223846
  0
LINE
  8
0
 62
     4
 10
405.105164
 20
100.223846
 11
412.305176
 21
100.223846
  0
LINE
  8
0
 62
     4
 10
405.105164
 20
153.256866
 11
412.305176
 21
153.256866
  0
LINE
  8
0
 62
     4
 10
405.105164
 20
140.256866
 11
412.305176
 21
140.256866
  0
LINE
  8
0
 62
     4
 10
404.305176
 20
152.456863
 11
405.105194
 21
153.256897
  0
LINE
  8
0
 62
     4
 10
404.305023
 20
141.056793
 11
405.105011
 21
140.256805
  0
LINE
  8
0
 62
     4
 10
405.105133
 20
100.223915
 11
404.305145
 21
99.423935
  0
LINE
  8
0
 62
     4
 10
404.305359
 20
88.024002
 11
405.105347
 21
87.223999
  0
LINE
  8
0
 62
     4
 10
405.105164
 20
153.256866
 11
405.105164
 21
140.256866
  0
LINE
  8
0
 62
     4
 10
405.105164
 20
100.223846
 11
405.105164
 21
87.223846
  0
LINE
  8
0
 62
     4
 10
413.305206
 20
75.240356
 11
417.505188
 21
75.240356
  0
LINE
  8
0
 62
     4
 10
413.305145
 20
165.240356
 11
417.505188
 21
165.240356
  0
LINE
  8
0
 62
     4
 10
264.505188
 20
134.490356
 11
264.505188
 21
105.990356
  0
LINE
  8
0
 62
     4
 10
265.255188
 20
135.240356
 11
317.505188
 21
135.240356
  0
LINE
  8
0
 62
     4
 10
265.255188
 20
105.240356
 11
317.505188
 21
105.240356
  0
LINE
  8
0
 62
     4
 10
314.505188
 20
135.240356
 11
314.505188
 21
105.240356
  0
LINE
  8
0
 62
     4
 10
317.505188
 20
135.240356
 11
317.505188
 21
105.240356
  0
LINE
  8
0
 62
     4
 10
317.505249
 20
135.240158
 11
319.237518
 21
136.240280
  0
LINE
  8
0
 62
     4
 10
330.659882
 20
138.240356
 11
344.505188
 21
138.240356
  0
LINE
  8
0
 62
     4
 10
330.659882
 20
102.240356
 11
344.505188
 21
102.240356
  0
LINE
  8
0
 62
     4
 10
322.701355
 20
136.240356
 11
322.701355
 21
104.240356
  0
LINE
  8
0
 62
     4
 10
394.505219
 20
149.800110
 11
404.305206
 21
150.192108
  0
LINE
  8
0
 62
     4
 10
394.505280
 20
90.680611
 11
404.305267
 21
90.288612
  0
LINE
  8
0
 62
     1
 10
264.505188
 20
134.490356
 11
314.505188
 21
134.490356
  0
LINE
  8
0
 62
     1
 10
314.505188
 20
134.490524
 11
315.803986
 21
135.240387
  0
LINE
  8
0
 62
     4
 10
379.505188
 20
156.240356
 11
379.505188
 21
84.240356
  0
LINE
  8
0
 62
     4
 10
394.505188
 20
150.800323
 11
394.505188
 21
89.680359
  0
LINE
  8
0
 62
     4
 10
359.505188
 20
156.240356
 11
359.505188
 21
84.240356
  0
LINE
  8
0
 62
     4
 10
344.505188
 20
139.240356
 11
344.505188
 21
101.240356
  0
LINE
  8
0
 62
     4
 10
381.505188
 20
150.800323
 11
391.505188
 21
150.800323
  0
LINE
  8
0
 62
     4
 10
381.505188
 20
89.680359
 11
391.505188
 21
89.680359
  0
LINE
  8
0
 62
     4
 10
391.505188
 20
150.800323
 11
391.505188
 21
78.680328
  0
LINE
  8
0
 62
     4
 10
347.505188
 20
139.240356
 11
347.505188
 21
90.240356
  0
LINE
  8
0
 62
     4
 10
347.505188
 20
139.240356
 11
357.505188
 21
139.240356
  0
LINE
  8
0
 62
     4
 10
347.505188
 20
101.240356
 11
357.505188
 21
101.240356
  0
LINE
  8
0
 62
     4
 10
381.505188
 20
150.800323
 11
381.505188
 21
78.680328
  0
LINE
  8
0
 62
     4
 10
357.505188
 20
139.240356
 11
357.505188
 21
90.240356
  0
LINE
  8
0
 62
     4
 10
357.505188
 20
138.740356
 11
358.005188
 21
138.740356
  0
LINE
  8
0
 62
     4
 10
357.505188
 20
101.740356
 11
358.005188
 21
101.740356
  0
LINE
  8
0
 62
     4
 10
381.005188
 20
150.300323
 11
381.505188
 21
150.300323
  0
LINE
  8
0
 62
     4
 10
381.005188
 20
90.180359
 11
381.505188
 21
90.180359
  0
LINE
  8
0
  6
CENTER
 62
     1
 10
369.742340
 20
157.740356
 11
369.526672
 21
157.740356
  0
LINE
  8
0
  6
CENTER
 62
     1
 10
369.884155
 20
82.740356
 11
369.526672
 21
82.740356
  0
LINE
  8
0
 62
     4
 10
362.505188
 20
156.240356
 11
362.505188
 21
84.240356
  0
LINE
  8
0
 62
     4
 10
365.505188
 20
156.240356
 11
365.505188
 21
84.240356
  0
LINE
  8
0
 62
     4
 10
368.505188
 20
156.240356
 11
368.505188
 21
84.240356
  0
LINE
  8
0
 62
     4
 10
376.505188
 20
156.240356
 11
376.505188
 21
84.240356
  0
LINE
  8
0
 62
     4
 10
373.505188
 20
156.240356
 11
373.505188
 21
84.240356
  0
LINE
  8
0
 62
     4
 10
370.505188
 20
156.240356
 11
370.505188
 21
84.240356
  0
LINE
  8
0
 62
     4
 10
264.505219
 20
134.490295
 11
265.255188
 21
135.240265
  0
LINE
  8
0
 62
     1
 10
264.505188
 20
105.990356
 11
314.505188
 21
105.990356
  0
LINE
  8
0
 62
     4
 10
264.505127
 20
105.990219
 11
265.255127
 21
105.240211
  0
LINE
  8
0
 62
     1
 10
314.505005
 20
105.990013
 11
315.803772
 21
105.240173
  0
LINE
  8
0
 62
     4
 10
265.255188
 20
135.240356
 11
265.255188
 21
105.240356
  0
LINE
  8
0
 62
     4
 10
319.237518
 20
136.240356
 11
329.505188
 21
136.240356
  0
LINE
  8
0
 62
     4
 10
329.505249
 20
136.240356
 11
330.659943
 21
138.240341
  0
LINE
  8
0
 62
     4
 10
319.237518
 20
104.240356
 11
329.505188
 21
104.240356
  0
LINE
  8
0
 62
     4
 10
317.505249
 20
105.240448
 11
319.237518
 21
104.240326
  0
LINE
  8
0
 62
     4
 10
329.504944
 20
104.240234
 11
330.659637
 21
102.240234
  0
LINE
  8
0
 62
     4
 10
351.020325
 20
93.755417
 11
353.990173
 21
96.725273
  0
LINE
  8
0
 62
     4
 10
351.020386
 20
96.725471
 11
353.990265
 21
93.755615
  0
LINE
  8
0
 62
     4
 10
347.505188
 20
90.240356
 11
357.505188
 21
90.240356
  0
LINE
  8
0
 62
     4
 10
381.505188
 20
78.680328
 11
391.505188
 21
78.680328
  0
LINE
  8
0
 62
     4
 10
385.020294
 20
82.195320
 11
387.990173
 21
85.165176
  0
LINE
  8
0
 62
     4
 10
385.020477
 20
85.165428
 11
387.990326
 21
82.195572
  0
CIRCLE
  8
0
 10
-460.910217
 20
-217.259644
 40
7.000000
  0
CIRCLE
  8
0
 10
-460.910217
 20
-217.259644
 40
10.500000
  0
CIRCLE
  8
0
 10
-345.910217
 20
-217.259644
 40
7.000000
  0
CIRCLE
  8
0
 10
-345.910217
 20
-217.259644
 40
10.500000
  0
CIRCLE
  8
0
 10
-345.910217
 20
-102.259644
 40
7.000000
  0
CIRCLE
  8
0
 10
-345.910217
 20
-102.259644
 40
10.500000
  0
CIRCLE
  8
0
 10
-460.910217
 20
-102.259644
 40
7.000000
  0
CIRCLE
  8
0
 10
-460.910217
 20
-102.259644
 40
10.500000
  0
CIRCLE
  8
0
 62
     2
 10
-345.910217
 20
-102.259644
 40
5.600000
  0
CIRCLE
  8
0
 62
     2
 10
-460.910217
 20
-102.259644
 40
5.600000
  0
CIRCLE
  8
0
 62
     2
 10
-345.910217
 20
-217.259644
 40
5.600000
  0
CIRCLE
  8
0
 62
     2
 10
-460.910217
 20
-217.259644
 40
5.600000
  0
CIRCLE
  8
0
 10
-107.410233
 20
-159.759644
 40
7.950000
  0
CIRCLE
  8
0
 10
-107.410233
 20
-159.759644
 40
5.150000
  0
CIRCLE
  8
0
 62
     2
 10
-107.410233
 20
120.240356
 40
10.477500
  0
CIRCLE
  8
0
 10
-107.410233
 20
120.240356
 40
9.315500
  0
ARC
  8
0
 10
-122.024284
 20
68.240356
 40
15.885948
 50
159.743805
 51
200.256073
  0
ARC
  8
0
 10
-122.024284
 20
57.240356
 40
15.885947
 50
159.743820
 51
200.256073
  0
ARC
  8
0
 10
-122.024284
 20
183.240356
 40
15.885946
 50
159.743835
 51
200.256088
  0
ARC
  8
0
 10
-122.024284
 20
172.240356
 40
15.885946
 50
159.743835
 51
200.256088
  0
CIRCLE
  8
0
 10
73.505188
 20
-229.651337
 40
7.000000
  0
CIRCLE
  8
0
 10
73.505188
 20
-229.651337
 40
10.500000
  0
CIRCLE
  8
0
 10
201.505188
 20
-229.651337
 40
7.000000
  0
CIRCLE
  8
0
 10
201.505188
 20
-229.651337
 40
10.500000
  0
CIRCLE
  8
0
 10
201.505188
 20
-101.651337
 40
7.000000
  0
CIRCLE
  8
0
 10
201.505188
 20
-101.651337
 40
10.500000
  0
CIRCLE
  8
0
 10
73.505188
 20
-101.651337
 40
7.000000
  0
CIRCLE
  8
0
 10
73.505188
 20
-101.651337
 40
10.500000
  0
CIRCLE
  8
0
 62
     2
 10
201.505188
 20
-229.651337
 40
5.600000
  0
CIRCLE
  8
0
 62
     2
 10
201.505188
 20
-101.651337
 40
5.600000
  0
CIRCLE
  8
0
 62
     2
 10
73.505188
 20
-101.651337
 40
5.600000
  0
CIRCLE
  8
0
 62
     2
 10
73.505188
 20
-229.651337
 40
5.600000
  0
CIRCLE
  8
0
 10
433.505188
 20
-165.651337
 40
7.950000
  0
CIRCLE
  8
0
 10
433.505188
 20
-165.651337
 40
5.150000
  0
ARC
  8
0
 10
418.891144
 20
61.740356
 40
15.885956
 50
159.743820
 51
200.256073
  0
ARC
  8
0
 10
418.891144
 20
50.740356
 40
15.885954
 50
159.743835
 51
200.256073
  0
ARC
  8
0
 10
418.891144
 20
189.740356
 40
15.885953
 50
159.743851
 51
200.256104
  0
ARC
  8
0
 10
418.891144
 20
178.740356
 40
15.885953
 50
159.743851
 51
200.256104
  0
CIRCLE
  8
0
 62
     2
 10
433.505188
 20
120.240356
 40
10.477500
  0
CIRCLE
  8
0
 10
433.505188
 20
120.240356
 40
9.315500
  0
ARC
  8
0
 62
     4
 10
-134.410233
 20
-123.259644
 40
1.000000
 50
90.000000
 51
180.000000
  0
ARC
  8
0
 62
     4
 10
-134.410233
 20
-196.259644
 40
1.000000
 50
180.000000
 51
270.000000
  0
ARC
  8
0
 62
     4
 10
-194.910233
 20
-178.759644
 40
1.500000
 50
180.000000
 51
0.000000
  0
ARC
  8
0
 62
     4
 10
-194.910233
 20
-140.759644
 40
1.500000
 50
0.000000
 51
180.000000
  0
ARC
  8
0
 62
     4
 10
-147.910233
 20
-129.199677
 40
1.500000
 50
0.000000
 51
180.000000
  0
ARC
  8
0
 62
     4
 10
-147.910233
 20
-190.319641
 40
1.500000
 50
180.000000
 51
0.000000
  0
ARC
  8
0
 62
     4
 10
-182.910233
 20
-139.759644
 40
1.500000
 50
270.000000
 51
0.000000
  0
ARC
  8
0
 62
     4
 10
-182.910233
 20
-179.759644
 40
1.500000
 50
0.000000
 51
90.000000
  0
ARC
  8
0
 62
     4
 10
-159.910233
 20
-191.319641
 40
1.500000
 50
90.000000
 51
180.000000
  0
ARC
  8
0
 62
     4
 10
-159.910233
 20
-128.199677
 40
1.500000
 50
180.000000
 51
270.000000
  0
ARC
  8
0
 62
     4
 10
-156.410233
 20
-156.759644
 40
2.000000
 50
90.000000
 51
180.000000
  0
ARC
  8
0
 62
     4
 10
-152.410233
 20
-156.759644
 40
2.000000
 50
0.000000
 51
90.000000
  0
ARC
  8
0
 62
     4
 10
-162.910233
 20
-123.759644
 40
1.500000
 50
0.000000
 51
180.000000
  0
ARC
  8
0
 62
     4
 10
-165.910233
 20
-125.259644
 40
1.500000
 50
180.000000
 51
0.000000
  0
ARC
  8
0
 62
     4
 10
-168.910233
 20
-123.759644
 40
1.500000
 50
0.000000
 51
180.000000
  0
ARC
  8
0
 62
     4
 10
-179.910233
 20
-123.759644
 40
1.500000
 50
0.000000
 51
180.000000
  0
ARC
  8
0
 62
     4
 10
-176.910233
 20
-125.259644
 40
1.500000
 50
180.000000
 51
0.000000
  0
ARC
  8
0
 62
     4
 10
-173.910233
 20
-123.759644
 40
1.500000
 50
0.000000
 51
180.000000
  0
ARC
  8
0
 62
     4
 10
-179.910233
 20
-195.759644
 40
1.500000
 50
180.000000
 51
0.000000
  0
ARC
  8
0
 62
     4
 10
-176.910233
 20
-194.259644
 40
1.500000
 50
0.000000
 51
180.000000
  0
ARC
  8
0
 62
     4
 10
-173.910233
 20
-195.759644
 40
1.500000
 50
180.000000
 51
0.000000
  0
ARC
  8
0
 62
     4
 10
-162.910233
 20
-195.759644
 40
1.500000
 50
180.000000
 51
0.000000
  0
ARC
  8
0
 62
     4
 10
-165.910233
 20
-194.259644
 40
1.500000
 50
0.000000
 51
180.000000
  0
ARC
  8
0
 62
     4
 10
-168.910233
 20
-195.759644
 40
1.500000
 50
180.000000
 51
0.000000
  0
ARC
  8
0
 62
     4
 10
-190.410233
 20
-156.759644
 40
2.000000
 50
90.000000
 51
180.000000
  0
ARC
  8
0
 62
     4
 10
-186.410233
 20
-156.759644
 40
2.000000
 50
0.000000
 51
90.000000
  0
ARC
  8
0
 62
     4
 10
-240.277786
 20
-159.759644
 40
30.022253
 50
344.057648
 51
15.942356
  0
CIRCLE
  8
0
 62
     4
 10
-403.410217
 20
-159.759644
 40
45.000000
  0
ARC
  8
0
 62
     4
 10
-429.926758
 20
-186.276154
 40
6.500003
 50
130.028214
 51
319.971802
  0
ARC
  8
0
 62
     4
 10
-376.893738
 20
-186.276154
 40
6.499993
 50
220.028107
 51
49.971878
  0
ARC
  8
0
 62
     4
 10
-376.893738
 20
-133.243134
 40
6.500015
 50
310.028107
 51
139.971893
  0
ARC
  8
0
 62
     4
 10
-429.926758
 20
-133.243134
 40
6.500003
 50
40.028206
 51
229.971786
  0
ARC
  8
0
 62
     4
 10
-380.410217
 20
-156.759644
 40
2.000000
 50
90.000000
 51
180.000000
  0
CIRCLE
  8
0
 62
     4
 10
-403.410217
 20
-159.759644
 40
18.000000
  0
ARC
  8
0
 62
     4
 10
-376.410217
 20
-156.759644
 40
2.000000
 50
0.000000
 51
90.000000
  0
CIRCLE
  8
0
 62
     4
 10
-403.410217
 20
-159.759644
 40
37.500000
  0
CIRCLE
  8
0
 62
     1
 10
-403.410217
 20
-159.759644
 40
14.250000
  0
CIRCLE
  8
0
 62
     4
 10
-403.410217
 20
-159.759644
 40
15.000000
  0
CIRCLE
  8
0
 62
     4
 10
-403.410217
 20
-159.759644
 40
20.500000
  0
ARC
  8
0
 62
     4
 10
-134.410233
 20
156.740356
 40
1.000000
 50
90.000000
 51
180.000000
  0
ARC
  8
0
 62
     4
 10
-134.410233
 20
83.740356
 40
1.000000
 50
180.000000
 51
270.000000
  0
ARC
  8
0
 62
     4
 10
-194.910233
 20
101.240356
 40
1.500000
 50
180.000000
 51
0.000000
  0
ARC
  8
0
 62
     4
 10
-194.910233
 20
139.240356
 40
1.500000
 50
0.000000
 51
180.000000
  0
ARC
  8
0
 62
     4
 10
-147.910233
 20
150.800323
 40
1.500000
 50
0.000000
 51
180.000000
  0
ARC
  8
0
 62
     4
 10
-147.910233
 20
89.680359
 40
1.500000
 50
180.000000
 51
0.000000
  0
ARC
  8
0
 62
     4
 10
-182.910233
 20
140.240356
 40
1.500000
 50
270.000000
 51
0.000000
  0
ARC
  8
0
 62
     4
 10
-182.910233
 20
100.240356
 40
1.500000
 50
0.000000
 51
90.000000
  0
ARC
  8
0
 62
     4
 10
-159.910233
 20
88.680359
 40
1.500000
 50
90.000000
 51
180.000000
  0
ARC
  8
0
 62
     4
 10
-159.910233
 20
151.800323
 40
1.500000
 50
180.000000
 51
270.000000
  0
ARC
  8
0
 62
     4
 10
-162.910233
 20
156.240356
 40
1.500000
 50
0.000000
 51
180.000000
  0
ARC
  8
0
 62
     4
 10
-165.910233
 20
154.740356
 40
1.500000
 50
180.000000
 51
0.000000
  0
ARC
  8
0
 62
     4
 10
-168.910233
 20
156.240356
 40
1.500000
 50
0.000000
 51
180.000000
  0
ARC
  8
0
 62
     4
 10
-179.910233
 20
156.240356
 40
1.500000
 50
0.000000
 51
180.000000
  0
ARC
  8
0
 62
     4
 10
-176.910233
 20
154.740356
 40
1.500000
 50
180.000000
 51
0.000000
  0
ARC
  8
0
 62
     4
 10
-173.910233
 20
156.240356
 40
1.500000
 50
0.000000
 51
180.000000
  0
ARC
  8
0
 62
     4
 10
-179.910233
 20
84.240356
 40
1.500000
 50
180.000000
 51
0.000000
  0
ARC
  8
0
 62
     4
 10
-176.910233
 20
85.740356
 40
1.500000
 50
0.000000
 51
180.000000
  0
ARC
  8
0
 62
     4
 10
-173.910233
 20
84.240356
 40
1.500000
 50
180.000000
 51
0.000000
  0
ARC
  8
0
 62
     4
 10
-162.910233
 20
84.240356
 40
1.500000
 50
180.000000
 51
0.000000
  0
ARC
  8
0
 62
     4
 10
-165.910233
 20
85.740356
 40
1.500000
 50
0.000000
 51
180.000000
  0
ARC
  8
0
 62
     4
 10
-168.910233
 20
84.240356
 40
1.500000
 50
180.000000
 51
0.000000
  0
CIRCLE
  8
0
 62
     4
 10
-154.410248
 20
83.680344
 40
4.000000
  0
CIRCLE
  8
0
 62
     4
 10
-188.410233
 20
95.240356
 40
4.000000
  0
ARC
  8
0
 62
     4
 10
406.505188
 20
-129.151337
 40
1.000000
 50
90.000000
 51
180.000000
  0
ARC
  8
0
 62
     4
 10
406.505188
 20
-202.151337
 40
1.000000
 50
180.000000
 51
270.000000
  0
ARC
  8
0
 62
     4
 10
346.005188
 20
-184.651337
 40
1.500000
 50
180.000000
 51
0.000000
  0
ARC
  8
0
 62
     4
 10
346.005188
 20
-146.651337
 40
1.500000
 50
0.000000
 51
180.000000
  0
ARC
  8
0
 62
     4
 10
393.005188
 20
-135.091370
 40
1.500000
 50
0.000000
 51
180.000000
  0
ARC
  8
0
 62
     4
 10
393.005188
 20
-196.211334
 40
1.500000
 50
180.000000
 51
0.000000
  0
ARC
  8
0
 62
     4
 10
358.005188
 20
-145.651337
 40
1.500000
 50
270.000000
 51
0.000000
  0
ARC
  8
0
 62
     4
 10
358.005188
 20
-185.651337
 40
1.500000
 50
0.000000
 51
90.000000
  0
ARC
  8
0
 62
     4
 10
381.005188
 20
-197.211334
 40
1.500000
 50
90.000000
 51
180.000000
  0
ARC
  8
0
 62
     4
 10
381.005188
 20
-134.091370
 40
1.500000
 50
180.000000
 51
270.000000
  0
ARC
  8
0
 62
     4
 10
384.505188
 20
-162.651337
 40
2.000000
 50
90.000000
 51
180.000000
  0
ARC
  8
0
 62
     4
 10
388.505188
 20
-162.651337
 40
2.000000
 50
0.000000
 51
90.000000
  0
ARC
  8
0
 62
     4
 10
378.005188
 20
-129.651337
 40
1.500000
 50
0.000000
 51
180.000000
  0
ARC
  8
0
 62
     4
 10
375.005188
 20
-131.151337
 40
1.500000
 50
180.000000
 51
0.000000
  0
ARC
  8
0
 62
     4
 10
372.005188
 20
-129.651337
 40
1.500000
 50
0.000000
 51
180.000000
  0
ARC
  8
0
 62
     4
 10
361.005188
 20
-129.651337
 40
1.500000
 50
0.000000
 51
180.000000
  0
ARC
  8
0
 62
     4
 10
364.005188
 20
-131.151337
 40
1.500000
 50
180.000000
 51
0.000000
  0
ARC
  8
0
 62
     4
 10
367.005188
 20
-129.651337
 40
1.500000
 50
0.000000
 51
180.000000
  0
ARC
  8
0
 62
     4
 10
361.005188
 20
-201.651337
 40
1.500000
 50
180.000000
 51
0.000000
  0
ARC
  8
0
 62
     4
 10
364.005188
 20
-200.151337
 40
1.500000
 50
0.000000
 51
180.000000
  0
ARC
  8
0
 62
     4
 10
367.005188
 20
-201.651337
 40
1.500000
 50
180.000000
 51
0.000000
  0
ARC
  8
0
 62
     4
 10
378.005188
 20
-201.651337
 40
1.500000
 50
180.000000
 51
0.000000
  0
ARC
  8
0
 62
     4
 10
375.005188
 20
-200.151337
 40
1.500000
 50
0.000000
 51
180.000000
  0
ARC
  8
0
 62
     4
 10
372.005188
 20
-201.651337
 40
1.500000
 50
180.000000
 51
0.000000
  0
ARC
  8
0
 62
     4
 10
350.505188
 20
-162.651337
 40
2.000000
 50
90.000000
 51
180.000000
  0
ARC
  8
0
 62
     4
 10
354.505188
 20
-162.651337
 40
2.000000
 50
0.000000
 51
90.000000
  0
ARC
  8
0
 62
     4
 10
330.785217
 20
-165.651337
 40
11.547680
 50
134.430389
 51
225.569504
  0
CIRCLE
  8
0
 62
     4
 10
137.505188
 20
-165.651337
 40
45.000000
  0
ARC
  8
0
 62
     4
 10
110.988678
 20
-192.167847
 40
6.499999
 50
130.028152
 51
319.971802
  0
ARC
  8
0
 62
     4
 10
164.021698
 20
-192.167847
 40
6.499993
 50
220.028107
 51
49.971981
  0
ARC
  8
0
 62
     4
 10
164.021698
 20
-139.134827
 40
6.500005
 50
310.028015
 51
139.971893
  0
ARC
  8
0
 62
     4
 10
110.988678
 20
-139.134827
 40
6.500003
 50
40.028206
 51
229.971848
  0
CIRCLE
  8
0
 62
     4
 10
137.505188
 20
-165.651337
 40
37.500000
  0
CIRCLE
  8
0
 62
     4
 10
137.505188
 20
-165.651337
 40
20.500000
  0
CIRCLE
  8
0
 62
     4
 10
137.505188
 20
-165.651337
 40
15.000000
  0
ARC
  8
0
 62
     4
 10
160.505188
 20
-162.651337
 40
2.000000
 50
90.000000
 51
180.000000
  0
CIRCLE
  8
0
 62
     4
 10
137.505188
 20
-165.651337
 40
18.000000
  0
ARC
  8
0
 62
     4
 10
164.505188
 20
-162.651337
 40
2.000000
 50
0.000000
 51
90.000000
  0
CIRCLE
  8
0
 62
     1
 10
137.505188
 20
-165.651337
 40
14.250000
  0
ARC
  8
0
 62
     4
 10
406.505188
 20
156.740356
 40
1.000000
 50
90.000000
 51
180.000000
  0
ARC
  8
0
 62
     4
 10
406.505188
 20
83.740356
 40
1.000000
 50
180.000000
 51
270.000000
  0
ARC
  8
0
 62
     4
 10
346.005188
 20
101.240356
 40
1.500000
 50
180.000000
 51
0.000000
  0
ARC
  8
0
 62
     4
 10
346.005188
 20
139.240356
 40
1.500000
 50
0.000000
 51
180.000000
  0
ARC
  8
0
 62
     4
 10
393.005188
 20
150.800323
 40
1.500000
 50
0.000000
 51
180.000000
  0
ARC
  8
0
 62
     4
 10
393.005188
 20
89.680359
 40
1.500000
 50
180.000000
 51
0.000000
  0
ARC
  8
0
 62
     4
 10
358.005188
 20
140.240356
 40
1.500000
 50
270.000000
 51
0.000000
  0
ARC
  8
0
 62
     4
 10
358.005188
 20
100.240356
 40
1.500000
 50
0.000000
 51
90.000000
  0
ARC
  8
0
 62
     4
 10
381.005188
 20
88.680359
 40
1.500000
 50
90.000000
 51
180.000000
  0
ARC
  8
0
 62
     4
 10
381.005188
 20
151.800323
 40
1.500000
 50
180.000000
 51
270.000000
  0
ARC
  8
0
 62
     4
 10
378.005188
 20
156.240356
 40
1.500000
 50
0.000000
 51
180.000000
  0
ARC
  8
0
 62
     4
 10
375.005188
 20
154.740356
 40
1.500000
 50
180.000000
 51
0.000000
  0
ARC
  8
0
 62
     4
 10
372.005188
 20
156.240356
 40
1.500000
 50
0.000000
 51
180.000000
  0
ARC
  8
0
 62
     4
 10
361.005188
 20
156.240356
 40
1.500000
 50
0.000000
 51
180.000000
  0
ARC
  8
0
 62
     4
 10
364.005188
 20
154.740356
 40
1.500000
 50
180.000000
 51
0.000000
  0
ARC
  8
0
 62
     4
 10
367.005188
 20
156.240356
 40
1.500000
 50
0.000000
 51
180.000000
  0
ARC
  8
0
 62
     4
 10
361.005188
 20
84.240356
 40
1.500000
 50
180.000000
 51
0.000000
  0
ARC
  8
0
 62
     4
 10
364.005188
 20
85.740356
 40
1.500000
 50
0.000000
 51
180.000000
  0
ARC
  8
0
 62
     4
 10
367.005188
 20
84.240356
 40
1.500000
 50
180.000000
 51
0.000000
  0
ARC
  8
0
 62
     4
 10
378.005188
 20
84.240356
 40
1.500000
 50
180.000000
 51
0.000000
  0
ARC
  8
0
 62
     4
 10
375.005188
 20
85.740356
 40
1.500000
 50
0.000000
 51
180.000000
  0
ARC
  8
0
 62
     4
 10
372.005188
 20
84.240356
 40
1.500000
 50
180.000000
 51
0.000000
  0
CIRCLE
  8
0
 62
     4
 10
352.505188
 20
95.240356
 40
4.000000
  0
CIRCLE
  8
0
 62
     4
 10
386.505188
 20
83.680328
 40
4.000000
  0
POLYLINE
  8
0
 66
     1
  0
VERTEX
  8
0
 10
-136.927750
 20
-204.557938
  0
VERTEX
  8
0
 10
-137.327225
 20
-205.294556
  0
VERTEX
  8
0
 10
-137.637619
 20
-206.080231
  0
VERTEX
  8
0
 10
-137.838715
 20
-206.898621
  0
VERTEX
  8
0
 10
-137.910233
 20
-207.733368
  0
VERTEX
  8
0
 10
-137.838715
 20
-208.568115
  0
VERTEX
  8
0
 10
-137.637619
 20
-209.386505
  0
VERTEX
  8
0
 10
-137.327225
 20
-210.172180
  0
VERTEX
  8
0
 10
-136.927750
 20
-210.908798
  0
SEQEND
  0
POLYLINE
  8
0
 66
     1
  0
VERTEX
  8
0
 10
-136.927750
 20
-223.610504
  0
VERTEX
  8
0
 10
-137.327225
 20
-224.347122
  0
VERTEX
  8
0
 10
-137.637619
 20
-225.132797
  0
VERTEX
  8
0
 10
-137.838715
 20
-225.951187
  0
VERTEX
  8
0
 10
-137.910233
 20
-226.785919
  0
VERTEX
  8
0
 10
-137.838715
 20
-227.620667
  0
VERTEX
  8
0
 10
-137.637619
 20
-228.439056
  0
VERTEX
  8
0
 10
-137.327225
 20
-229.224731
  0
VERTEX
  8
0
 10
-136.927750
 20
-229.961349
  0
SEQEND
  0
POLYLINE
  8
0
 66
     1
  0
VERTEX
  8
0
 10
-136.927750
 20
-210.908798
  0
VERTEX
  8
0
 10
-137.181534
 20
-211.792007
  0
VERTEX
  8
0
 10
-137.399414
 20
-212.686310
  0
VERTEX
  8
0
 10
-137.580261
 20
-213.589874
  0
VERTEX
  8
0
 10
-137.722900
 20
-214.500839
  0
VERTEX
  8
0
 10
-137.826218
 20
-215.417358
  0
VERTEX
  8
0
 10
-137.889038
 20
-216.337570
  0
VERTEX
  8
0
 10
-137.910233
 20
-217.259644
  0
VERTEX
  8
0
 10
-137.889038
 20
-218.181717
  0
VERTEX
  8
0
 10
-137.826218
 20
-219.101929
  0
VERTEX
  8
0
 10
-137.722900
 20
-220.018448
  0
VERTEX
  8
0
 10
-137.580261
 20
-220.929428
  0
VERTEX
  8
0
 10
-137.399429
 20
-221.832993
  0
VERTEX
  8
0
 10
-137.181534
 20
-222.727295
  0
VERTEX
  8
0
 10
-136.927750
 20
-223.610504
  0
SEQEND
  0
POLYLINE
  8
0
 66
     1
  0
VERTEX
  8
0
 10
-136.927750
 20
-89.557938
  0
VERTEX
  8
0
 10
-137.327225
 20
-90.294556
  0
VERTEX
  8
0
 10
-137.637619
 20
-91.080238
  0
VERTEX
  8
0
 10
-137.838715
 20
-91.898628
  0
VERTEX
  8
0
 10
-137.910233
 20
-92.733368
  0
VERTEX
  8
0
 10
-137.838715
 20
-93.568108
  0
VERTEX
  8
0
 10
-137.637619
 20
-94.386497
  0
VERTEX
  8
0
 10
-137.327225
 20
-95.172180
  0
VERTEX
  8
0
 10
-136.927750
 20
-95.908798
  0
SEQEND
  0
POLYLINE
  8
0
 66
     1
  0
VERTEX
  8
0
 10
-136.927750
 20
-95.908798
  0
VERTEX
  8
0
 10
-137.181534
 20
-96.792000
  0
VERTEX
  8
0
 10
-137.399414
 20
-97.686310
  0
VERTEX
  8
0
 10
-137.580261
 20
-98.589874
  0
VERTEX
  8
0
 10
-137.722900
 20
-99.500839
  0
VERTEX
  8
0
 10
-137.826218
 20
-100.417358
  0
VERTEX
  8
0
 10
-137.889038
 20
-101.337570
  0
VERTEX
  8
0
 10
-137.910233
 20
-102.259644
  0
VERTEX
  8
0
 10
-137.889038
 20
-103.181717
  0
VERTEX
  8
0
 10
-137.826218
 20
-104.101936
  0
VERTEX
  8
0
 10
-137.722900
 20
-105.018456
  0
VERTEX
  8
0
 10
-137.580261
 20
-105.929420
  0
VERTEX
  8
0
 10
-137.399429
 20
-106.832985
  0
VERTEX
  8
0
 10
-137.181534
 20
-107.727295
  0
VERTEX
  8
0
 10
-136.927750
 20
-108.610504
  0
SEQEND
  0
POLYLINE
  8
0
 66
     1
  0
VERTEX
  8
0
 10
-136.927750
 20
-108.610504
  0
VERTEX
  8
0
 10
-137.327225
 20
-109.347122
  0
VERTEX
  8
0
 10
-137.637619
 20
-110.132797
  0
VERTEX
  8
0
 10
-137.838715
 20
-110.951180
  0
VERTEX
  8
0
 10
-137.910233
 20
-111.785919
  0
VERTEX
  8
0
 10
-137.838715
 20
-112.620659
  0
VERTEX
  8
0
 10
-137.637619
 20
-113.439049
  0
VERTEX
  8
0
 10
-137.327225
 20
-114.224731
  0
VERTEX
  8
0
 10
-136.927750
 20
-114.961349
  0
SEQEND
  0
POLYLINE
  8
0
 66
     1
  0
VERTEX
  8
0
 10
403.987671
 20
-216.949631
  0
VERTEX
  8
0
 10
403.588196
 20
-217.686249
  0
VERTEX
  8
0
 10
403.277802
 20
-218.471924
  0
VERTEX
  8
0
 10
403.076721
 20
-219.290314
  0
VERTEX
  8
0
 10
403.005188
 20
-220.125061
  0
VERTEX
  8
0
 10
403.076721
 20
-220.959808
  0
VERTEX
  8
0
 10
403.277802
 20
-221.778198
  0
VERTEX
  8
0
 10
403.588196
 20
-222.563873
  0
VERTEX
  8
0
 10
403.987671
 20
-223.300491
  0
SEQEND
  0
POLYLINE
  8
0
 66
     1
  0
VERTEX
  8
0
 10
403.987671
 20
-236.002197
  0
VERTEX
  8
0
 10
403.588196
 20
-236.738815
  0
VERTEX
  8
0
 10
403.277802
 20
-237.524490
  0
VERTEX
  8
0
 10
403.076721
 20
-238.342880
  0
VERTEX
  8
0
 10
403.005188
 20
-239.177612
  0
VERTEX
  8
0
 10
403.076721
 20
-240.012360
  0
VERTEX
  8
0
 10
403.277802
 20
-240.830750
  0
VERTEX
  8
0
 10
403.588196
 20
-241.616425
  0
VERTEX
  8
0
 10
403.987671
 20
-242.353043
  0
SEQEND
  0
POLYLINE
  8
0
 66
     1
  0
VERTEX
  8
0
 10
403.987671
 20
-223.300491
  0
VERTEX
  8
0
 10
403.733887
 20
-224.183701
  0
VERTEX
  8
0
 10
403.515991
 20
-225.078003
  0
VERTEX
  8
0
 10
403.335175
 20
-225.981567
  0
VERTEX
  8
0
 10
403.192505
 20
-226.892532
  0
VERTEX
  8
0
 10
403.089203
 20
-227.809052
  0
VERTEX
  8
0
 10
403.026398
 20
-228.729263
  0
VERTEX
  8
0
 10
403.005188
 20
-229.651337
  0
VERTEX
  8
0
 10
403.026398
 20
-230.573410
  0
VERTEX
  8
0
 10
403.089203
 20
-231.493622
  0
VERTEX
  8
0
 10
403.192505
 20
-232.410141
  0
VERTEX
  8
0
 10
403.335175
 20
-233.321121
  0
VERTEX
  8
0
 10
403.515991
 20
-234.224686
  0
VERTEX
  8
0
 10
403.733887
 20
-235.118988
  0
VERTEX
  8
0
 10
403.987671
 20
-236.002197
  0
SEQEND
  0
POLYLINE
  8
0
 66
     1
  0
VERTEX
  8
0
 10
403.987671
 20
-88.949631
  0
VERTEX
  8
0
 10
403.588196
 20
-89.686249
  0
VERTEX
  8
0
 10
403.277802
 20
-90.471931
  0
VERTEX
  8
0
 10
403.076721
 20
-91.290321
  0
VERTEX
  8
0
 10
403.005188
 20
-92.125061
  0
VERTEX
  8
0
 10
403.076721
 20
-92.959801
  0
VERTEX
  8
0
 10
403.277802
 20
-93.778191
  0
VERTEX
  8
0
 10
403.588196
 20
-94.563873
  0
VERTEX
  8
0
 10
403.987671
 20
-95.300491
  0
SEQEND
  0
POLYLINE
  8
0
 66
     1
  0
VERTEX
  8
0
 10
403.987671
 20
-95.300491
  0
VERTEX
  8
0
 10
403.733887
 20
-96.183693
  0
VERTEX
  8
0
 10
403.515991
 20
-97.078003
  0
VERTEX
  8
0
 10
403.335175
 20
-97.981567
  0
VERTEX
  8
0
 10
403.192505
 20
-98.892532
  0
VERTEX
  8
0
 10
403.089203
 20
-99.809052
  0
VERTEX
  8
0
 10
403.026398
 20
-100.729263
  0
VERTEX
  8
0
 10
403.005188
 20
-101.651337
  0
VERTEX
  8
0
 10
403.026398
 20
-102.573410
  0
VERTEX
  8
0
 10
403.089203
 20
-103.493629
  0
VERTEX
  8
0
 10
403.192505
 20
-104.410149
  0
VERTEX
  8
0
 10
403.335175
 20
-105.321114
  0
VERTEX
  8
0
 10
403.515991
 20
-106.224678
  0
VERTEX
  8
0
 10
403.733887
 20
-107.118988
  0
VERTEX
  8
0
 10
403.987671
 20
-108.002197
  0
SEQEND
  0
POLYLINE
  8
0
 66
     1
  0
VERTEX
  8
0
 10
403.987671
 20
-108.002197
  0
VERTEX
  8
0
 10
403.588196
 20
-108.738815
  0
VERTEX
  8
0
 10
403.277802
 20
-109.524490
  0
VERTEX
  8
0
 10
403.076721
 20
-110.342873
  0
VERTEX
  8
0
 10
403.005188
 20
-111.177612
  0
VERTEX
  8
0
 10
403.076721
 20
-112.012352
  0
VERTEX
  8
0
 10
403.277802
 20
-112.830742
  0
VERTEX
  8
0
 10
403.588196
 20
-113.616425
  0
VERTEX
  8
0
 10
403.987671
 20
-114.353043
  0
SEQEND
  0
POLYLINE
  8
0
 62
     4
 66
     1
  0
VERTEX
  8
0
 10
-218.214081
 20
-151.513428
  0
VERTEX
  8
0
 10
-218.420258
 20
-152.413483
  0
VERTEX
  8
0
 10
-218.603485
 20
-153.319244
  0
VERTEX
  8
0
 10
-218.763397
 20
-154.230011
  0
VERTEX
  8
0
 10
-218.899658
 20
-155.145065
  0
VERTEX
  8
0
 10
-219.011932
 20
-156.063690
  0
VERTEX
  8
0
 10
-219.099854
 20
-156.985184
  0
VERTEX
  8
0
 10
-219.163086
 20
-157.908813
  0
VERTEX
  8
0
 10
-219.201279
 20
-158.833878
  0
VERTEX
  8
0
 10
-219.214081
 20
-159.759644
  0
VERTEX
  8
0
 10
-219.201279
 20
-160.685410
  0
VERTEX
  8
0
 10
-219.163086
 20
-161.610474
  0
VERTEX
  8
0
 10
-219.099854
 20
-162.534103
  0
VERTEX
  8
0
 10
-219.011932
 20
-163.455597
  0
VERTEX
  8
0
 10
-218.899658
 20
-164.374222
  0
VERTEX
  8
0
 10
-218.763397
 20
-165.289276
  0
VERTEX
  8
0
 10
-218.603485
 20
-166.200043
  0
VERTEX
  8
0
 10
-218.420258
 20
-167.105804
  0
VERTEX
  8
0
 10
-218.214081
 20
-168.005859
  0
SEQEND
  0
POLYLINE
  8
0
 62
     4
 66
     1
  0
VERTEX
  8
0
 10
329.505188
 20
-157.405121
  0
VERTEX
  8
0
 10
329.711365
 20
-158.305176
  0
VERTEX
  8
0
 10
329.894592
 20
-159.210937
  0
VERTEX
  8
0
 10
330.054504
 20
-160.121704
  0
VERTEX
  8
0
 10
330.190765
 20
-161.036758
  0
VERTEX
  8
0
 10
330.303040
 20
-161.955383
  0
VERTEX
  8
0
 10
330.390961
 20
-162.876877
  0
VERTEX
  8
0
 10
330.454193
 20
-163.800507
  0
VERTEX
  8
0
 10
330.492371
 20
-164.725571
  0
VERTEX
  8
0
 10
330.505188
 20
-165.651337
  0
VERTEX
  8
0
 10
330.492371
 20
-166.577103
  0
VERTEX
  8
0
 10
330.454193
 20
-167.502167
  0
VERTEX
  8
0
 10
330.390961
 20
-168.425797
  0
VERTEX
  8
0
 10
330.303040
 20
-169.347290
  0
VERTEX
  8
0
 10
330.190765
 20
-170.265915
  0
VERTEX
  8
0
 10
330.054504
 20
-171.180969
  0
VERTEX
  8
0
 10
329.894592
 20
-172.091736
  0
VERTEX
  8
0
 10
329.711365
 20
-172.997498
  0
VERTEX
  8
0
 10
329.505188
 20
-173.897552
  0
SEQEND
  0
TEXT
  8
0
 10
-526.035156
 20
375.250000
 40
12.500000
  1
SD JABARA,-J
 50
0.000000
 41
1.052632
 51
0.000000
  7
STANDARD
  0
TEXT
  8
0
 10
27.214844
 20
330.250000
 40
12.500000
  1
BORE:140(STROKE=100)
 50
0.000000
 41
1.052632
 51
0.000000
  7
STANDARD
  0
TEXT
  8
0
 10
364.214844
 20
375.250000
 40
12.500000
  1
DATE: AUG ,1993
 50
0.000000
 41
1.052632
 51
0.000000
  7
STANDARD
  0
TEXT
  8
0
 10
345.179352
 20
-400.700012
 40
18.000000
  1
KOGANEI CORP.
 50
0.000000
 41
1.052632
 51
0.000000
  7
STANDARD
  0
TEXT
  8
0
 10
-542.285156
 20
330.250000
 40
12.500000
  1
BORE:125(STROKE=100)
 50
0.000000
 41
1.052632
 51
0.000000
  7
STANDARD
  0
ENDSEC
  0
EOF
