  0
SECTION
  2
HEADER
  0
ENDSEC
  0
SECTION
  2
TABLES
  0
TABLE
  2
LTYPE
 70
     4
  0
LTYPE
  2
CONTINUOUS
 70
    64
  3
Solid line
 72
    65
 73
     0
 40
0.000000
  0
LTYPE
  2
DASHED
 70
    64
  3
__ __ __ __ __ __ __ __ __ __ __ __ __ __ __
 72
    65
 73
     2
 40
3.500000
 49
2.000000
 49
-1.500000
  0
LTYPE
  2
CENTER
 70
    64
  3
____ _ ____ _ ____ _ ____ _ ____ _ ____ _ ____
 72
    65
 73
     4
 40
17.500000
 49
13.000000
 49
-1.500000
 49
1.500000
 49
-1.500000
  0
LTYPE
  2
PHANTOM
 70
    64
  3
_____ _ _ _____ _ _ _____ _ _ _____ _ _ ____  
 72
    65
 73
     6
 40
15.500000
 49
8.000000
 49
-1.500000
 49
1.500000
 49
-1.500000
 49
1.500000
 49
-1.500000
  0
LTYPE
  2
DASHED1
 70
    64
  3
__ __ __ __ __ __ __ __ __ __ __ __ __ __ __
 72
    65
 73
     2
 40
1.500000
 49
1.000000
 49
-0.500000
  0
LTYPE
  2
DASHED2
 70
    64
  3
__ __ __ __ __ __ __ __ __ __ __ __ __ __ __
 72
    65
 73
     2
 40
3.500000
 49
2.500000
 49
-1.000000
  0
LTYPE
  2
DASHED3
 70
    64
  3
__ __ __ __ __ __ __ __ __ __ __ __ __ __ __
 72
    65
 73
     2
 40
6.000000
 49
4.000000
 49
-2.000000
  0
LTYPE
  2
DASHED4
 70
    64
  3
__ __ __ __ __ __ __ __ __ __ __ __ __ __ __
 72
    65
 73
     2
 40
12.000000
 49
10.000000
 49
-2.000000
  0
LTYPE
  2
DASHED5
 70
    64
  3
__ __ __ __ __ __ __ __ __ __ __ __ __ __ __
 72
    65
 73
     2
 40
17.000000
 49
15.000000
 49
-2.000000
  0
LTYPE
  2
DASHED6
 70
    64
  3
__ __ __ __ __ __ __ __ __ __ __ __ __ __ __
 72
    65
 73
     2
 40
29.000000
 49
27.000000
 49
-2.000000
  0
LTYPE
  2
PHANTOM1
 70
    64
  3
_____ _ _ _____ _ _ _____ _ _ _____ _ _ ____  
 72
    65
 73
     6
 40
31.000000
 49
25.000000
 49
-1.500000
 49
1.000000
 49
-1.000000
 49
1.000000
 49
-1.500000
  0
LTYPE
  2
PHANTOM2
 70
    64
  3
_____ _ _ _____ _ _ _____ _ _ _____ _ _ ____  
 72
    65
 73
     6
 40
36.000000
 49
27.000000
 49
-1.500000
 49
2.500000
 49
-1.000000
 49
2.500000
 49
-1.500000
  0
LTYPE
  2
PHANTOM3
 70
    64
  3
_____ _ _ _____ _ _ _____ _ _ _____ _ _ ____  
 72
    65
 73
     6
 40
78.000000
 49
64.000000
 49
-2.000000
 49
4.000000
 49
-2.000000
 49
4.000000
 49
-2.000000
  0
LTYPE
  2
CENTER1
 70
    64
  3
____ _ ____ _ ____ _ ____ _ ____ _ ____ _ ____
 72
    65
 73
     4
 40
19.000000
 49
14.000000
 49
-1.000000
 49
3.000000
 49
-1.000000
  0
LTYPE
  2
CENTER2
 70
    64
  3
____ _ ____ _ ____ _ ____ _ ____ _ ____ _ ____
 72
    65
 73
     4
 40
28.500000
 49
25.000000
 49
-1.000000
 49
1.500000
 49
-1.000000
  0
LTYPE
  2
CENTER3
 70
    64
  3
____ _ ____ _ ____ _ ____ _ ____ _ ____ _ ____
 72
    65
 73
     4
 40
31.500000
 49
27.000000
 49
-1.000000
 49
2.500000
 49
-1.000000
  0
LTYPE
  2
CENTER4
 70
    64
  3
____ _ ____ _ ____ _ ____ _ ____ _ ____ _ ____
 72
    65
 73
     4
 40
50.000000
 49
45.000000
 49
-1.000000
 49
3.000000
 49
-1.000000
  0
LTYPE
  2
CENTER5
 70
    64
  3
____ _ ____ _ ____ _ ____ _ ____ _ ____ _ ____
 72
    65
 73
     4
 40
100.000000
 49
92.000000
 49
-2.000000
 49
4.000000
 49
-2.000000
  0
LTYPE
  2
SBK1
 70
    64
  3
______ _ _ _ ______ _ _ _ ______ _ _ _ _____  
 72
    65
 73
     8
 40
60.500000
 49
45.000000
 49
-2.000000
 49
2.500000
 49
-2.000000
 49
2.500000
 49
-2.000000
 49
2.500000
 49
-2.000000
  0
LTYPE
  2
SBK2
 70
    64
  3
______ _ _ _ ______ _ _ _ ______ _ _ _ _____  
 72
    65
 73
     8
 40
84.000000
 49
64.000000
 49
-2.000000
 49
4.000000
 49
-2.000000
 49
4.000000
 49
-2.000000
 49
4.000000
 49
-2.000000
  0
LTYPE
  2
STCH
 70
    64
  3
__ __ __ __ __ __ __ __ __ __ __ __ __ __ __
 72
    65
 73
     2
 40
3.000000
 49
1.000000
 49
-2.000000
  0
LTYPE
  2
MTCH
 70
    64
  3
_____ _ _ _____ _ _ _____ _ _ _____ _ _ ____  
 72
    65
 73
     6
 40
80.000000
 49
66.000000
 49
-2.000000
 49
4.000000
 49
-2.000000
 49
4.000000
 49
-2.000000
  0
ENDTAB
  0
TABLE
  2
LAYER
 70
     1
  0
LAYER
  2
0
 70
     0
 62
     7
  6
CONTINUOUS
  0
ENDTAB
  0
TABLE
  2
STYLE
 70
     1
  0
STYLE
  2
STANDARD
 70
     0
 40
0.000000
 41
1.000000
 50
0.000000
 71
     0
 42
0.200000
  3
txt
  4
BIGFONT
  0
ENDTAB
  0
TABLE
  2
VIEW
 70
     0
  0
ENDTAB
  0
ENDSEC
  0
SECTION
  2
BLOCKS
  0
ENDSEC
  0
SECTION
  2
ENTITIES
  0
LINE
  8
0
 10
574.500000
 20
400.500000
 11
574.500000
 21
-400.500000
  0
LINE
  8
0
 10
-564.500000
 20
400.500000
 11
574.500000
 21
400.500000
  0
LINE
  8
0
 10
-564.500000
 20
-400.500000
 11
574.500000
 21
-400.500000
  0
LINE
  8
0
 10
-564.500000
 20
400.500000
 11
-564.500000
 21
-400.500000
  0
LINE
  8
0
 10
-564.500000
 20
370.500000
 11
-334.500000
 21
370.500000
  0
LINE
  8
0
 10
344.500000
 20
370.500000
 11
574.500000
 21
370.500000
  0
LINE
  8
0
 10
344.500000
 20
-370.500000
 11
574.500000
 21
-370.500000
  0
LINE
  8
0
 10
344.500000
 20
-370.500000
 11
344.500000
 21
-400.500000
  0
LINE
  8
0
 10
344.500000
 20
400.500000
 11
344.500000
 21
370.500000
  0
LINE
  8
0
 10
-334.500000
 20
400.500000
 11
-334.500000
 21
370.500000
  0
LINE
  8
0
 10
5.000000
 20
-400.500000
 11
5.000000
 21
400.500000
  0
LINE
  8
0
  6
CENTER
 62
     2
 10
-529.457703
 20
-174.732941
 11
-329.721802
 21
-174.732941
  0
LINE
  8
0
  6
CENTER
 62
     2
 10
-431.631287
 20
-78.560837
 11
-431.631287
 21
-272.543030
  0
LINE
  8
0
  6
CENTER
 62
     2
 10
-288.208099
 20
145.267059
 11
-32.278534
 21
145.267059
  0
LINE
  8
0
 10
-121.631302
 20
236.267059
 11
-121.631302
 21
54.267059
  0
LINE
  8
0
  6
CENTER
 62
     2
 10
-153.791672
 20
217.267059
 11
-12.986191
 21
217.267059
  0
LINE
  8
0
  6
CENTER
 62
     2
 10
-154.131302
 20
73.267059
 11
-51.570877
 21
73.267059
  0
LINE
  8
0
  6
CENTER
 62
     2
 10
-103.131302
 20
162.363556
 11
-103.131302
 21
128.055038
  0
LINE
  8
0
  6
PHANTOM
 62
     2
 10
-66.624908
 20
55.721722
 11
-18.325850
 21
235.976257
  0
LINE
  8
0
 10
-82.631302
 20
236.267059
 11
-82.631302
 21
54.267059
  0
LINE
  8
0
 10
-121.631302
 20
54.267059
 11
-82.631302
 21
54.267059
  0
LINE
  8
0
 10
-121.631302
 20
236.267059
 11
-82.631302
 21
236.267059
  0
LINE
  8
0
 10
-82.631302
 20
60.267059
 11
-65.406967
 21
60.267059
  0
LINE
  8
0
 10
-82.631302
 20
230.267059
 11
-19.855591
 21
230.267059
  0
LINE
  8
0
 10
-82.631302
 20
209.267059
 11
-25.482529
 21
209.267059
  0
LINE
  8
0
 10
-82.631302
 20
225.267059
 11
-21.195343
 21
225.267059
  0
LINE
  8
0
 10
-125.631393
 20
59.767197
 11
-121.631302
 21
59.767197
  0
LINE
  8
0
 10
-125.631393
 20
86.767197
 11
-121.631302
 21
86.767197
  0
LINE
  8
0
 10
-151.131302
 20
65.267197
 11
-138.631302
 21
65.267197
  0
LINE
  8
0
 10
-151.131302
 20
81.267197
 11
-138.631302
 21
81.267197
  0
LINE
  8
0
 10
-152.131393
 20
80.267059
 11
-152.131393
 21
66.267059
  0
LINE
  8
0
 10
-151.131180
 20
81.267044
 11
-152.131180
 21
80.267044
  0
LINE
  8
0
 10
-152.131287
 20
66.267097
 11
-151.131287
 21
65.267090
  0
LINE
  8
0
 10
-151.131424
 20
81.267059
 11
-151.131424
 21
65.267059
  0
LINE
  8
0
 10
-125.631302
 20
203.767059
 11
-121.631302
 21
203.767059
  0
LINE
  8
0
 10
-125.631302
 20
230.767059
 11
-121.631302
 21
230.767059
  0
LINE
  8
0
 10
-151.131302
 20
209.267059
 11
-138.631302
 21
209.267059
  0
LINE
  8
0
 10
-151.131302
 20
225.267059
 11
-138.631302
 21
225.267059
  0
LINE
  8
0
 10
-152.131302
 20
224.267059
 11
-152.131302
 21
210.267059
  0
LINE
  8
0
 10
-151.131287
 20
225.266983
 11
-152.131271
 21
224.266998
  0
LINE
  8
0
 10
-152.131363
 20
210.266968
 11
-151.131378
 21
209.266983
  0
LINE
  8
0
 10
-151.131348
 20
225.267059
 11
-151.131348
 21
209.267059
  0
LINE
  8
0
 10
-82.631302
 20
65.267059
 11
-64.067215
 21
65.267059
  0
LINE
  8
0
 10
-82.631302
 20
81.267059
 11
-59.780029
 21
81.267059
  0
LINE
  8
0
 10
-522.631287
 20
-83.732941
 11
-340.631287
 21
-83.732941
  0
LINE
  8
0
 10
-522.631287
 20
-265.732941
 11
-340.631287
 21
-265.732941
  0
LINE
  8
0
 10
-340.631287
 20
-83.732941
 11
-340.631287
 21
-265.732941
  0
LINE
  8
0
 10
-522.631287
 20
-83.732941
 11
-522.631287
 21
-265.732941
  0
LINE
  8
0
  6
CENTER
 62
     2
 10
-503.631287
 20
-231.946274
 11
-503.631287
 21
-261.759613
  0
LINE
  8
0
  6
CENTER
 62
     2
 10
-518.086792
 20
-246.732941
 11
-490.200745
 21
-246.732941
  0
LINE
  8
0
 10
-515.631287
 20
-239.804733
 11
-515.631287
 21
-253.661133
  0
LINE
  8
0
 10
-491.631287
 20
-239.804733
 11
-491.631287
 21
-253.661133
  0
LINE
  8
0
 10
-491.631348
 20
-253.661102
 11
-503.631317
 21
-260.589294
  0
LINE
  8
0
 10
-503.631317
 20
-232.876465
 11
-515.631287
 21
-239.804657
  0
LINE
  8
0
 10
-515.631226
 20
-253.661072
 11
-503.631226
 21
-260.589264
  0
LINE
  8
0
 10
-503.631256
 20
-232.876465
 11
-491.631226
 21
-239.804672
  0
LINE
  8
0
 10
-515.631287
 20
-109.661110
 11
-503.631287
 21
-116.589302
  0
LINE
  8
0
 10
-503.631256
 20
-88.876503
 11
-491.631226
 21
-95.804718
  0
LINE
  8
0
  6
CENTER
 62
     2
 10
-503.631287
 20
-87.946274
 11
-503.631287
 21
-117.759605
  0
LINE
  8
0
  6
CENTER
 62
     2
 10
-518.086792
 20
-102.732941
 11
-490.200745
 21
-102.732941
  0
LINE
  8
0
 10
-515.631287
 20
-95.804733
 11
-515.631287
 21
-109.661133
  0
LINE
  8
0
 10
-491.631287
 20
-95.804733
 11
-491.631287
 21
-109.661133
  0
LINE
  8
0
 10
-491.631348
 20
-109.661034
 11
-503.631348
 21
-116.589249
  0
LINE
  8
0
 10
-503.631348
 20
-88.876411
 11
-515.631348
 21
-95.804611
  0
LINE
  8
0
 10
-371.631226
 20
-109.661102
 11
-359.631256
 21
-116.589272
  0
LINE
  8
0
 10
-359.631256
 20
-88.876541
 11
-347.631287
 21
-95.804733
  0
LINE
  8
0
  6
CENTER
 62
     2
 10
-359.631287
 20
-87.946274
 11
-359.631287
 21
-117.759605
  0
LINE
  8
0
  6
CENTER
 62
     2
 10
-374.086792
 20
-102.732941
 11
-346.200745
 21
-102.732941
  0
LINE
  8
0
 10
-371.631287
 20
-95.804733
 11
-371.631287
 21
-109.661133
  0
LINE
  8
0
 10
-347.631287
 20
-95.804733
 11
-347.631287
 21
-109.661133
  0
LINE
  8
0
 10
-347.631348
 20
-109.661079
 11
-359.631317
 21
-116.589279
  0
LINE
  8
0
 10
-359.631317
 20
-88.876427
 11
-371.631317
 21
-95.804642
  0
LINE
  8
0
 10
-371.631256
 20
-253.661087
 11
-359.631256
 21
-260.589264
  0
LINE
  8
0
 10
-359.631256
 20
-232.876495
 11
-347.631256
 21
-239.804703
  0
LINE
  8
0
  6
CENTER
 62
     2
 10
-359.631287
 20
-231.946274
 11
-359.631287
 21
-261.759613
  0
LINE
  8
0
  6
CENTER
 62
     2
 10
-374.086792
 20
-246.732941
 11
-346.200745
 21
-246.732941
  0
LINE
  8
0
 10
-371.631287
 20
-239.804733
 11
-371.631287
 21
-253.661133
  0
LINE
  8
0
 10
-347.631287
 20
-239.804733
 11
-347.631287
 21
-253.661133
  0
LINE
  8
0
 10
-347.631256
 20
-253.661072
 11
-359.631287
 21
-260.589294
  0
LINE
  8
0
 10
-359.631287
 20
-232.876450
 11
-371.631317
 21
-239.804687
  0
LINE
  8
0
 62
     2
 10
-152.131393
 20
79.867187
 11
-138.631302
 21
79.867187
  0
LINE
  8
0
 62
     2
 10
-152.131393
 20
66.667191
 11
-138.631302
 21
66.667191
  0
LINE
  8
0
 62
     2
 10
-152.131302
 20
223.867065
 11
-138.631302
 21
223.867065
  0
LINE
  8
0
 62
     2
 10
-152.131302
 20
210.667053
 11
-138.631302
 21
210.667053
  0
LINE
  8
0
  6
CENTER
 62
     2
 10
-288.208099
 20
-174.732941
 11
-32.278534
 21
-174.732941
  0
LINE
  8
0
 10
-121.631302
 20
-83.732941
 11
-121.631302
 21
-265.732941
  0
LINE
  8
0
  6
CENTER
 62
     2
 10
-153.791672
 20
-102.732941
 11
-12.986191
 21
-102.732941
  0
LINE
  8
0
  6
CENTER
 62
     2
 10
-154.131302
 20
-246.732941
 11
-51.570877
 21
-246.732941
  0
LINE
  8
0
  6
CENTER
 62
     2
 10
-103.131302
 20
-78.482941
 11
-103.131302
 21
-186.032944
  0
LINE
  8
0
 10
-108.226395
 20
-173.982941
 11
-98.036209
 21
-173.982941
  0
LINE
  8
0
 10
-108.226395
 20
-175.482941
 11
-98.036209
 21
-175.482941
  0
LINE
  8
0
  6
PHANTOM
 62
     2
 10
-66.624916
 20
-264.278259
 11
-18.325846
 21
-84.023705
  0
LINE
  8
0
 10
-82.631302
 20
-83.732941
 11
-82.631302
 21
-265.732941
  0
LINE
  8
0
 10
-121.631302
 20
-265.732941
 11
-82.631302
 21
-265.732941
  0
LINE
  8
0
 10
-121.631302
 20
-83.732941
 11
-82.631302
 21
-83.732941
  0
LINE
  8
0
  6
DASHED
 62
     2
 10
-89.910721
 20
-83.732986
 11
-90.403214
 21
-97.833000
  0
LINE
  8
0
  6
DASHED
 62
     2
 10
-115.859123
 20
-97.832985
 11
-116.351791
 21
-83.732964
  0
LINE
  8
0
  6
DASHED
 62
     2
 10
-114.631302
 20
-85.232941
 11
-91.631302
 21
-85.232941
  0
LINE
  8
0
  6
DASHED
 62
     2
 10
-114.631302
 20
-85.232941
 11
-114.631302
 21
-97.832947
  0
LINE
  8
0
  6
DASHED
 62
     2
 10
-91.631302
 20
-85.232941
 11
-91.631302
 21
-97.832947
  0
LINE
  8
0
  6
DASHED
 62
     2
 10
-89.910843
 20
-83.732887
 11
-91.631332
 21
-85.232895
  0
LINE
  8
0
  6
DASHED
 62
     2
 10
-116.351707
 20
-83.732803
 11
-114.631210
 21
-85.232803
  0
LINE
  8
0
 10
-82.631302
 20
-259.732941
 11
-65.406967
 21
-259.732941
  0
LINE
  8
0
 10
-82.631302
 20
-89.732941
 11
-19.855591
 21
-89.732941
  0
LINE
  8
0
 10
-82.631302
 20
-110.732941
 11
-25.482529
 21
-110.732941
  0
LINE
  8
0
 10
-82.631302
 20
-94.732941
 11
-21.195343
 21
-94.732941
  0
LINE
  8
0
 10
-125.631302
 20
-260.232788
 11
-121.631302
 21
-260.232788
  0
LINE
  8
0
 10
-125.631302
 20
-233.232803
 11
-121.631302
 21
-233.232803
  0
LINE
  8
0
 10
-125.631393
 20
-232.882935
 11
-125.631393
 21
-260.582947
  0
LINE
  8
0
 10
-138.631393
 20
-235.232941
 11
-138.631393
 21
-258.232941
  0
LINE
  8
0
 10
-137.274521
 20
-260.582794
 11
-125.631302
 21
-260.582794
  0
LINE
  8
0
 10
-137.274521
 20
-232.882797
 11
-125.631302
 21
-232.882797
  0
LINE
  8
0
 10
-137.274521
 20
-239.807800
 11
-125.631302
 21
-239.807800
  0
LINE
  8
0
 10
-137.274521
 20
-253.657806
 11
-125.631302
 21
-253.657806
  0
LINE
  8
0
 10
-138.631332
 20
-235.232941
 11
-137.274551
 21
-232.882919
  0
LINE
  8
0
 10
-138.631332
 20
-258.232971
 11
-137.274567
 21
-260.582947
  0
LINE
  8
0
 10
-151.131302
 20
-254.732803
 11
-138.631302
 21
-254.732803
  0
LINE
  8
0
 10
-151.131302
 20
-238.732803
 11
-138.631302
 21
-238.732803
  0
LINE
  8
0
 10
-152.131393
 20
-239.732941
 11
-152.131393
 21
-253.732941
  0
LINE
  8
0
 10
-151.131271
 20
-238.732971
 11
-152.131241
 21
-239.732956
  0
LINE
  8
0
 10
-152.131226
 20
-253.732880
 11
-151.131226
 21
-254.732880
  0
LINE
  8
0
 10
-151.131424
 20
-238.732941
 11
-151.131424
 21
-254.732941
  0
LINE
  8
0
 10
-125.631302
 20
-116.232941
 11
-121.631302
 21
-116.232941
  0
LINE
  8
0
 10
-125.631302
 20
-89.232941
 11
-121.631302
 21
-89.232941
  0
LINE
  8
0
 10
-125.631302
 20
-88.882935
 11
-125.631302
 21
-116.582947
  0
LINE
  8
0
 10
-138.631302
 20
-91.232941
 11
-138.631302
 21
-114.232941
  0
LINE
  8
0
 10
-137.274536
 20
-116.582947
 11
-125.631302
 21
-116.582947
  0
LINE
  8
0
 10
-137.274536
 20
-88.882935
 11
-125.631302
 21
-88.882935
  0
LINE
  8
0
 10
-137.274536
 20
-95.807938
 11
-125.631302
 21
-95.807938
  0
LINE
  8
0
 10
-137.274536
 20
-109.657944
 11
-125.631302
 21
-109.657944
  0
LINE
  8
0
 10
-138.631332
 20
-91.232941
 11
-137.274567
 21
-88.882942
  0
LINE
  8
0
 10
-138.631287
 20
-114.232933
 11
-137.274521
 21
-116.582932
  0
LINE
  8
0
 10
-151.131302
 20
-110.732941
 11
-138.631302
 21
-110.732941
  0
LINE
  8
0
 10
-151.131302
 20
-94.732941
 11
-138.631302
 21
-94.732941
  0
LINE
  8
0
 10
-152.131302
 20
-95.732941
 11
-152.131302
 21
-109.732941
  0
LINE
  8
0
 10
-151.131287
 20
-94.732964
 11
-152.131287
 21
-95.732971
  0
LINE
  8
0
 10
-152.131348
 20
-109.732994
 11
-151.131348
 21
-110.733002
  0
LINE
  8
0
 10
-151.131348
 20
-94.732941
 11
-151.131348
 21
-110.732941
  0
LINE
  8
0
 10
-82.631302
 20
-254.732941
 11
-64.067215
 21
-254.732941
  0
LINE
  8
0
 10
-82.631302
 20
-238.732941
 11
-59.780029
 21
-238.732941
  0
LINE
  8
0
 62
     2
 10
-152.131393
 20
-240.132812
 11
-138.631302
 21
-240.132812
  0
LINE
  8
0
 62
     2
 10
-152.131393
 20
-253.332809
 11
-138.631302
 21
-253.332809
  0
LINE
  8
0
 62
     2
 10
-152.131302
 20
-96.132935
 11
-138.631302
 21
-96.132935
  0
LINE
  8
0
 62
     2
 10
-152.131302
 20
-109.332939
 11
-138.631302
 21
-109.332939
  0
LINE
  8
0
 10
-125.631302
 20
205.267059
 11
-138.631302
 21
205.267059
  0
LINE
  8
0
 10
-125.631302
 20
217.267059
 11
-137.559509
 21
217.267059
  0
LINE
  8
0
 10
-125.631302
 20
203.767181
 11
-125.631302
 21
230.767181
  0
LINE
  8
0
 10
-125.631302
 20
229.267059
 11
-138.631302
 21
229.267059
  0
LINE
  8
0
 10
-138.631302
 20
205.267059
 11
-138.631302
 21
229.267059
  0
LINE
  8
0
 10
-125.631393
 20
61.267059
 11
-138.631393
 21
61.267059
  0
LINE
  8
0
 10
-125.631393
 20
73.267059
 11
-137.559601
 21
73.267059
  0
LINE
  8
0
 10
-125.631393
 20
85.267059
 11
-138.631393
 21
85.267059
  0
LINE
  8
0
 10
-138.631393
 20
61.267059
 11
-138.631393
 21
85.267059
  0
LINE
  8
0
 10
-125.631393
 20
59.767197
 11
-125.631393
 21
86.767197
  0
LINE
  8
0
  6
CENTER
 62
     2
 10
42.476715
 20
-167.139465
 11
260.202362
 21
-167.139465
  0
LINE
  8
0
  6
CENTER
 62
     2
 10
151.672852
 20
-58.971329
 11
151.672852
 21
-276.286957
  0
LINE
  8
0
  6
CENTER
 62
     2
 10
268.799591
 20
132.860535
 11
543.775635
 21
132.860535
  0
LINE
  8
0
 10
448.672852
 20
234.860535
 11
448.672852
 21
30.860535
  0
LINE
  8
0
  6
CENTER
 62
     2
 10
467.172852
 20
148.075745
 11
467.172852
 21
117.330627
  0
LINE
  8
0
  6
PHANTOM
 62
     2
 10
561.246033
 20
236.697830
 11
506.605011
 21
32.774933
  0
LINE
  8
0
 10
487.672852
 20
234.860535
 11
487.672852
 21
30.860535
  0
LINE
  8
0
 10
253.672852
 20
-65.139465
 11
253.672852
 21
-269.139465
  0
LINE
  8
0
 10
49.672852
 20
-65.139465
 11
49.672852
 21
-269.139465
  0
LINE
  8
0
 10
49.672852
 20
-269.139465
 11
253.672852
 21
-269.139465
  0
LINE
  8
0
 10
49.672852
 20
-65.139465
 11
253.672852
 21
-65.139465
  0
LINE
  8
0
  6
CENTER
 62
     2
 10
70.672852
 20
-67.930481
 11
70.672852
 21
-104.667648
  0
LINE
  8
0
  6
CENTER
 62
     2
 10
53.468597
 20
-86.139465
 11
87.379822
 21
-86.139465
  0
LINE
  8
0
 10
84.172852
 20
-78.352737
 11
84.172852
 21
-93.933685
  0
LINE
  8
0
 10
57.172852
 20
-78.345245
 11
57.172852
 21
-93.941193
  0
LINE
  8
0
 10
84.172882
 20
-93.933723
 11
70.666397
 21
-101.731705
  0
LINE
  8
0
 10
70.666290
 20
-70.554733
 11
57.172791
 21
-78.345215
  0
LINE
  8
0
 10
57.172852
 20
-93.941162
 11
70.666389
 21
-101.731659
  0
LINE
  8
0
 10
70.666328
 20
-70.554726
 11
84.172821
 21
-78.352699
  0
LINE
  8
0
 10
448.672852
 20
234.860535
 11
487.672852
 21
234.860535
  0
LINE
  8
0
  6
CENTER
 62
     2
 10
408.947327
 20
213.860535
 11
565.479553
 21
213.860535
  0
LINE
  8
0
 10
444.072845
 20
198.860535
 11
448.672852
 21
198.860535
  0
LINE
  8
0
 10
444.072845
 20
228.860535
 11
448.672852
 21
228.860535
  0
LINE
  8
0
 10
414.672852
 20
222.860535
 11
429.072845
 21
222.860535
  0
LINE
  8
0
 10
414.672852
 20
204.860535
 11
429.072845
 21
204.860535
  0
LINE
  8
0
 10
413.672852
 20
221.860535
 11
413.672852
 21
205.860535
  0
LINE
  8
0
 10
414.672852
 20
222.860474
 11
413.672882
 21
221.860489
  0
LINE
  8
0
 10
413.672760
 20
205.860474
 11
414.672760
 21
204.860474
  0
LINE
  8
0
 10
414.672852
 20
222.860535
 11
414.672852
 21
204.860535
  0
LINE
  8
0
 10
444.072845
 20
36.860535
 11
448.672852
 21
36.860535
  0
LINE
  8
0
 10
444.072845
 20
66.860535
 11
448.672852
 21
66.860535
  0
LINE
  8
0
 10
444.072845
 20
66.860535
 11
444.072845
 21
36.860535
  0
LINE
  8
0
  6
CENTER
 62
     2
 10
407.303406
 20
51.860535
 11
522.071777
 21
51.860535
  0
LINE
  8
0
 10
448.672852
 20
30.860535
 11
487.672852
 21
30.860535
  0
LINE
  8
0
 10
509.307434
 20
42.860535
 11
487.672852
 21
42.860535
  0
LINE
  8
0
 10
507.565796
 20
36.360535
 11
487.672852
 21
36.360535
  0
LINE
  8
0
 10
514.130554
 20
60.860535
 11
487.672852
 21
60.860535
  0
LINE
  8
0
 10
552.715210
 20
204.860535
 11
487.672852
 21
204.860535
  0
LINE
  8
0
 10
557.538330
 20
222.860535
 11
487.672852
 21
222.860535
  0
LINE
  8
0
 10
559.279968
 20
229.360535
 11
487.672852
 21
229.360535
  0
LINE
  8
0
  6
CENTER
 62
     2
 10
232.672852
 20
-67.930481
 11
232.672852
 21
-104.667648
  0
LINE
  8
0
  6
CENTER
 62
     2
 10
215.468597
 20
-86.139465
 11
249.379822
 21
-86.139465
  0
LINE
  8
0
 10
246.172852
 20
-78.352737
 11
246.172852
 21
-93.933685
  0
LINE
  8
0
 10
219.172852
 20
-78.345245
 11
219.172852
 21
-93.941193
  0
LINE
  8
0
 10
246.172867
 20
-93.933708
 11
232.666382
 21
-101.731697
  0
LINE
  8
0
 10
232.666321
 20
-70.554756
 11
219.172821
 21
-78.345238
  0
LINE
  8
0
 10
219.172821
 20
-93.941200
 11
232.666336
 21
-101.731682
  0
LINE
  8
0
 10
232.666367
 20
-70.554771
 11
246.172852
 21
-78.352745
  0
LINE
  8
0
  6
CENTER
 62
     2
 10
232.672852
 20
-229.930481
 11
232.672852
 21
-266.667664
  0
LINE
  8
0
  6
CENTER
 62
     2
 10
215.468597
 20
-248.139465
 11
249.379822
 21
-248.139465
  0
LINE
  8
0
 10
246.172852
 20
-240.352737
 11
246.172852
 21
-255.933685
  0
LINE
  8
0
 10
219.172852
 20
-240.345245
 11
219.172852
 21
-255.941193
  0
LINE
  8
0
 10
246.172852
 20
-255.933716
 11
232.666351
 21
-263.731720
  0
LINE
  8
0
 10
232.666367
 20
-232.554733
 11
219.172867
 21
-240.345230
  0
LINE
  8
0
 10
219.172852
 20
-255.941162
 11
232.666367
 21
-263.731628
  0
LINE
  8
0
 10
232.666351
 20
-232.554718
 11
246.172836
 21
-240.352692
  0
LINE
  8
0
  6
CENTER
 62
     2
 10
70.672852
 20
-229.930481
 11
70.672852
 21
-266.667664
  0
LINE
  8
0
  6
CENTER
 62
     2
 10
53.468597
 20
-248.139465
 11
87.379822
 21
-248.139465
  0
LINE
  8
0
 10
84.172852
 20
-240.352737
 11
84.172852
 21
-255.933685
  0
LINE
  8
0
 10
57.172852
 20
-240.345245
 11
57.172852
 21
-255.941193
  0
LINE
  8
0
 10
84.172852
 20
-255.933701
 11
70.666374
 21
-263.731689
  0
LINE
  8
0
 10
70.666351
 20
-232.554779
 11
57.172840
 21
-240.345276
  0
LINE
  8
0
 10
57.172878
 20
-255.941132
 11
70.666420
 21
-263.731628
  0
LINE
  8
0
 10
70.666344
 20
-232.554703
 11
84.172829
 21
-240.352676
  0
LINE
  8
0
 62
     2
 10
413.672852
 20
206.260529
 11
429.072845
 21
206.260529
  0
LINE
  8
0
 62
     2
 10
413.672852
 20
221.460541
 11
429.072845
 21
221.460541
  0
LINE
  8
0
  6
CENTER
 62
     2
 10
268.799591
 20
-167.139465
 11
543.775635
 21
-167.139465
  0
LINE
  8
0
 10
448.672852
 20
-65.139465
 11
448.672852
 21
-269.139465
  0
LINE
  8
0
  6
CENTER
 62
     2
 10
467.172852
 20
-59.898804
 11
467.172852
 21
-178.439468
  0
LINE
  8
0
 10
462.077759
 20
-166.389465
 11
472.267944
 21
-166.389465
  0
LINE
  8
0
 10
462.077759
 20
-167.889465
 11
472.267944
 21
-167.889465
  0
LINE
  8
0
  6
PHANTOM
 62
     2
 10
561.246033
 20
-63.302181
 11
506.605072
 21
-267.225067
  0
LINE
  8
0
 10
487.672852
 20
-65.139465
 11
487.672852
 21
-269.139465
  0
LINE
  8
0
 10
448.672852
 20
-65.139465
 11
487.672852
 21
-65.139465
  0
LINE
  8
0
  6
CENTER
 62
     2
 10
408.947327
 20
-86.139465
 11
565.479553
 21
-86.139465
  0
LINE
  8
0
 10
430.428162
 20
-70.554764
 11
444.072845
 21
-70.554764
  0
LINE
  8
0
 10
430.494995
 20
-101.731689
 11
444.072845
 21
-101.731689
  0
LINE
  8
0
 10
444.072845
 20
-101.139465
 11
448.672852
 21
-101.139465
  0
LINE
  8
0
 10
444.072845
 20
-71.139465
 11
448.672852
 21
-71.139465
  0
LINE
  8
0
 10
444.072845
 20
-70.554764
 11
444.072845
 21
-101.731689
  0
LINE
  8
0
 10
429.072845
 20
-72.902252
 11
429.072845
 21
-99.268478
  0
LINE
  8
0
 10
430.444885
 20
-78.348999
 11
444.072845
 21
-78.348999
  0
LINE
  8
0
 10
430.478271
 20
-93.937469
 11
444.072845
 21
-93.937469
  0
LINE
  8
0
 10
430.428162
 20
-70.554787
 11
429.072845
 21
-72.902260
  0
LINE
  8
0
 10
429.072968
 20
-99.268394
 11
430.495117
 21
-101.731636
  0
LINE
  8
0
 10
414.672852
 20
-77.139465
 11
429.072845
 21
-77.139465
  0
LINE
  8
0
 10
414.672852
 20
-95.139465
 11
429.072845
 21
-95.139465
  0
LINE
  8
0
 10
413.672852
 20
-78.139465
 11
413.672852
 21
-94.139465
  0
LINE
  8
0
 10
414.672821
 20
-77.139450
 11
413.672791
 21
-78.139473
  0
LINE
  8
0
 10
413.672791
 20
-94.139488
 11
414.672791
 21
-95.139488
  0
LINE
  8
0
 10
414.672852
 20
-77.139465
 11
414.672852
 21
-95.139465
  0
LINE
  8
0
 10
430.428162
 20
-232.554764
 11
444.072845
 21
-232.554764
  0
LINE
  8
0
 10
430.494995
 20
-263.731689
 11
444.072845
 21
-263.731689
  0
LINE
  8
0
 10
444.072845
 20
-263.139465
 11
448.672852
 21
-263.139465
  0
LINE
  8
0
 10
444.072845
 20
-233.139465
 11
448.672852
 21
-233.139465
  0
LINE
  8
0
 10
444.072845
 20
-232.554764
 11
444.072845
 21
-263.731689
  0
LINE
  8
0
 10
429.072845
 20
-234.902252
 11
429.072845
 21
-261.268494
  0
LINE
  8
0
 10
430.444885
 20
-240.348999
 11
444.072845
 21
-240.348999
  0
LINE
  8
0
 10
430.478271
 20
-255.937469
 11
444.072845
 21
-255.937469
  0
LINE
  8
0
 10
430.428223
 20
-232.554779
 11
429.072906
 21
-234.902267
  0
LINE
  8
0
 10
429.072906
 20
-261.268463
 11
430.495087
 21
-263.731720
  0
LINE
  8
0
 10
414.672852
 20
-239.139465
 11
429.072845
 21
-239.139465
  0
LINE
  8
0
 10
414.672852
 20
-257.139465
 11
429.072845
 21
-257.139465
  0
LINE
  8
0
 10
413.672852
 20
-240.139465
 11
413.672852
 21
-256.139465
  0
LINE
  8
0
 10
414.672821
 20
-239.139465
 11
413.672821
 21
-240.139465
  0
LINE
  8
0
 10
413.672852
 20
-256.139496
 11
414.672852
 21
-257.139496
  0
LINE
  8
0
 10
414.672852
 20
-239.139465
 11
414.672852
 21
-257.139465
  0
LINE
  8
0
  6
CENTER
 62
     2
 10
407.303406
 20
-248.139465
 11
522.071777
 21
-248.139465
  0
LINE
  8
0
  6
DASHED
 62
     2
 10
453.952545
 20
-65.139244
 11
455.673035
 21
-66.639229
  0
LINE
  8
0
  6
DASHED
 62
     2
 10
480.393616
 20
-65.139511
 11
479.901123
 21
-79.239525
  0
LINE
  8
0
  6
DASHED
 62
     2
 10
454.444946
 20
-79.239502
 11
453.952271
 21
-65.139481
  0
LINE
  8
0
  6
DASHED
 62
     2
 10
455.672852
 20
-66.639465
 11
478.672852
 21
-66.639465
  0
LINE
  8
0
  6
DASHED
 62
     2
 10
455.672852
 20
-66.639465
 11
455.672852
 21
-79.239471
  0
LINE
  8
0
  6
DASHED
 62
     2
 10
478.672852
 20
-66.639465
 11
478.672852
 21
-79.239471
  0
LINE
  8
0
  6
DASHED
 62
     2
 10
480.393341
 20
-65.139458
 11
478.672882
 21
-66.639435
  0
LINE
  8
0
 10
448.672852
 20
-269.139465
 11
487.672852
 21
-269.139465
  0
LINE
  8
0
 10
509.307434
 20
-257.139465
 11
487.672852
 21
-257.139465
  0
LINE
  8
0
 10
507.565796
 20
-263.639465
 11
487.672852
 21
-263.639465
  0
LINE
  8
0
 10
514.130554
 20
-239.139465
 11
487.672852
 21
-239.139465
  0
LINE
  8
0
 10
552.715210
 20
-95.139465
 11
487.672852
 21
-95.139465
  0
LINE
  8
0
 10
557.538330
 20
-77.139465
 11
487.672852
 21
-77.139465
  0
LINE
  8
0
 10
559.279968
 20
-70.639465
 11
487.672852
 21
-70.639465
  0
LINE
  8
0
 62
     2
 10
413.672852
 20
-255.739471
 11
429.072845
 21
-255.739471
  0
LINE
  8
0
 62
     2
 10
413.672852
 20
-240.539459
 11
429.072845
 21
-240.539459
  0
LINE
  8
0
 62
     2
 10
413.672852
 20
-93.739471
 11
429.072845
 21
-93.739471
  0
LINE
  8
0
 62
     2
 10
413.672852
 20
-78.539459
 11
429.072845
 21
-78.539459
  0
LINE
  8
0
 10
429.072845
 20
227.360535
 11
444.072845
 21
227.360535
  0
LINE
  8
0
 10
430.278625
 20
213.860535
 11
444.072845
 21
213.860535
  0
LINE
  8
0
 10
429.072845
 20
227.360535
 11
429.072845
 21
200.360535
  0
LINE
  8
0
 10
429.072845
 20
200.360535
 11
444.072845
 21
200.360535
  0
LINE
  8
0
 10
444.072845
 20
228.860535
 11
444.072845
 21
198.860535
  0
LINE
  8
0
 10
414.672852
 20
42.860535
 11
429.072845
 21
42.860535
  0
LINE
  8
0
 10
414.672852
 20
60.860535
 11
429.072845
 21
60.860535
  0
LINE
  8
0
 10
413.672852
 20
43.860535
 11
413.672852
 21
59.860535
  0
LINE
  8
0
 10
414.672821
 20
42.860516
 11
413.672821
 21
43.860516
  0
LINE
  8
0
 10
413.672821
 20
59.860577
 11
414.672791
 21
60.860554
  0
LINE
  8
0
 10
414.672852
 20
42.860535
 11
414.672852
 21
60.860535
  0
LINE
  8
0
 62
     2
 10
413.672852
 20
59.460541
 11
429.072845
 21
59.460541
  0
LINE
  8
0
 62
     2
 10
413.672852
 20
44.260529
 11
429.072845
 21
44.260529
  0
LINE
  8
0
 10
429.072845
 20
38.360535
 11
444.072845
 21
38.360535
  0
LINE
  8
0
 10
430.278625
 20
51.860535
 11
444.072845
 21
51.860535
  0
LINE
  8
0
 10
429.072845
 20
38.360535
 11
429.072845
 21
65.360535
  0
LINE
  8
0
 10
429.072845
 20
65.360535
 11
444.072845
 21
65.360535
  0
LINE
  8
0
 62
     4
 10
-126.831314
 20
-130.732941
 11
-126.831314
 21
-218.732941
  0
LINE
  8
0
 62
     4
 10
-125.831314
 20
-129.732941
 11
-125.831314
 21
-219.732941
  0
LINE
  8
0
 62
     4
 10
-126.831177
 20
-130.732971
 11
-125.831253
 21
-129.733017
  0
LINE
  8
0
 62
     4
 10
-134.831314
 20
-142.516449
 11
-134.831314
 21
-153.916443
  0
LINE
  8
0
 62
     4
 10
-134.831314
 20
-195.549438
 11
-134.831314
 21
-206.949448
  0
LINE
  8
0
 62
     4
 10
-133.631302
 20
-138.232941
 11
-133.631302
 21
-141.716431
  0
LINE
  8
0
 62
     4
 10
-126.831329
 20
-218.732941
 11
-125.831314
 21
-219.732941
  0
LINE
  8
0
 62
     4
 10
-132.631302
 20
-137.232941
 11
-126.831314
 21
-137.232941
  0
LINE
  8
0
 62
     4
 10
-132.631302
 20
-212.232941
 11
-126.831314
 21
-212.232941
  0
LINE
  8
0
 62
     4
 10
-133.631302
 20
-154.716431
 11
-133.631302
 21
-194.749451
  0
LINE
  8
0
 62
     4
 10
-133.631302
 20
-207.749451
 11
-133.631302
 21
-211.232941
  0
LINE
  8
0
 62
     4
 10
-134.031311
 20
-207.749451
 11
-126.831314
 21
-207.749451
  0
LINE
  8
0
 62
     4
 10
-134.031311
 20
-194.749451
 11
-126.831314
 21
-194.749451
  0
LINE
  8
0
 62
     4
 10
-134.031311
 20
-141.716431
 11
-126.831314
 21
-141.716431
  0
LINE
  8
0
 62
     4
 10
-134.031311
 20
-154.716431
 11
-126.831314
 21
-154.716431
  0
LINE
  8
0
 62
     4
 10
-134.831329
 20
-142.516403
 11
-134.031342
 21
-141.716415
  0
LINE
  8
0
 62
     4
 10
-134.831329
 20
-153.916428
 11
-134.031326
 21
-154.716431
  0
LINE
  8
0
 62
     4
 10
-134.031326
 20
-194.749435
 11
-134.831329
 21
-195.549423
  0
LINE
  8
0
 62
     4
 10
-134.831299
 20
-206.949463
 11
-134.031296
 21
-207.749451
  0
LINE
  8
0
 62
     4
 10
-134.031342
 20
-141.716431
 11
-134.031342
 21
-154.716431
  0
LINE
  8
0
 62
     4
 10
-134.031311
 20
-194.749451
 11
-134.031311
 21
-207.749451
  0
LINE
  8
0
 62
     4
 10
-125.831291
 20
-219.732941
 11
-121.631302
 21
-219.732941
  0
LINE
  8
0
 62
     4
 10
-125.831345
 20
-129.732941
 11
-121.631302
 21
-129.732941
  0
LINE
  8
0
 62
     4
 10
-144.631302
 20
-145.173080
 11
-134.831299
 21
-144.781082
  0
LINE
  8
0
 62
     4
 10
-144.631317
 20
-204.292892
 11
-134.831329
 21
-204.684891
  0
LINE
  8
0
 62
     4
 10
-159.631302
 20
-138.732941
 11
-159.631302
 21
-210.732941
  0
LINE
  8
0
 62
     4
 10
-144.631302
 20
-144.172974
 11
-144.631302
 21
-205.292938
  0
LINE
  8
0
 62
     4
 10
-179.631302
 20
-138.732941
 11
-179.631302
 21
-210.732941
  0
LINE
  8
0
 62
     4
 10
-194.631302
 20
-153.732941
 11
-194.631302
 21
-195.732941
  0
LINE
  8
0
 62
     4
 10
-157.631302
 20
-144.172974
 11
-147.631302
 21
-144.172974
  0
LINE
  8
0
 62
     4
 10
-157.631302
 20
-205.292938
 11
-147.631302
 21
-205.292938
  0
LINE
  8
0
 62
     4
 10
-147.631302
 20
-144.172974
 11
-147.631302
 21
-205.292938
  0
LINE
  8
0
 62
     4
 10
-191.631302
 20
-153.732941
 11
-191.631302
 21
-195.732941
  0
LINE
  8
0
 62
     4
 10
-191.631302
 20
-153.732941
 11
-181.631302
 21
-153.732941
  0
LINE
  8
0
 62
     4
 10
-191.631302
 20
-195.732941
 11
-181.631302
 21
-195.732941
  0
LINE
  8
0
 62
     4
 10
-157.631302
 20
-144.172974
 11
-157.631302
 21
-205.292938
  0
LINE
  8
0
 62
     4
 10
-181.631302
 20
-153.732941
 11
-181.631302
 21
-195.732941
  0
LINE
  8
0
 62
     4
 10
-181.631302
 20
-154.232941
 11
-181.131302
 21
-154.232941
  0
LINE
  8
0
 62
     4
 10
-181.631302
 20
-195.232941
 11
-181.131302
 21
-195.232941
  0
LINE
  8
0
 62
     4
 10
-158.131302
 20
-144.672974
 11
-157.631302
 21
-144.672974
  0
LINE
  8
0
 62
     4
 10
-158.131302
 20
-204.792938
 11
-157.631302
 21
-204.792938
  0
LINE
  8
0
 62
     4
 10
-157.631302
 20
-173.732941
 11
-147.631302
 21
-173.732941
  0
LINE
  8
0
 62
     4
 10
-157.631302
 20
-175.732941
 11
-147.631302
 21
-175.732941
  0
LINE
  8
0
 62
     4
 10
-157.631302
 20
-172.732941
 11
-147.631302
 21
-172.732941
  0
LINE
  8
0
 62
     4
 10
-156.327454
 20
-178.732941
 11
-148.935150
 21
-178.732941
  0
LINE
  8
0
 62
     4
 10
-148.935150
 20
-178.732910
 11
-148.399246
 21
-176.732910
  0
LINE
  8
0
 62
     4
 10
-156.327438
 20
-178.732925
 11
-156.863342
 21
-176.732925
  0
LINE
  8
0
 62
     4
 10
-148.631302
 20
-171.732941
 11
-148.631302
 21
-172.732941
  0
LINE
  8
0
 62
     4
 10
-156.631302
 20
-171.732941
 11
-156.631302
 21
-172.732941
  0
LINE
  8
0
 62
     4
 10
-154.631302
 20
-169.732941
 11
-150.631302
 21
-169.732941
  0
LINE
  8
0
 62
     4
 10
-150.631302
 20
-173.732941
 11
-150.631302
 21
-175.732941
  0
LINE
  8
0
 62
     4
 10
-154.631302
 20
-173.732941
 11
-154.631302
 21
-175.732941
  0
LINE
  8
0
 62
     1
 10
-154.131302
 20
-173.732941
 11
-154.131302
 21
-175.732941
  0
LINE
  8
0
 62
     1
 10
-151.131302
 20
-173.732941
 11
-151.131302
 21
-175.732941
  0
LINE
  8
0
 62
     4
 10
-154.631302
 20
-184.732941
 11
-150.631302
 21
-184.732941
  0
LINE
  8
0
 62
     4
 10
-154.631302
 20
-178.732941
 11
-154.631302
 21
-184.732941
  0
LINE
  8
0
 62
     1
 10
-154.131302
 20
-178.732941
 11
-154.131302
 21
-184.732941
  0
LINE
  8
0
 62
     1
 10
-151.131302
 20
-178.732941
 11
-151.131302
 21
-184.732941
  0
LINE
  8
0
 62
     4
 10
-150.631302
 20
-178.732941
 11
-150.631302
 21
-184.732941
  0
LINE
  8
0
  6
CENTER
 62
     1
 10
-169.394150
 20
-137.232941
 11
-169.609833
 21
-137.232941
  0
LINE
  8
0
  6
CENTER
 62
     1
 10
-169.252350
 20
-212.232941
 11
-169.609833
 21
-212.232941
  0
LINE
  8
0
 62
     4
 10
-176.631302
 20
-138.732941
 11
-176.631302
 21
-210.732941
  0
LINE
  8
0
 62
     4
 10
-173.631302
 20
-138.732941
 11
-173.631302
 21
-211.232941
  0
LINE
  8
0
 62
     4
 10
-170.631302
 20
-138.732941
 11
-170.631302
 21
-211.232941
  0
LINE
  8
0
 62
     4
 10
-162.631302
 20
-138.732941
 11
-162.631302
 21
-210.732941
  0
LINE
  8
0
 62
     4
 10
-165.631302
 20
-138.732941
 11
-165.631302
 21
-210.732941
  0
LINE
  8
0
 62
     4
 10
-168.631302
 20
-138.732941
 11
-168.631302
 21
-210.732941
  0
LINE
  8
0
 62
     4
 10
-188.631302
 20
-169.732941
 11
-184.631302
 21
-169.732941
  0
LINE
  8
0
 62
     4
 10
-190.631302
 20
-171.732941
 11
-190.631302
 21
-172.732941
  0
LINE
  8
0
 62
     4
 10
-182.631302
 20
-171.732941
 11
-182.631302
 21
-172.732941
  0
LINE
  8
0
 62
     4
 10
-191.631302
 20
-172.732941
 11
-181.631302
 21
-172.732941
  0
LINE
  8
0
 62
     4
 10
-191.631302
 20
-173.732941
 11
-181.631302
 21
-173.732941
  0
LINE
  8
0
 62
     4
 10
-184.631302
 20
-173.732941
 11
-184.631302
 21
-175.732941
  0
LINE
  8
0
 62
     1
 10
-185.131302
 20
-173.732941
 11
-185.131302
 21
-175.732941
  0
LINE
  8
0
 62
     1
 10
-188.131302
 20
-173.732941
 11
-188.131302
 21
-175.732941
  0
LINE
  8
0
 62
     4
 10
-188.631302
 20
-173.732941
 11
-188.631302
 21
-175.732941
  0
LINE
  8
0
 62
     4
 10
-191.631302
 20
-175.732941
 11
-181.631302
 21
-175.732941
  0
LINE
  8
0
 62
     4
 10
-182.935135
 20
-178.732864
 11
-182.399231
 21
-176.732864
  0
LINE
  8
0
 62
     4
 10
-190.327454
 20
-178.732941
 11
-182.935150
 21
-178.732941
  0
LINE
  8
0
 62
     4
 10
-184.631302
 20
-178.732941
 11
-184.631302
 21
-184.732941
  0
LINE
  8
0
 62
     1
 10
-185.131302
 20
-178.732941
 11
-185.131302
 21
-184.732941
  0
LINE
  8
0
 62
     1
 10
-188.131302
 20
-178.732941
 11
-188.131302
 21
-184.732941
  0
LINE
  8
0
 62
     4
 10
-188.631302
 20
-178.732941
 11
-188.631302
 21
-184.732941
  0
LINE
  8
0
 62
     4
 10
-190.327484
 20
-178.732941
 11
-190.863373
 21
-176.732971
  0
LINE
  8
0
 62
     4
 10
-188.631302
 20
-184.732941
 11
-184.631302
 21
-184.732941
  0
LINE
  8
0
 62
     4
 10
-157.631302
 20
-176.732941
 11
-147.631302
 21
-176.732941
  0
LINE
  8
0
 62
     4
 10
-191.631302
 20
-176.732941
 11
-181.631302
 21
-176.732941
  0
LINE
  8
0
 62
     4
 10
-220.167206
 20
-154.732941
 11
-194.631302
 21
-154.732941
  0
LINE
  8
0
 62
     4
 10
-220.167206
 20
-194.732941
 11
-194.631302
 21
-194.732941
  0
LINE
  8
0
 62
     4
 10
-281.881287
 20
-156.732941
 11
-223.631302
 21
-156.732941
  0
LINE
  8
0
 62
     4
 10
-282.631287
 20
-157.482941
 11
-282.631287
 21
-191.982941
  0
LINE
  8
0
 62
     4
 10
-226.631302
 20
-156.732941
 11
-226.631302
 21
-192.732941
  0
LINE
  8
0
 62
     4
 10
-223.631302
 20
-156.732941
 11
-223.631302
 21
-192.732941
  0
LINE
  8
0
 62
     4
 10
-223.631332
 20
-192.732986
 11
-220.167236
 21
-194.732986
  0
LINE
  8
0
 62
     4
 10
-223.631302
 20
-156.732910
 11
-220.167221
 21
-154.732925
  0
LINE
  8
0
 62
     4
 10
-220.167191
 20
-154.732941
 11
-220.167191
 21
-166.015137
  0
LINE
  8
0
 62
     4
 10
-209.631302
 20
-166.015137
 11
-209.631302
 21
-183.450745
  0
LINE
  8
0
 62
     4
 10
-220.167206
 20
-166.015137
 11
-209.631302
 21
-166.015137
  0
LINE
  8
0
 62
     4
 10
-220.167206
 20
-183.450745
 11
-209.631302
 21
-183.450745
  0
LINE
  8
0
 62
     1
 10
-209.631348
 20
-166.015152
 11
-220.167252
 21
-183.450745
  0
LINE
  8
0
 62
     1
 10
-220.167145
 20
-166.015091
 11
-209.631241
 21
-183.450684
  0
LINE
  8
0
 62
     4
 10
-220.167191
 20
-183.450745
 11
-220.167191
 21
-194.732941
  0
LINE
  8
0
 62
     1
 10
-282.631287
 20
-157.482941
 11
-226.631302
 21
-157.482941
  0
LINE
  8
0
 62
     1
 10
-226.631287
 20
-157.482971
 11
-225.024124
 21
-156.732956
  0
LINE
  8
0
 62
     4
 10
-281.881470
 20
-156.732880
 11
-282.631439
 21
-157.482849
  0
LINE
  8
0
 62
     4
 10
-281.881287
 20
-156.732941
 11
-281.881287
 21
-192.732941
  0
LINE
  8
0
 62
     4
 10
-281.881287
 20
-192.732941
 11
-223.631302
 21
-192.732941
  0
LINE
  8
0
 62
     4
 10
-281.881165
 20
-192.732819
 11
-282.631165
 21
-191.982819
  0
LINE
  8
0
 62
     1
 10
-282.631287
 20
-191.982941
 11
-226.631302
 21
-191.982941
  0
LINE
  8
0
 62
     1
 10
-226.631302
 20
-191.982925
 11
-225.024139
 21
-192.732941
  0
LINE
  8
0
 62
     4
 10
-460.597351
 20
-203.699097
 11
-457.251282
 21
-204.595673
  0
LINE
  8
0
 62
     4
 10
-461.493774
 20
-200.352814
 11
-460.597198
 21
-203.698883
  0
LINE
  8
0
 62
     4
 10
-457.251068
 20
-204.595444
 11
-455.941345
 21
-203.285721
  0
LINE
  8
0
 62
     4
 10
-461.493774
 20
-200.352829
 11
-460.184052
 21
-199.043106
  0
LINE
  8
0
 62
     4
 10
-457.251190
 20
-144.870270
 11
-455.941467
 21
-146.179977
  0
LINE
  8
0
 62
     4
 10
-460.597504
 20
-145.766907
 11
-461.494080
 21
-149.112961
  0
LINE
  8
0
 62
     4
 10
-457.251251
 20
-144.870331
 11
-460.597321
 21
-145.766907
  0
LINE
  8
0
 62
     4
 10
-461.493713
 20
-149.112976
 11
-460.183990
 21
-150.422699
  0
LINE
  8
0
 62
     4
 10
-403.078308
 20
-199.043030
 11
-401.768524
 21
-200.352814
  0
LINE
  8
0
 62
     4
 10
-401.768799
 20
-200.352829
 11
-402.665375
 21
-203.698914
  0
LINE
  8
0
 62
     4
 10
-402.665314
 20
-203.698883
 11
-406.011322
 21
-204.595444
  0
LINE
  8
0
 62
     4
 10
-407.320984
 20
-203.285614
 11
-406.011322
 21
-204.595306
  0
LINE
  8
0
 62
     4
 10
-407.320953
 20
-146.180084
 11
-406.011230
 21
-144.870361
  0
LINE
  8
0
 62
     4
 10
-406.011414
 20
-144.870392
 11
-402.665344
 21
-145.766968
  0
LINE
  8
0
 62
     4
 10
-402.665161
 20
-145.766922
 11
-401.768585
 21
-149.112930
  0
LINE
  8
0
 62
     4
 10
-403.078308
 20
-150.422745
 11
-401.768555
 21
-149.112991
  0
LINE
  8
0
 62
     4
 10
-406.631287
 20
-169.732941
 11
-402.631287
 21
-169.732941
  0
LINE
  8
0
 62
     4
 10
-408.631287
 20
-171.732941
 11
-408.631287
 21
-172.732941
  0
LINE
  8
0
 62
     4
 10
-400.631287
 20
-171.732941
 11
-400.631287
 21
-172.732941
  0
LINE
  8
0
 62
     4
 10
-409.220367
 20
-172.732941
 11
-399.631287
 21
-172.732941
  0
LINE
  8
0
 62
     4
 10
-409.153534
 20
-173.732941
 11
-399.631287
 21
-173.732941
  0
LINE
  8
0
 62
     1
 10
-403.131287
 20
-173.732941
 11
-403.131287
 21
-175.732941
  0
LINE
  8
0
 62
     4
 10
-402.631287
 20
-173.732941
 11
-402.631287
 21
-175.732941
  0
LINE
  8
0
 62
     1
 10
-406.131287
 20
-173.732941
 11
-406.131287
 21
-175.732941
  0
LINE
  8
0
 62
     4
 10
-406.631287
 20
-173.732941
 11
-406.631287
 21
-175.732941
  0
LINE
  8
0
 62
     4
 10
-409.153534
 20
-175.732941
 11
-399.631287
 21
-175.732941
  0
LINE
  8
0
 62
     4
 10
-408.327606
 20
-178.732864
 11
-408.863525
 21
-176.732864
  0
LINE
  8
0
 62
     4
 10
-408.327454
 20
-178.732941
 11
-400.935120
 21
-178.732941
  0
LINE
  8
0
 62
     4
 10
-406.631287
 20
-178.732941
 11
-406.631287
 21
-184.732941
  0
LINE
  8
0
 62
     1
 10
-406.131287
 20
-178.732941
 11
-406.131287
 21
-184.732941
  0
LINE
  8
0
 62
     1
 10
-403.131287
 20
-178.732941
 11
-403.131287
 21
-184.732941
  0
LINE
  8
0
 62
     4
 10
-402.631287
 20
-178.732941
 11
-402.631287
 21
-184.732941
  0
LINE
  8
0
 62
     4
 10
-400.935120
 20
-178.732925
 11
-400.399231
 21
-176.732925
  0
LINE
  8
0
 62
     4
 10
-406.631287
 20
-184.732941
 11
-402.631287
 21
-184.732941
  0
LINE
  8
0
 62
     4
 10
-409.220367
 20
-176.732941
 11
-399.631287
 21
-176.732941
  0
LINE
  8
0
 62
     4
 10
-399.631287
 20
-172.732941
 11
-399.631287
 21
-173.732941
  0
LINE
  8
0
 62
     4
 10
-399.631287
 20
-175.732941
 11
-399.631287
 21
-176.732941
  0
LINE
  8
0
 62
     4
 10
-449.631287
 20
-166.015137
 11
-449.631287
 21
-183.450745
  0
LINE
  8
0
 62
     4
 10
-413.631287
 20
-166.015137
 11
-413.631287
 21
-183.450745
  0
LINE
  8
0
 62
     4
 10
-126.831314
 20
189.267059
 11
-126.831314
 21
101.267059
  0
LINE
  8
0
 62
     4
 10
-125.831314
 20
190.267059
 11
-125.831314
 21
100.267059
  0
LINE
  8
0
 62
     4
 10
-126.831047
 20
189.266846
 11
-125.831123
 21
190.266800
  0
LINE
  8
0
 62
     4
 10
-134.831314
 20
177.483551
 11
-134.831314
 21
166.083557
  0
LINE
  8
0
 62
     4
 10
-134.831314
 20
124.450562
 11
-134.831314
 21
113.050552
  0
LINE
  8
0
 62
     4
 10
-133.631302
 20
181.767059
 11
-133.631302
 21
178.283569
  0
LINE
  8
0
 62
     4
 10
-126.831352
 20
101.267006
 11
-125.831337
 21
100.267014
  0
LINE
  8
0
 62
     4
 10
-132.631302
 20
182.767059
 11
-126.831314
 21
182.767059
  0
LINE
  8
0
 62
     4
 10
-132.631302
 20
107.767059
 11
-126.831314
 21
107.767059
  0
LINE
  8
0
 62
     4
 10
-133.631302
 20
165.283569
 11
-133.631302
 21
125.250549
  0
LINE
  8
0
 62
     4
 10
-133.631302
 20
112.250549
 11
-133.631302
 21
108.767059
  0
LINE
  8
0
 62
     4
 10
-134.031311
 20
112.250549
 11
-126.831314
 21
112.250549
  0
LINE
  8
0
 62
     4
 10
-134.031311
 20
125.250549
 11
-126.831314
 21
125.250549
  0
LINE
  8
0
 62
     4
 10
-134.031311
 20
178.283569
 11
-126.831314
 21
178.283569
  0
LINE
  8
0
 62
     4
 10
-134.031311
 20
165.283569
 11
-126.831314
 21
165.283569
  0
LINE
  8
0
 62
     4
 10
-134.831421
 20
177.483627
 11
-134.031403
 21
178.283630
  0
LINE
  8
0
 62
     4
 10
-134.831375
 20
166.083572
 11
-134.031372
 21
165.283569
  0
LINE
  8
0
 62
     4
 10
-134.031281
 20
125.250519
 11
-134.831284
 21
124.450523
  0
LINE
  8
0
 62
     4
 10
-134.831268
 20
113.050606
 11
-134.031265
 21
112.250595
  0
LINE
  8
0
 62
     4
 10
-134.031342
 20
178.283569
 11
-134.031342
 21
165.283569
  0
LINE
  8
0
 62
     4
 10
-134.031311
 20
125.250549
 11
-134.031311
 21
112.250549
  0
LINE
  8
0
 62
     4
 10
-125.831291
 20
100.267059
 11
-121.631302
 21
100.267059
  0
LINE
  8
0
 62
     4
 10
-125.831345
 20
190.267059
 11
-121.631302
 21
190.267059
  0
LINE
  8
0
 62
     4
 10
-144.631302
 20
174.826782
 11
-134.831268
 21
175.218781
  0
LINE
  8
0
 62
     4
 10
-144.631302
 20
115.707275
 11
-134.831299
 21
115.315269
  0
LINE
  8
0
 62
     4
 10
-159.631302
 20
181.267059
 11
-159.631302
 21
109.267059
  0
LINE
  8
0
 62
     4
 10
-144.631302
 20
175.827026
 11
-144.631302
 21
114.707062
  0
LINE
  8
0
 62
     4
 10
-179.631302
 20
181.267059
 11
-179.631302
 21
109.267059
  0
LINE
  8
0
 62
     4
 10
-194.631302
 20
166.267059
 11
-194.631302
 21
124.267059
  0
LINE
  8
0
 62
     4
 10
-157.631302
 20
175.827026
 11
-147.631302
 21
175.827026
  0
LINE
  8
0
 62
     4
 10
-157.631302
 20
114.707062
 11
-147.631302
 21
114.707062
  0
LINE
  8
0
 62
     4
 10
-147.631302
 20
175.827026
 11
-147.631302
 21
103.707047
  0
LINE
  8
0
 62
     4
 10
-191.631302
 20
166.267059
 11
-191.631302
 21
113.267059
  0
LINE
  8
0
 62
     4
 10
-191.631302
 20
166.267059
 11
-181.631302
 21
166.267059
  0
LINE
  8
0
 62
     4
 10
-191.631302
 20
124.267059
 11
-181.631302
 21
124.267059
  0
LINE
  8
0
 62
     4
 10
-157.631302
 20
175.827026
 11
-157.631302
 21
103.707047
  0
LINE
  8
0
 62
     4
 10
-181.631302
 20
166.267059
 11
-181.631302
 21
113.267059
  0
LINE
  8
0
 62
     4
 10
-181.631302
 20
165.767059
 11
-181.131302
 21
165.767059
  0
LINE
  8
0
 62
     4
 10
-181.631302
 20
124.767059
 11
-181.131302
 21
124.767059
  0
LINE
  8
0
 62
     4
 10
-158.131302
 20
175.327026
 11
-157.631302
 21
175.327026
  0
LINE
  8
0
 62
     4
 10
-158.131302
 20
115.207062
 11
-157.631302
 21
115.207062
  0
LINE
  8
0
  6
CENTER
 62
     1
 10
-169.394150
 20
182.767059
 11
-169.609833
 21
182.767059
  0
LINE
  8
0
  6
CENTER
 62
     1
 10
-169.252350
 20
107.767059
 11
-169.609833
 21
107.767059
  0
LINE
  8
0
 62
     4
 10
-176.631302
 20
181.267059
 11
-176.631302
 21
109.267059
  0
LINE
  8
0
 62
     4
 10
-173.631302
 20
181.267059
 11
-173.631302
 21
108.767059
  0
LINE
  8
0
 62
     4
 10
-170.631302
 20
181.267059
 11
-170.631302
 21
108.767059
  0
LINE
  8
0
 62
     4
 10
-162.631302
 20
181.267059
 11
-162.631302
 21
109.267059
  0
LINE
  8
0
 62
     4
 10
-165.631302
 20
181.267059
 11
-165.631302
 21
109.267059
  0
LINE
  8
0
 62
     4
 10
-168.631302
 20
181.267059
 11
-168.631302
 21
109.267059
  0
LINE
  8
0
 62
     4
 10
-208.476593
 20
165.267059
 11
-194.631302
 21
165.267059
  0
LINE
  8
0
 62
     4
 10
-208.476593
 20
125.267059
 11
-194.631302
 21
125.267059
  0
LINE
  8
0
 62
     4
 10
-281.881287
 20
163.267059
 11
-223.631302
 21
163.267059
  0
LINE
  8
0
 62
     4
 10
-282.631287
 20
162.517059
 11
-282.631287
 21
128.017059
  0
LINE
  8
0
 62
     4
 10
-226.631302
 20
163.267059
 11
-226.631302
 21
127.267059
  0
LINE
  8
0
 62
     4
 10
-223.631302
 20
163.267059
 11
-223.631302
 21
127.267059
  0
LINE
  8
0
 62
     4
 10
-220.167191
 20
163.267059
 11
-220.167191
 21
127.267059
  0
LINE
  8
0
 62
     1
 10
-282.631287
 20
162.517059
 11
-226.631302
 21
162.517059
  0
LINE
  8
0
 62
     1
 10
-226.631256
 20
162.516953
 11
-225.024094
 21
163.266968
  0
LINE
  8
0
 62
     4
 10
-281.881622
 20
163.267349
 11
-282.631592
 21
162.517349
  0
LINE
  8
0
 62
     4
 10
-281.881287
 20
163.267059
 11
-281.881287
 21
127.267059
  0
LINE
  8
0
 62
     4
 10
-281.881287
 20
127.267059
 11
-223.631302
 21
127.267059
  0
LINE
  8
0
 62
     4
 10
-281.881287
 20
127.267059
 11
-282.631287
 21
128.017059
  0
LINE
  8
0
 62
     1
 10
-282.631287
 20
128.017059
 11
-226.631302
 21
128.017059
  0
LINE
  8
0
 62
     1
 10
-226.631287
 20
128.017059
 11
-225.024124
 21
127.267036
  0
LINE
  8
0
 62
     4
 10
-223.631302
 20
163.267059
 11
-209.631302
 21
163.267059
  0
LINE
  8
0
 62
     4
 10
-209.631210
 20
163.266953
 11
-208.476501
 21
165.266968
  0
LINE
  8
0
 62
     4
 10
-209.631317
 20
127.267113
 11
-208.476624
 21
125.267128
  0
LINE
  8
0
 62
     4
 10
-223.631302
 20
127.267059
 11
-209.631302
 21
127.267059
  0
LINE
  8
0
 62
     4
 10
-188.116272
 20
116.782196
 11
-185.146408
 21
119.752052
  0
LINE
  8
0
 62
     4
 10
-188.116211
 20
119.752014
 11
-185.146347
 21
116.782158
  0
LINE
  8
0
 62
     4
 10
-191.631302
 20
113.267059
 11
-181.631302
 21
113.267059
  0
LINE
  8
0
 62
     4
 10
-154.116211
 20
110.192032
 11
-151.146362
 21
107.222176
  0
LINE
  8
0
 62
     4
 10
-157.631317
 20
103.707047
 11
-147.631317
 21
103.707047
  0
LINE
  8
0
 62
     4
 10
-154.116272
 20
107.222168
 11
-151.146408
 21
110.192024
  0
LINE
  8
0
 62
     4
 10
438.672852
 20
-110.639465
 11
438.672852
 21
-223.639465
  0
LINE
  8
0
 62
     4
 10
439.672852
 20
-109.639465
 11
439.672852
 21
-224.639465
  0
LINE
  8
0
 62
     4
 10
439.672852
 20
-224.639465
 11
448.672852
 21
-224.639465
  0
LINE
  8
0
 62
     4
 10
439.672852
 20
-109.639465
 11
448.672852
 21
-109.639465
  0
LINE
  8
0
 62
     4
 10
438.672821
 20
-110.639473
 11
439.672852
 21
-109.639450
  0
LINE
  8
0
 62
     4
 10
438.672821
 20
-223.639526
 11
439.672821
 21
-224.639526
  0
LINE
  8
0
 62
     4
 10
435.672852
 20
-121.139465
 11
435.672852
 21
-125.905495
  0
LINE
  8
0
 62
     4
 10
436.672852
 20
-120.139465
 11
438.672852
 21
-120.139465
  0
LINE
  8
0
 62
     4
 10
436.672852
 20
-214.139465
 11
438.672852
 21
-214.139465
  0
LINE
  8
0
 62
     4
 10
428.672852
 20
-132.398819
 11
423.672852
 21
-132.584015
  0
LINE
  8
0
 62
     4
 10
423.672791
 20
-201.695007
 11
428.672791
 21
-201.880203
  0
LINE
  8
0
 62
     4
 10
429.672852
 20
-192.373444
 11
438.672852
 21
-192.373444
  0
LINE
  8
0
 62
     4
 10
429.672852
 20
-208.373444
 11
438.672852
 21
-208.373444
  0
LINE
  8
0
 62
     4
 10
428.672852
 20
-193.373444
 11
428.672852
 21
-207.373444
  0
LINE
  8
0
 62
     4
 10
428.672821
 20
-193.373444
 11
429.672821
 21
-192.373459
  0
LINE
  8
0
 62
     4
 10
429.672791
 20
-208.373459
 11
428.672791
 21
-207.373459
  0
LINE
  8
0
 62
     4
 10
429.672852
 20
-192.373444
 11
429.672852
 21
-208.373444
  0
LINE
  8
0
 62
     4
 10
429.672852
 20
-141.905487
 11
438.672852
 21
-141.905487
  0
LINE
  8
0
 62
     4
 10
428.672852
 20
-126.905495
 11
428.672852
 21
-140.905487
  0
LINE
  8
0
 62
     4
 10
429.672791
 20
-141.905518
 11
428.672791
 21
-140.905518
  0
LINE
  8
0
 62
     4
 10
429.672852
 20
-125.905487
 11
429.672852
 21
-141.905487
  0
LINE
  8
0
 62
     4
 10
428.672821
 20
-126.905434
 11
429.672821
 21
-125.905449
  0
LINE
  8
0
 62
     4
 10
429.672852
 20
-125.905495
 11
438.672852
 21
-125.905495
  0
LINE
  8
0
 62
     4
 10
435.672852
 20
-208.373444
 11
435.672852
 21
-213.139465
  0
LINE
  8
0
 62
     4
 10
435.672852
 20
-141.905487
 11
435.672852
 21
-192.373444
  0
LINE
  8
0
 62
     4
 10
346.002991
 20
-157.865845
 11
358.672852
 21
-157.865845
  0
LINE
  8
0
 62
     4
 10
346.002991
 20
-176.413086
 11
358.672852
 21
-176.413086
  0
LINE
  8
0
 62
     4
 10
275.672852
 20
-147.889465
 11
275.672852
 21
-186.389465
  0
LINE
  8
0
 62
     4
 10
276.422852
 20
-147.139465
 11
341.672852
 21
-147.139465
  0
LINE
  8
0
 62
     4
 10
346.002991
 20
-189.639465
 11
373.672852
 21
-189.639465
  0
LINE
  8
0
 62
     4
 10
338.672852
 20
-147.139465
 11
338.672852
 21
-187.139465
  0
LINE
  8
0
 62
     4
 10
341.672852
 20
-147.139465
 11
341.672852
 21
-187.139465
  0
LINE
  8
0
 62
     4
 10
341.672882
 20
-187.139450
 11
346.002991
 21
-189.639450
  0
LINE
  8
0
 62
     4
 10
346.002991
 20
-189.639465
 11
346.002991
 21
-176.413086
  0
LINE
  8
0
 62
     4
 10
358.672852
 20
-157.865845
 11
358.672852
 21
-176.413086
  0
LINE
  8
0
 62
     4
 10
346.002991
 20
-157.865845
 11
346.002991
 21
-144.639465
  0
LINE
  8
0
 62
     1
 10
358.672882
 20
-157.865845
 11
346.002991
 21
-176.413086
  0
LINE
  8
0
 62
     1
 10
346.002991
 20
-157.865829
 11
358.672852
 21
-176.413055
  0
LINE
  8
0
 62
     1
 10
275.672852
 20
-147.889465
 11
338.672852
 21
-147.889465
  0
LINE
  8
0
 62
     1
 10
338.672882
 20
-147.889481
 11
340.280029
 21
-147.139465
  0
LINE
  8
0
 62
     4
 10
408.672852
 20
-126.139465
 11
408.672852
 21
-208.139465
  0
LINE
  8
0
 62
     4
 10
423.672852
 20
-131.694382
 11
423.672852
 21
-202.584625
  0
LINE
  8
0
 62
     4
 10
388.672852
 20
-126.139465
 11
388.672852
 21
-208.139465
  0
LINE
  8
0
 62
     4
 10
373.672852
 20
-143.639465
 11
373.672852
 21
-190.639465
  0
LINE
  8
0
 62
     4
 10
410.672852
 20
-131.694382
 11
420.672852
 21
-131.694382
  0
LINE
  8
0
 62
     4
 10
410.672852
 20
-202.584625
 11
420.672852
 21
-202.584625
  0
LINE
  8
0
 62
     4
 10
420.672852
 20
-131.694382
 11
420.672852
 21
-202.584625
  0
LINE
  8
0
 62
     4
 10
376.672852
 20
-143.639465
 11
376.672852
 21
-190.639465
  0
LINE
  8
0
 62
     4
 10
376.672852
 20
-143.639465
 11
386.672852
 21
-143.639465
  0
LINE
  8
0
 62
     4
 10
376.672852
 20
-190.639465
 11
386.672852
 21
-190.639465
  0
LINE
  8
0
 62
     4
 10
410.672852
 20
-131.694382
 11
410.672852
 21
-202.584625
  0
LINE
  8
0
 62
     4
 10
386.672852
 20
-143.639465
 11
386.672852
 21
-190.639465
  0
LINE
  8
0
 62
     4
 10
386.672852
 20
-144.139465
 11
387.172852
 21
-144.139465
  0
LINE
  8
0
 62
     4
 10
386.672852
 20
-190.139465
 11
387.172852
 21
-190.139465
  0
LINE
  8
0
 62
     4
 10
410.172852
 20
-132.194382
 11
410.672852
 21
-132.194382
  0
LINE
  8
0
 62
     4
 10
410.172852
 20
-202.084625
 11
410.672852
 21
-202.084625
  0
LINE
  8
0
 62
     4
 10
410.672852
 20
-166.139465
 11
420.672852
 21
-166.139465
  0
LINE
  8
0
 62
     4
 10
410.672852
 20
-168.139465
 11
420.672852
 21
-168.139465
  0
LINE
  8
0
 62
     4
 10
410.672852
 20
-165.139465
 11
420.672852
 21
-165.139465
  0
LINE
  8
0
 62
     4
 10
411.976685
 20
-171.139465
 11
419.369019
 21
-171.139465
  0
LINE
  8
0
 62
     4
 10
419.368988
 20
-171.139435
 11
419.904877
 21
-169.139435
  0
LINE
  8
0
 62
     4
 10
411.976807
 20
-171.139435
 11
411.440918
 21
-169.139435
  0
LINE
  8
0
 62
     4
 10
419.672852
 20
-164.139465
 11
419.672852
 21
-165.139465
  0
LINE
  8
0
 62
     4
 10
411.672852
 20
-164.139465
 11
411.672852
 21
-165.139465
  0
LINE
  8
0
 62
     4
 10
413.672852
 20
-162.139465
 11
417.672852
 21
-162.139465
  0
LINE
  8
0
 62
     4
 10
417.672852
 20
-166.139465
 11
417.672852
 21
-168.139465
  0
LINE
  8
0
 62
     4
 10
413.672852
 20
-166.139465
 11
413.672852
 21
-168.139465
  0
LINE
  8
0
 62
     1
 10
414.172852
 20
-166.139465
 11
414.172852
 21
-168.139465
  0
LINE
  8
0
 62
     1
 10
417.172852
 20
-166.139465
 11
417.172852
 21
-168.139465
  0
LINE
  8
0
 62
     4
 10
413.672852
 20
-177.139465
 11
417.672852
 21
-177.139465
  0
LINE
  8
0
 62
     4
 10
413.672852
 20
-171.139465
 11
413.672852
 21
-177.139465
  0
LINE
  8
0
 62
     1
 10
414.172852
 20
-171.139465
 11
414.172852
 21
-177.139465
  0
LINE
  8
0
 62
     1
 10
417.172852
 20
-171.139465
 11
417.172852
 21
-177.139465
  0
LINE
  8
0
 62
     4
 10
417.672852
 20
-171.139465
 11
417.672852
 21
-177.139465
  0
LINE
  8
0
  6
CENTER
 62
     1
 10
398.910004
 20
-124.639465
 11
398.694336
 21
-124.639465
  0
LINE
  8
0
  6
CENTER
 62
     1
 10
399.051819
 20
-209.639465
 11
398.694336
 21
-209.639465
  0
LINE
  8
0
 62
     4
 10
391.672852
 20
-126.139465
 11
391.672852
 21
-208.139465
  0
LINE
  8
0
 62
     4
 10
394.672852
 20
-126.139465
 11
394.672852
 21
-208.639465
  0
LINE
  8
0
 62
     4
 10
397.672852
 20
-126.139465
 11
397.672852
 21
-208.639465
  0
LINE
  8
0
 62
     4
 10
405.672852
 20
-126.139465
 11
405.672852
 21
-208.139465
  0
LINE
  8
0
 62
     4
 10
402.672852
 20
-126.139465
 11
402.672852
 21
-208.139465
  0
LINE
  8
0
 62
     4
 10
399.672852
 20
-126.139465
 11
399.672852
 21
-208.139465
  0
LINE
  8
0
 62
     4
 10
379.672852
 20
-162.139465
 11
383.672852
 21
-162.139465
  0
LINE
  8
0
 62
     4
 10
377.672852
 20
-164.139465
 11
377.672852
 21
-165.139465
  0
LINE
  8
0
 62
     4
 10
385.672852
 20
-164.139465
 11
385.672852
 21
-165.139465
  0
LINE
  8
0
 62
     4
 10
376.672852
 20
-165.139465
 11
386.672852
 21
-165.139465
  0
LINE
  8
0
 62
     4
 10
376.672852
 20
-166.139465
 11
386.672852
 21
-166.139465
  0
LINE
  8
0
 62
     4
 10
383.672852
 20
-166.139465
 11
383.672852
 21
-168.139465
  0
LINE
  8
0
 62
     1
 10
383.172852
 20
-166.139465
 11
383.172852
 21
-168.139465
  0
LINE
  8
0
 62
     1
 10
380.172852
 20
-166.139465
 11
380.172852
 21
-168.139465
  0
LINE
  8
0
 62
     4
 10
379.672852
 20
-166.139465
 11
379.672852
 21
-168.139465
  0
LINE
  8
0
 62
     4
 10
376.672852
 20
-168.139465
 11
386.672852
 21
-168.139465
  0
LINE
  8
0
 62
     4
 10
385.368988
 20
-171.139450
 11
385.904877
 21
-169.139435
  0
LINE
  8
0
 62
     4
 10
377.976685
 20
-171.139465
 11
385.369019
 21
-171.139465
  0
LINE
  8
0
 62
     4
 10
383.672852
 20
-171.139465
 11
383.672852
 21
-177.139465
  0
LINE
  8
0
 62
     1
 10
383.172852
 20
-171.139465
 11
383.172852
 21
-177.139465
  0
LINE
  8
0
 62
     1
 10
380.172852
 20
-171.139465
 11
380.172852
 21
-177.139465
  0
LINE
  8
0
 62
     4
 10
379.672852
 20
-171.139465
 11
379.672852
 21
-177.139465
  0
LINE
  8
0
 62
     4
 10
377.976746
 20
-171.139526
 11
377.440857
 21
-169.139511
  0
LINE
  8
0
 62
     4
 10
379.672852
 20
-177.139465
 11
383.672852
 21
-177.139465
  0
LINE
  8
0
 62
     4
 10
410.672852
 20
-169.139465
 11
420.672852
 21
-169.139465
  0
LINE
  8
0
 62
     4
 10
376.672852
 20
-169.139465
 11
386.672852
 21
-169.139465
  0
LINE
  8
0
 62
     4
 10
276.422852
 20
-147.139481
 11
275.672852
 21
-147.889465
  0
LINE
  8
0
 62
     4
 10
276.422852
 20
-147.139465
 11
276.422852
 21
-187.139465
  0
LINE
  8
0
 62
     1
 10
275.672852
 20
-186.389465
 11
338.672852
 21
-186.389465
  0
LINE
  8
0
 62
     4
 10
276.422852
 20
-187.139465
 11
341.672852
 21
-187.139465
  0
LINE
  8
0
 62
     4
 10
276.422821
 20
-187.139420
 11
275.672821
 21
-186.389420
  0
LINE
  8
0
 62
     1
 10
338.672882
 20
-186.389465
 11
340.280060
 21
-187.139481
  0
LINE
  8
0
 62
     4
 10
341.672882
 20
-147.139511
 11
346.002991
 21
-144.639511
  0
LINE
  8
0
 62
     4
 10
346.002991
 20
-144.639465
 11
373.672852
 21
-144.639465
  0
LINE
  8
0
 62
     4
 10
186.102310
 20
-195.912109
 11
189.368271
 21
-199.178085
  0
LINE
  8
0
 62
     4
 10
180.445374
 20
-201.568909
 11
183.711380
 21
-204.834930
  0
LINE
  8
0
 62
     4
 10
189.368301
 20
-199.178085
 11
188.172867
 21
-203.639526
  0
LINE
  8
0
 62
     4
 10
181.640945
 20
-197.107529
 11
180.445511
 21
-201.568954
  0
LINE
  8
0
 62
     4
 10
183.711319
 20
-204.834854
 11
188.172760
 21
-203.639435
  0
LINE
  8
0
 62
     4
 10
181.640793
 20
-197.107422
 11
186.102219
 21
-195.911987
  0
LINE
  8
0
 62
     4
 10
180.445480
 20
-132.710052
 11
183.711456
 21
-129.444077
  0
LINE
  8
0
 62
     4
 10
186.102356
 20
-138.366928
 11
189.368362
 21
-135.100937
  0
LINE
  8
0
 62
     4
 10
183.711487
 20
-129.444077
 11
188.172897
 21
-130.639511
  0
LINE
  8
0
 62
     4
 10
181.640930
 20
-137.171478
 11
186.102325
 21
-138.366913
  0
LINE
  8
0
 62
     4
 10
189.368332
 20
-135.100937
 11
188.172897
 21
-130.639526
  0
LINE
  8
0
 62
     4
 10
181.640930
 20
-137.171478
 11
180.445496
 21
-132.710052
  0
LINE
  8
0
 62
     4
 10
117.243401
 20
-138.366730
 11
113.977440
 21
-135.100754
  0
LINE
  8
0
 62
     4
 10
122.900337
 20
-132.709946
 11
119.634323
 21
-129.443939
  0
LINE
  8
0
 62
     4
 10
113.977463
 20
-135.100861
 11
115.172897
 21
-130.639435
  0
LINE
  8
0
 62
     4
 10
121.704842
 20
-137.171402
 11
122.900276
 21
-132.709976
  0
LINE
  8
0
 62
     4
 10
119.634293
 20
-129.443970
 11
115.172890
 21
-130.639404
  0
LINE
  8
0
 62
     4
 10
121.704857
 20
-137.171387
 11
117.243446
 21
-138.366821
  0
LINE
  8
0
 62
     4
 10
122.900154
 20
-201.568863
 11
119.634186
 21
-204.834839
  0
LINE
  8
0
 62
     4
 10
117.243370
 20
-195.912003
 11
113.977356
 21
-199.178009
  0
LINE
  8
0
 62
     4
 10
119.634270
 20
-204.834915
 11
115.172813
 21
-203.639465
  0
LINE
  8
0
 62
     4
 10
121.704819
 20
-197.107529
 11
117.243401
 21
-195.912094
  0
LINE
  8
0
 62
     4
 10
113.977394
 20
-199.177963
 11
115.172829
 21
-203.639389
  0
LINE
  8
0
 62
     4
 10
121.704826
 20
-197.107468
 11
122.900253
 21
-201.568878
  0
LINE
  8
0
 62
     4
 10
172.172852
 20
-157.865845
 11
172.172852
 21
-176.413086
  0
LINE
  8
0
 62
     4
 10
131.172852
 20
-157.865845
 11
131.172852
 21
-176.413086
  0
LINE
  8
0
  6
CENTER
 62
     1
 10
181.172852
 20
-159.164368
 11
181.172852
 21
-179.444214
  0
LINE
  8
0
 62
     4
 10
179.172852
 20
-162.139465
 11
183.172852
 21
-162.139465
  0
LINE
  8
0
 62
     4
 10
177.172852
 20
-164.139465
 11
177.172852
 21
-165.139465
  0
LINE
  8
0
 62
     4
 10
185.172852
 20
-164.139465
 11
185.172852
 21
-165.139465
  0
LINE
  8
0
 62
     4
 10
176.592728
 20
-165.139465
 11
186.172852
 21
-165.139465
  0
LINE
  8
0
 62
     4
 10
176.652847
 20
-166.139465
 11
186.172852
 21
-166.139465
  0
LINE
  8
0
 62
     1
 10
182.672852
 20
-166.139465
 11
182.672852
 21
-168.139465
  0
LINE
  8
0
 62
     4
 10
183.172852
 20
-166.139465
 11
183.172852
 21
-168.139465
  0
LINE
  8
0
 62
     1
 10
179.672852
 20
-166.139465
 11
179.672852
 21
-168.139465
  0
LINE
  8
0
 62
     4
 10
179.172852
 20
-166.139465
 11
179.172852
 21
-168.139465
  0
LINE
  8
0
 62
     4
 10
176.652847
 20
-168.139465
 11
186.172852
 21
-168.139465
  0
LINE
  8
0
 62
     4
 10
177.476654
 20
-171.139420
 11
176.940765
 21
-169.139420
  0
LINE
  8
0
 62
     4
 10
177.476685
 20
-171.139465
 11
184.869019
 21
-171.139465
  0
LINE
  8
0
 62
     4
 10
179.172852
 20
-171.139465
 11
179.172852
 21
-177.139465
  0
LINE
  8
0
 62
     1
 10
179.672852
 20
-171.139465
 11
179.672852
 21
-177.139465
  0
LINE
  8
0
 62
     1
 10
182.672852
 20
-171.139465
 11
182.672852
 21
-177.139465
  0
LINE
  8
0
 62
     4
 10
183.172852
 20
-171.139465
 11
183.172852
 21
-177.139465
  0
LINE
  8
0
 62
     4
 10
184.869049
 20
-171.139465
 11
185.404968
 21
-169.139435
  0
LINE
  8
0
 62
     4
 10
179.172852
 20
-177.139465
 11
183.172852
 21
-177.139465
  0
LINE
  8
0
 62
     4
 10
176.592728
 20
-169.139465
 11
186.172852
 21
-169.139465
  0
LINE
  8
0
 62
     4
 10
186.172852
 20
-165.139465
 11
186.172852
 21
-166.139465
  0
LINE
  8
0
 62
     4
 10
186.172852
 20
-168.139465
 11
186.172852
 21
-169.139465
  0
LINE
  8
0
 62
     4
 10
410.672821
 20
86.415359
 11
420.672821
 21
86.415359
  0
LINE
  8
0
 62
     4
 10
414.187927
 20
89.930443
 11
417.157776
 21
92.900307
  0
LINE
  8
0
 62
     4
 10
414.187958
 20
92.900368
 11
417.157837
 21
89.930511
  0
LINE
  8
0
 62
     4
 10
438.672852
 20
189.360535
 11
438.672852
 21
76.360535
  0
LINE
  8
0
 62
     4
 10
439.672852
 20
190.360535
 11
439.672852
 21
75.360535
  0
LINE
  8
0
 62
     4
 10
439.672852
 20
75.360535
 11
448.672852
 21
75.360535
  0
LINE
  8
0
 62
     4
 10
439.672852
 20
190.360535
 11
448.672852
 21
190.360535
  0
LINE
  8
0
 62
     4
 10
438.672882
 20
189.360504
 11
439.672852
 21
190.360489
  0
LINE
  8
0
 62
     4
 10
438.672821
 20
76.360542
 11
439.672821
 21
75.360558
  0
LINE
  8
0
 62
     4
 10
435.672852
 20
178.860535
 11
435.672852
 21
174.094513
  0
LINE
  8
0
 62
     4
 10
436.672852
 20
179.860535
 11
438.672852
 21
179.860535
  0
LINE
  8
0
 62
     4
 10
436.672852
 20
85.860535
 11
438.672852
 21
85.860535
  0
LINE
  8
0
 62
     4
 10
428.672821
 20
167.601044
 11
423.672852
 21
167.415848
  0
LINE
  8
0
 62
     4
 10
423.672791
 20
98.304848
 11
428.672791
 21
98.119667
  0
LINE
  8
0
 62
     4
 10
429.672852
 20
107.626556
 11
438.672852
 21
107.626556
  0
LINE
  8
0
 62
     4
 10
429.672852
 20
91.626556
 11
438.672852
 21
91.626556
  0
LINE
  8
0
 62
     4
 10
428.672852
 20
106.626556
 11
428.672852
 21
92.626556
  0
LINE
  8
0
 62
     4
 10
428.672852
 20
106.626534
 11
429.672821
 21
107.626511
  0
LINE
  8
0
 62
     4
 10
429.672791
 20
91.626564
 11
428.672791
 21
92.626564
  0
LINE
  8
0
 62
     4
 10
429.672852
 20
107.626556
 11
429.672852
 21
91.626556
  0
LINE
  8
0
 62
     4
 10
429.672852
 20
158.094513
 11
438.672852
 21
158.094513
  0
LINE
  8
0
 62
     4
 10
428.672852
 20
173.094513
 11
428.672852
 21
159.094513
  0
LINE
  8
0
 62
     4
 10
429.672760
 20
158.094376
 11
428.672760
 21
159.094391
  0
LINE
  8
0
 62
     4
 10
429.672852
 20
174.094513
 11
429.672852
 21
158.094513
  0
LINE
  8
0
 62
     4
 10
428.672882
 20
173.094498
 11
429.672882
 21
174.094513
  0
LINE
  8
0
 62
     4
 10
429.672852
 20
174.094513
 11
438.672852
 21
174.094513
  0
LINE
  8
0
 62
     4
 10
435.672852
 20
91.626556
 11
435.672852
 21
86.860535
  0
LINE
  8
0
 62
     4
 10
435.672852
 20
158.094513
 11
435.672852
 21
107.626556
  0
LINE
  8
0
 62
     4
 10
275.672852
 20
152.110535
 11
275.672852
 21
113.610535
  0
LINE
  8
0
 62
     4
 10
276.422852
 20
152.860535
 11
341.672852
 21
152.860535
  0
LINE
  8
0
 62
     4
 10
359.827545
 20
155.360535
 11
373.672852
 21
155.360535
  0
LINE
  8
0
 62
     4
 10
338.672852
 20
152.860535
 11
338.672852
 21
112.860535
  0
LINE
  8
0
 62
     4
 10
341.672852
 20
152.860535
 11
341.672852
 21
112.860535
  0
LINE
  8
0
 62
     4
 10
341.672852
 20
152.860672
 11
342.538818
 21
153.360641
  0
LINE
  8
0
 62
     4
 10
346.002991
 20
112.360535
 11
346.002991
 21
153.360535
  0
LINE
  8
0
 62
     1
 10
275.672852
 20
152.110535
 11
338.672852
 21
152.110535
  0
LINE
  8
0
 62
     1
 10
338.672852
 20
152.110458
 11
340.280029
 21
152.860474
  0
LINE
  8
0
 62
     4
 10
408.672852
 20
173.860535
 11
408.672852
 21
91.860535
  0
LINE
  8
0
 62
     4
 10
423.672852
 20
168.305603
 11
423.672852
 21
97.415375
  0
LINE
  8
0
 62
     4
 10
388.672852
 20
173.860535
 11
388.672852
 21
91.860535
  0
LINE
  8
0
 62
     4
 10
373.672852
 20
156.360535
 11
373.672852
 21
109.360535
  0
LINE
  8
0
 62
     4
 10
410.672852
 20
168.305603
 11
420.672852
 21
168.305603
  0
LINE
  8
0
 62
     4
 10
410.672852
 20
97.415375
 11
420.672852
 21
97.415375
  0
LINE
  8
0
 62
     4
 10
420.672852
 20
168.305603
 11
420.672852
 21
97.415375
  0
LINE
  8
0
 62
     4
 10
376.672852
 20
156.360535
 11
376.672852
 21
109.360535
  0
LINE
  8
0
 62
     4
 10
376.672852
 20
156.360535
 11
386.672852
 21
156.360535
  0
LINE
  8
0
 62
     4
 10
376.672852
 20
109.360535
 11
386.672852
 21
109.360535
  0
LINE
  8
0
 62
     4
 10
410.672852
 20
168.305603
 11
410.672852
 21
97.415375
  0
LINE
  8
0
 62
     4
 10
386.672852
 20
156.360535
 11
386.672852
 21
109.360535
  0
LINE
  8
0
 62
     4
 10
386.672852
 20
155.860535
 11
387.172852
 21
155.860535
  0
LINE
  8
0
 62
     4
 10
386.672852
 20
109.860535
 11
387.172852
 21
109.860535
  0
LINE
  8
0
 62
     4
 10
410.172852
 20
167.805603
 11
410.672852
 21
167.805603
  0
LINE
  8
0
 62
     4
 10
410.172852
 20
97.915375
 11
410.672852
 21
97.915375
  0
LINE
  8
0
  6
CENTER
 62
     1
 10
398.910004
 20
175.360535
 11
398.694336
 21
175.360535
  0
LINE
  8
0
  6
CENTER
 62
     1
 10
399.051819
 20
90.360535
 11
398.694336
 21
90.360535
  0
LINE
  8
0
 62
     4
 10
391.672852
 20
173.860535
 11
391.672852
 21
91.860535
  0
LINE
  8
0
 62
     4
 10
394.672852
 20
173.860535
 11
394.672852
 21
91.360535
  0
LINE
  8
0
 62
     4
 10
397.672852
 20
173.860535
 11
397.672852
 21
91.360535
  0
LINE
  8
0
 62
     4
 10
405.672852
 20
173.860535
 11
405.672852
 21
91.860535
  0
LINE
  8
0
 62
     4
 10
402.672852
 20
173.860535
 11
402.672852
 21
91.860535
  0
LINE
  8
0
 62
     4
 10
399.672852
 20
173.860535
 11
399.672852
 21
91.860535
  0
LINE
  8
0
 62
     4
 10
276.422852
 20
152.860535
 11
275.672882
 21
152.110550
  0
LINE
  8
0
 62
     4
 10
276.422852
 20
152.860535
 11
276.422852
 21
112.860535
  0
LINE
  8
0
 62
     1
 10
275.672852
 20
113.610535
 11
338.672852
 21
113.610535
  0
LINE
  8
0
 62
     4
 10
276.422852
 20
112.860535
 11
341.672852
 21
112.860535
  0
LINE
  8
0
 62
     4
 10
276.422729
 20
112.860420
 11
275.672760
 21
113.610413
  0
LINE
  8
0
 62
     1
 10
338.672852
 20
113.610626
 11
340.280029
 21
112.860603
  0
LINE
  8
0
 62
     4
 10
342.538818
 20
153.360535
 11
358.672852
 21
153.360535
  0
LINE
  8
0
 62
     4
 10
358.672852
 20
153.360580
 11
359.827545
 21
155.360565
  0
LINE
  8
0
 62
     4
 10
359.827545
 20
110.360535
 11
373.672852
 21
110.360535
  0
LINE
  8
0
 62
     4
 10
341.672791
 20
112.860397
 11
342.538788
 21
112.360405
  0
LINE
  8
0
 62
     4
 10
342.538818
 20
112.360535
 11
358.672852
 21
112.360535
  0
LINE
  8
0
 62
     4
 10
358.672729
 20
112.360420
 11
359.827393
 21
110.360466
  0
LINE
  8
0
 62
     4
 10
380.187988
 20
104.845551
 11
383.157837
 21
101.875694
  0
LINE
  8
0
 62
     4
 10
376.672821
 20
98.360519
 11
386.672821
 21
98.360519
  0
LINE
  8
0
 62
     4
 10
380.187897
 20
101.875626
 11
383.157776
 21
104.845482
  0
LINE
  8
0
 62
     4
 10
376.672852
 20
109.360535
 11
376.672852
 21
98.360519
  0
LINE
  8
0
 62
     4
 10
386.672852
 20
109.360535
 11
386.672852
 21
98.360519
  0
LINE
  8
0
 62
     4
 10
410.672852
 20
97.415375
 11
410.672852
 21
86.415359
  0
LINE
  8
0
 62
     4
 10
420.672852
 20
97.415375
 11
420.672852
 21
86.415359
  0
CIRCLE
  8
0
 10
-503.631287
 20
-246.732941
 40
8.000000
  0
CIRCLE
  8
0
 10
-359.631287
 20
-246.732941
 40
8.000000
  0
CIRCLE
  8
0
 10
-359.631287
 20
-102.732941
 40
8.000000
  0
CIRCLE
  8
0
 10
-503.631287
 20
-102.732941
 40
8.000000
  0
CIRCLE
  8
0
 10
-503.631287
 20
-246.732941
 40
11.500000
  0
CIRCLE
  8
0
 10
-503.631287
 20
-102.732941
 40
11.500000
  0
CIRCLE
  8
0
 10
-359.631287
 20
-102.732941
 40
11.500000
  0
CIRCLE
  8
0
 10
-359.631287
 20
-246.732941
 40
11.500000
  0
CIRCLE
  8
0
 62
     2
 10
-503.631287
 20
-246.732941
 40
6.600000
  0
CIRCLE
  8
0
 62
     2
 10
-359.631287
 20
-246.732941
 40
6.600000
  0
CIRCLE
  8
0
 62
     2
 10
-359.631287
 20
-102.732941
 40
6.600000
  0
CIRCLE
  8
0
 62
     2
 10
-503.631287
 20
-102.732941
 40
6.600000
  0
CIRCLE
  8
0
 10
-103.131302
 20
-174.732941
 40
7.950000
  0
CIRCLE
  8
0
 10
-103.131302
 20
-174.732941
 40
5.150000
  0
ARC
  8
0
 10
-133.534775
 20
-236.345428
 40
5.096536
 50
137.204651
 51
222.795471
  0
ARC
  8
0
 10
-120.280258
 20
-246.732941
 40
18.351048
 50
157.829620
 51
202.170425
  0
ARC
  8
0
 10
-133.534775
 20
-257.120422
 40
5.096536
 50
137.204651
 51
222.795349
  0
ARC
  8
0
 10
-133.534760
 20
-113.120438
 40
5.096536
 50
137.204651
 51
222.795349
  0
ARC
  8
0
 10
-120.280251
 20
-102.732941
 40
18.351044
 50
157.829590
 51
202.170380
  0
ARC
  8
0
 10
-133.534760
 20
-92.345428
 40
5.096536
 50
137.204651
 51
222.795425
  0
ARC
  8
0
 10
-121.301193
 20
223.267059
 40
17.330114
 50
159.743820
 51
200.256104
  0
ARC
  8
0
 10
-121.301178
 20
211.267059
 40
17.330114
 50
159.743820
 51
200.256104
  0
ARC
  8
0
 10
-121.301285
 20
79.267059
 40
17.330116
 50
159.743805
 51
200.256088
  0
ARC
  8
0
 10
-121.301270
 20
67.267059
 40
17.330116
 50
159.743805
 51
200.256088
  0
CIRCLE
  8
0
 62
     2
 10
-103.131302
 20
145.267059
 40
13.220500
  0
CIRCLE
  8
0
 10
-103.131302
 20
145.267059
 40
12.058500
  0
CIRCLE
  8
0
 10
70.672852
 20
-86.139465
 40
9.000000
  0
CIRCLE
  8
0
 10
70.672852
 20
-86.139465
 40
13.000000
  0
CIRCLE
  8
0
 10
232.672852
 20
-86.139465
 40
9.000000
  0
CIRCLE
  8
0
 10
232.672852
 20
-86.139465
 40
13.000000
  0
CIRCLE
  8
0
 10
232.672852
 20
-248.139465
 40
9.000000
  0
CIRCLE
  8
0
 10
232.672852
 20
-248.139465
 40
13.000000
  0
CIRCLE
  8
0
 10
70.672852
 20
-248.139465
 40
9.000000
  0
CIRCLE
  8
0
 10
70.672852
 20
-248.139465
 40
13.000000
  0
CIRCLE
  8
0
 62
     2
 10
232.672852
 20
-86.139465
 40
7.600000
  0
CIRCLE
  8
0
 62
     2
 10
70.672852
 20
-86.139465
 40
7.600000
  0
CIRCLE
  8
0
 62
     2
 10
70.672852
 20
-248.139465
 40
7.600000
  0
CIRCLE
  8
0
 62
     2
 10
232.672852
 20
-248.139465
 40
7.600000
  0
CIRCLE
  8
0
 10
467.172852
 20
-167.139465
 40
7.950000
  0
CIRCLE
  8
0
 10
467.172852
 20
-167.139465
 40
5.150000
  0
ARC
  8
0
 10
435.151001
 20
-97.824585
 40
6.078140
 50
140.243668
 51
220.001770
  0
ARC
  8
0
 10
435.323334
 20
-74.441406
 40
6.250496
 50
141.551315
 51
218.694412
  0
ARC
  8
0
 10
451.639954
 20
-86.097855
 40
22.567135
 50
159.917755
 51
200.327759
  0
ARC
  8
0
 10
435.151001
 20
-259.824585
 40
6.078140
 50
140.243668
 51
220.001816
  0
ARC
  8
0
 10
435.323334
 20
-236.441406
 40
6.250496
 50
141.551315
 51
218.694412
  0
ARC
  8
0
 10
451.639954
 20
-248.097855
 40
22.567137
 50
159.917740
 51
200.327759
  0
CIRCLE
  8
0
 62
     2
 10
467.172852
 20
132.860535
 40
13.220500
  0
CIRCLE
  8
0
 10
467.172852
 20
132.860535
 40
12.058500
  0
ARC
  8
0
 10
448.569244
 20
220.610535
 40
19.496391
 50
159.743835
 51
200.256119
  0
ARC
  8
0
 10
448.569244
 20
207.110535
 40
19.496395
 50
159.743790
 51
200.256073
  0
ARC
  8
0
 10
448.569244
 20
58.610535
 40
19.496387
 50
159.743866
 51
200.256134
  0
ARC
  8
0
 10
448.569244
 20
45.110535
 40
19.496395
 50
159.743805
 51
200.256073
  0
ARC
  8
0
 62
     4
 10
-132.631302
 20
-138.232941
 40
1.000000
 50
90.000000
 51
180.000000
  0
ARC
  8
0
 62
     4
 10
-132.631302
 20
-211.232941
 40
1.000000
 50
180.000000
 51
270.000000
  0
ARC
  8
0
 62
     4
 10
-184.631302
 20
-171.732941
 40
2.000000
 50
0.000000
 51
90.000000
  0
ARC
  8
0
 62
     4
 10
-193.131302
 20
-195.732941
 40
1.500000
 50
180.000000
 51
0.000000
  0
ARC
  8
0
 62
     4
 10
-193.131302
 20
-153.732941
 40
1.500000
 50
0.000000
 51
180.000000
  0
ARC
  8
0
 62
     4
 10
-146.131302
 20
-144.172974
 40
1.500000
 50
0.000000
 51
180.000000
  0
ARC
  8
0
 62
     4
 10
-146.131302
 20
-205.292938
 40
1.500000
 50
180.000000
 51
0.000000
  0
ARC
  8
0
 62
     4
 10
-181.131302
 20
-152.732941
 40
1.500000
 50
270.000000
 51
0.000000
  0
ARC
  8
0
 62
     4
 10
-181.131302
 20
-196.732941
 40
1.500000
 50
0.000000
 51
90.000000
  0
ARC
  8
0
 62
     4
 10
-158.131302
 20
-206.292938
 40
1.500000
 50
90.000000
 51
180.000000
  0
ARC
  8
0
 62
     4
 10
-158.131302
 20
-143.172974
 40
1.500000
 50
180.000000
 51
270.000000
  0
ARC
  8
0
 62
     4
 10
-154.631302
 20
-171.732941
 40
2.000000
 50
90.000000
 51
180.000000
  0
ARC
  8
0
 62
     4
 10
-150.631302
 20
-171.732941
 40
2.000000
 50
0.000000
 51
90.000000
  0
ARC
  8
0
 62
     4
 10
-161.131302
 20
-138.732941
 40
1.500000
 50
0.000000
 51
180.000000
  0
ARC
  8
0
 62
     4
 10
-164.131302
 20
-140.232941
 40
1.500000
 50
180.000000
 51
0.000000
  0
ARC
  8
0
 62
     4
 10
-167.131302
 20
-138.732941
 40
1.500000
 50
0.000000
 51
180.000000
  0
ARC
  8
0
 62
     4
 10
-178.131302
 20
-138.732941
 40
1.500000
 50
0.000000
 51
180.000000
  0
ARC
  8
0
 62
     4
 10
-175.131302
 20
-140.232941
 40
1.500000
 50
180.000000
 51
0.000000
  0
ARC
  8
0
 62
     4
 10
-172.131302
 20
-138.732941
 40
1.500000
 50
0.000000
 51
180.000000
  0
ARC
  8
0
 62
     4
 10
-178.131302
 20
-210.732941
 40
1.500000
 50
180.000000
 51
0.000000
  0
ARC
  8
0
 62
     4
 10
-175.131302
 20
-209.232941
 40
1.500000
 50
0.000000
 51
180.000000
  0
ARC
  8
0
 62
     4
 10
-172.131302
 20
-210.732941
 40
1.500000
 50
180.000000
 51
0.000000
  0
ARC
  8
0
 62
     4
 10
-161.131302
 20
-210.732941
 40
1.500000
 50
180.000000
 51
0.000000
  0
ARC
  8
0
 62
     4
 10
-164.131302
 20
-209.232941
 40
1.500000
 50
0.000000
 51
180.000000
  0
ARC
  8
0
 62
     4
 10
-167.131302
 20
-210.732941
 40
1.500000
 50
180.000000
 51
0.000000
  0
ARC
  8
0
 62
     4
 10
-188.631302
 20
-171.732941
 40
2.000000
 50
90.000000
 51
180.000000
  0
ARC
  8
0
 62
     4
 10
-210.929581
 20
-174.732941
 40
12.701715
 50
136.658340
 51
223.341660
  0
ARC
  8
0
 62
     4
 10
-234.214630
 20
-174.732941
 40
26.083330
 50
340.474335
 51
19.525669
  0
CIRCLE
  8
0
 62
     4
 10
-431.631287
 20
-174.732941
 40
45.000000
  0
ARC
  8
0
 62
     4
 10
-458.147827
 20
-201.249451
 40
6.500003
 50
130.028214
 51
319.971802
  0
ARC
  8
0
 62
     4
 10
-405.114807
 20
-201.249451
 40
6.499993
 50
220.028107
 51
49.971878
  0
ARC
  8
0
 62
     4
 10
-405.114807
 20
-148.216431
 40
6.500015
 50
310.028107
 51
139.971893
  0
ARC
  8
0
 62
     4
 10
-458.147827
 20
-148.216431
 40
6.500003
 50
40.028206
 51
229.971786
  0
ARC
  8
0
 62
     4
 10
-406.631287
 20
-171.732941
 40
2.000000
 50
90.000000
 51
180.000000
  0
ARC
  8
0
 62
     4
 10
-402.631287
 20
-171.732941
 40
2.000000
 50
0.000000
 51
90.000000
  0
CIRCLE
  8
0
 62
     4
 10
-431.631287
 20
-174.732941
 40
37.500000
  0
CIRCLE
  8
0
 62
     4
 10
-431.631287
 20
-174.732941
 40
22.500000
  0
CIRCLE
  8
0
 62
     4
 10
-431.631287
 20
-174.732941
 40
18.000000
  0
CIRCLE
  8
0
 62
     1
 10
-431.631287
 20
-174.732941
 40
17.250000
  0
CIRCLE
  8
0
 62
     4
 10
-431.631287
 20
-174.732941
 40
20.000000
  0
ARC
  8
0
 62
     4
 10
-132.631302
 20
181.767059
 40
1.000000
 50
90.000000
 51
180.000000
  0
ARC
  8
0
 62
     4
 10
-132.631302
 20
108.767059
 40
1.000000
 50
180.000000
 51
270.000000
  0
ARC
  8
0
 62
     4
 10
-193.131302
 20
124.267059
 40
1.500000
 50
180.000000
 51
0.000000
  0
ARC
  8
0
 62
     4
 10
-193.131302
 20
166.267059
 40
1.500000
 50
0.000000
 51
180.000000
  0
ARC
  8
0
 62
     4
 10
-146.131302
 20
175.827026
 40
1.500000
 50
0.000000
 51
180.000000
  0
ARC
  8
0
 62
     4
 10
-146.131302
 20
114.707062
 40
1.500000
 50
180.000000
 51
0.000000
  0
ARC
  8
0
 62
     4
 10
-181.131302
 20
167.267059
 40
1.500000
 50
270.000000
 51
0.000000
  0
ARC
  8
0
 62
     4
 10
-181.131302
 20
123.267059
 40
1.500000
 50
0.000000
 51
90.000000
  0
ARC
  8
0
 62
     4
 10
-158.131302
 20
113.707062
 40
1.500000
 50
90.000000
 51
180.000000
  0
ARC
  8
0
 62
     4
 10
-158.131302
 20
176.827026
 40
1.500000
 50
180.000000
 51
270.000000
  0
ARC
  8
0
 62
     4
 10
-161.131302
 20
181.267059
 40
1.500000
 50
0.000000
 51
180.000000
  0
ARC
  8
0
 62
     4
 10
-164.131302
 20
179.767059
 40
1.500000
 50
180.000000
 51
0.000000
  0
ARC
  8
0
 62
     4
 10
-167.131302
 20
181.267059
 40
1.500000
 50
0.000000
 51
180.000000
  0
ARC
  8
0
 62
     4
 10
-178.131302
 20
181.267059
 40
1.500000
 50
0.000000
 51
180.000000
  0
ARC
  8
0
 62
     4
 10
-175.131302
 20
179.767059
 40
1.500000
 50
180.000000
 51
0.000000
  0
ARC
  8
0
 62
     4
 10
-172.131302
 20
181.267059
 40
1.500000
 50
0.000000
 51
180.000000
  0
ARC
  8
0
 62
     4
 10
-178.131302
 20
109.267059
 40
1.500000
 50
180.000000
 51
0.000000
  0
ARC
  8
0
 62
     4
 10
-175.131302
 20
110.767059
 40
1.500000
 50
0.000000
 51
180.000000
  0
ARC
  8
0
 62
     4
 10
-172.131302
 20
109.267059
 40
1.500000
 50
180.000000
 51
0.000000
  0
ARC
  8
0
 62
     4
 10
-161.131302
 20
109.267059
 40
1.500000
 50
180.000000
 51
0.000000
  0
ARC
  8
0
 62
     4
 10
-164.131302
 20
110.767059
 40
1.500000
 50
0.000000
 51
180.000000
  0
ARC
  8
0
 62
     4
 10
-167.131302
 20
109.267059
 40
1.500000
 50
180.000000
 51
0.000000
  0
CIRCLE
  8
0
 62
     4
 10
-186.631302
 20
118.267059
 40
4.000000
  0
CIRCLE
  8
0
 62
     4
 10
-152.631317
 20
108.707047
 40
4.000000
  0
ARC
  8
0
 62
     4
 10
436.672852
 20
-213.139465
 40
1.000000
 50
180.000000
 51
270.000000
  0
ARC
  8
0
 62
     4
 10
436.672852
 20
-121.139465
 40
1.000000
 50
90.000000
 51
180.000000
  0
ARC
  8
0
 62
     4
 10
356.683960
 20
-167.139465
 40
14.145075
 50
139.034256
 51
220.965668
  0
ARC
  8
0
 62
     4
 10
330.756165
 20
-167.139465
 40
29.416687
 50
0.000000
 51
18.375927
  0
ARC
  8
0
 62
     4
 10
330.756165
 20
-167.139465
 40
29.416687
 50
341.624084
 51
0.000000
  0
ARC
  8
0
 62
     4
 10
401.172852
 20
-208.139465
 40
1.500000
 50
180.000000
 51
0.000000
  0
ARC
  8
0
 62
     4
 10
390.172852
 20
-208.139465
 40
1.500000
 50
180.000000
 51
0.000000
  0
ARC
  8
0
 62
     4
 10
393.172852
 20
-206.639465
 40
1.500000
 50
0.000000
 51
180.000000
  0
ARC
  8
0
 62
     4
 10
396.172852
 20
-208.139465
 40
1.500000
 50
180.000000
 51
0.000000
  0
ARC
  8
0
 62
     4
 10
407.172852
 20
-208.139465
 40
1.500000
 50
180.000000
 51
0.000000
  0
ARC
  8
0
 62
     4
 10
379.672852
 20
-164.139465
 40
2.000000
 50
90.000000
 51
180.000000
  0
ARC
  8
0
 62
     4
 10
404.172852
 20
-206.639465
 40
1.500000
 50
0.000000
 51
180.000000
  0
ARC
  8
0
 62
     4
 10
383.672852
 20
-164.139465
 40
2.000000
 50
0.000000
 51
90.000000
  0
ARC
  8
0
 62
     4
 10
375.172852
 20
-190.639465
 40
1.500000
 50
180.000000
 51
0.000000
  0
ARC
  8
0
 62
     4
 10
375.172852
 20
-143.639465
 40
1.500000
 50
0.000000
 51
180.000000
  0
ARC
  8
0
 62
     4
 10
422.172852
 20
-131.694382
 40
1.500000
 50
0.000000
 51
180.000000
  0
ARC
  8
0
 62
     4
 10
422.172852
 20
-202.584625
 40
1.500000
 50
180.000000
 51
0.000000
  0
ARC
  8
0
 62
     4
 10
387.172852
 20
-142.639465
 40
1.500000
 50
270.000000
 51
0.000000
  0
ARC
  8
0
 62
     4
 10
387.172852
 20
-191.639465
 40
1.500000
 50
0.000000
 51
90.000000
  0
ARC
  8
0
 62
     4
 10
410.172852
 20
-203.584625
 40
1.500000
 50
90.000000
 51
180.000000
  0
ARC
  8
0
 62
     4
 10
410.172852
 20
-130.694382
 40
1.500000
 50
180.000000
 51
270.000000
  0
ARC
  8
0
 62
     4
 10
413.672852
 20
-164.139465
 40
2.000000
 50
90.000000
 51
180.000000
  0
ARC
  8
0
 62
     4
 10
417.672852
 20
-164.139465
 40
2.000000
 50
0.000000
 51
90.000000
  0
ARC
  8
0
 62
     4
 10
407.172852
 20
-126.139465
 40
1.500000
 50
0.000000
 51
180.000000
  0
ARC
  8
0
 62
     4
 10
404.172852
 20
-127.639465
 40
1.500000
 50
180.000000
 51
0.000000
  0
ARC
  8
0
 62
     4
 10
401.172852
 20
-126.139465
 40
1.500000
 50
0.000000
 51
180.000000
  0
ARC
  8
0
 62
     4
 10
390.172852
 20
-126.139465
 40
1.500000
 50
0.000000
 51
180.000000
  0
ARC
  8
0
 62
     4
 10
393.172852
 20
-127.639465
 40
1.500000
 50
180.000000
 51
0.000000
  0
ARC
  8
0
 62
     4
 10
396.172852
 20
-126.139465
 40
1.500000
 50
0.000000
 51
180.000000
  0
CIRCLE
  8
0
 62
     4
 10
151.672852
 20
-167.139465
 40
57.500000
  0
ARC
  8
0
 62
     4
 10
184.906830
 20
-200.373535
 40
10.000008
 50
56.944412
 51
77.333092
  0
ARC
  8
0
 62
     4
 10
184.906830
 20
-200.373535
 40
8.000000
 50
270.000000
 51
83.365692
  0
ARC
  8
0
 62
     4
 10
184.906921
 20
-133.905487
 40
8.000000
 50
0.000000
 51
173.365692
  0
ARC
  8
0
 62
     4
 10
118.438873
 20
-133.905396
 40
8.000000
 50
90.000000
 51
263.365631
  0
ARC
  8
0
 62
     4
 10
118.438782
 20
-200.373444
 40
8.000000
 50
180.000000
 51
353.365570
  0
ARC
  8
0
 62
     4
 10
190.906860
 20
-143.125061
 40
0.999999
 50
31.470844
 51
123.055977
  0
ARC
  8
0
 62
     4
 10
190.906799
 20
-191.153992
 40
1.000009
 50
236.944504
 51
328.530365
  0
ARC
  8
0
 62
     4
 10
151.672852
 20
-167.139465
 40
46.999996
 50
328.529846
 51
31.470057
  0
ARC
  8
0
 62
     4
 10
184.906921
 20
-133.905487
 40
9.999995
 50
146.944366
 51
167.333008
  0
ARC
  8
0
 62
     4
 10
175.687363
 20
-127.905510
 40
1.000005
 50
326.944855
 51
58.530128
  0
ARC
  8
0
 62
     4
 10
151.672852
 20
-167.139465
 40
46.999996
 50
58.529835
 51
121.470055
  0
ARC
  8
0
 62
     4
 10
127.658447
 20
-127.905449
 40
1.000002
 50
121.470245
 51
213.056335
  0
ARC
  8
0
 62
     4
 10
118.438873
 20
-133.905396
 40
10.000004
 50
236.944443
 51
257.333008
  0
ARC
  8
0
 62
     4
 10
112.438904
 20
-143.124954
 40
1.000005
 50
56.944870
 51
148.530136
  0
ARC
  8
0
 62
     4
 10
151.672852
 20
-167.139465
 40
47.000004
 50
148.529846
 51
211.470047
  0
ARC
  8
0
 62
     4
 10
112.438843
 20
-191.153870
 40
1.000006
 50
211.470612
 51
303.055969
  0
ARC
  8
0
 62
     4
 10
118.438782
 20
-200.373444
 40
10.000001
 50
326.944397
 51
347.333008
  0
ARC
  8
0
 62
     4
 10
127.658325
 20
-206.373413
 40
1.000002
 50
146.944260
 51
238.530365
  0
ARC
  8
0
 62
     4
 10
151.672852
 20
-167.139465
 40
46.999996
 50
238.529831
 51
301.470062
  0
ARC
  8
0
 62
     4
 10
175.687256
 20
-206.373474
 40
0.999999
 50
301.470856
 51
33.055973
  0
CIRCLE
  8
0
 62
     4
 10
151.672852
 20
-167.139465
 40
20.000000
  0
CIRCLE
  8
0
 62
     4
 10
151.672852
 20
-167.139465
 40
22.500000
  0
CIRCLE
  8
0
 62
     1
 10
151.672852
 20
-167.139465
 40
19.250000
  0
ARC
  8
0
 62
     4
 10
183.172852
 20
-164.139465
 40
2.000000
 50
0.000000
 51
90.000000
  0
ARC
  8
0
 62
     4
 10
179.172852
 20
-164.139465
 40
2.000000
 50
90.000000
 51
180.000000
  0
CIRCLE
  8
0
 62
     4
 10
151.672852
 20
-167.139465
 40
25.000000
  0
CIRCLE
  8
0
 62
     4
 10
151.672852
 20
-167.139465
 40
42.500000
  0
ARC
  8
0
 62
     4
 10
118.438782
 20
-200.373444
 40
10.000005
 50
102.666801
 51
123.055397
  0
ARC
  8
0
 62
     4
 10
118.438782
 20
-200.373444
 40
7.999996
 50
96.634308
 51
180.000000
  0
ARC
  8
0
 62
     4
 10
118.438873
 20
-133.905396
 40
10.000005
 50
12.666800
 51
33.055420
  0
ARC
  8
0
 62
     4
 10
118.438873
 20
-133.905396
 40
8.000002
 50
6.634195
 51
90.000000
  0
ARC
  8
0
 62
     4
 10
184.906921
 20
-133.905487
 40
10.000005
 50
282.666809
 51
303.055389
  0
ARC
  8
0
 62
     4
 10
184.906921
 20
-133.905487
 40
7.999994
 50
276.634186
 51
0.000000
  0
ARC
  8
0
 62
     4
 10
184.906830
 20
-200.373535
 40
10.000001
 50
192.666718
 51
213.055435
  0
ARC
  8
0
 62
     4
 10
184.906830
 20
-200.373535
 40
7.999993
 50
186.634094
 51
270.000000
  0
CIRCLE
  8
0
 62
     4
 10
415.672852
 20
91.415359
 40
4.000000
  0
ARC
  8
0
 62
     4
 10
436.672852
 20
86.860535
 40
1.000000
 50
180.000000
 51
270.000000
  0
ARC
  8
0
 62
     4
 10
436.672852
 20
178.860535
 40
1.000000
 50
90.000000
 51
180.000000
  0
ARC
  8
0
 62
     4
 10
401.172852
 20
91.860535
 40
1.500000
 50
180.000000
 51
0.000000
  0
ARC
  8
0
 62
     4
 10
390.172852
 20
91.860535
 40
1.500000
 50
180.000000
 51
0.000000
  0
ARC
  8
0
 62
     4
 10
393.172852
 20
93.360535
 40
1.500000
 50
0.000000
 51
180.000000
  0
ARC
  8
0
 62
     4
 10
396.172852
 20
91.860535
 40
1.500000
 50
180.000000
 51
0.000000
  0
ARC
  8
0
 62
     4
 10
407.172852
 20
91.860535
 40
1.500000
 50
180.000000
 51
0.000000
  0
ARC
  8
0
 62
     4
 10
404.172852
 20
93.360535
 40
1.500000
 50
0.000000
 51
180.000000
  0
ARC
  8
0
 62
     4
 10
375.172852
 20
109.360535
 40
1.500000
 50
180.000000
 51
0.000000
  0
ARC
  8
0
 62
     4
 10
375.172852
 20
156.360535
 40
1.500000
 50
0.000000
 51
180.000000
  0
ARC
  8
0
 62
     4
 10
422.172852
 20
168.305603
 40
1.500000
 50
0.000000
 51
180.000000
  0
ARC
  8
0
 62
     4
 10
422.172852
 20
97.415375
 40
1.500000
 50
180.000000
 51
0.000000
  0
ARC
  8
0
 62
     4
 10
387.172852
 20
157.360535
 40
1.500000
 50
270.000000
 51
0.000000
  0
ARC
  8
0
 62
     4
 10
387.172852
 20
108.360535
 40
1.500000
 50
0.000000
 51
90.000000
  0
ARC
  8
0
 62
     4
 10
410.172852
 20
96.415375
 40
1.500000
 50
90.000000
 51
180.000000
  0
ARC
  8
0
 62
     4
 10
410.172852
 20
169.305603
 40
1.500000
 50
180.000000
 51
270.000000
  0
ARC
  8
0
 62
     4
 10
407.172852
 20
173.860535
 40
1.500000
 50
0.000000
 51
180.000000
  0
ARC
  8
0
 62
     4
 10
404.172852
 20
172.360535
 40
1.500000
 50
180.000000
 51
0.000000
  0
ARC
  8
0
 62
     4
 10
401.172852
 20
173.860535
 40
1.500000
 50
0.000000
 51
180.000000
  0
ARC
  8
0
 62
     4
 10
390.172852
 20
173.860535
 40
1.500000
 50
0.000000
 51
180.000000
  0
ARC
  8
0
 62
     4
 10
393.172852
 20
172.360535
 40
1.500000
 50
180.000000
 51
0.000000
  0
ARC
  8
0
 62
     4
 10
396.172852
 20
173.860535
 40
1.500000
 50
0.000000
 51
180.000000
  0
CIRCLE
  8
0
 62
     4
 10
381.672852
 20
103.360519
 40
4.000000
  0
TEXT
  8
0
 10
-526.035156
 20
375.250000
 40
12.500000
  1
SD JABARA,-J
 50
0.000000
 41
1.052632
 51
0.000000
  7
STANDARD
  0
TEXT
  8
0
 10
27.214844
 20
330.250000
 40
12.500000
  1
BORE:180(STROKE=100)
 50
0.000000
 41
1.052632
 51
0.000000
  7
STANDARD
  0
TEXT
  8
0
 10
364.214844
 20
375.250000
 40
12.500000
  1
DATE: AUG ,1993
 50
0.000000
 41
1.052632
 51
0.000000
  7
STANDARD
  0
TEXT
  8
0
 10
345.179352
 20
-400.700012
 40
18.000000
  1
KOGANEI CORP.
 50
0.000000
 41
1.052632
 51
0.000000
  7
STANDARD
  0
TEXT
  8
0
 10
-542.285156
 20
330.250000
 40
12.500000
  1
BORE:160(STROKE=100)
 50
0.000000
 41
1.052632
 51
0.000000
  7
STANDARD
  0
ENDSEC
  0
EOF
