  0
SECTION
  2
HEADER
  0
ENDSEC
  0
SECTION
  2
TABLES
  0
TABLE
  2
LTYPE
 70
     4
  0
LTYPE
  2
CONTINUOUS
 70
    64
  3
Solid line
 72
    65
 73
     0
 40
0.000000
  0
LTYPE
  2
DASHED
 70
    64
  3
__ __ __ __ __ __ __ __ __ __ __ __ __ __ __
 72
    65
 73
     2
 40
3.500000
 49
2.000000
 49
-1.500000
  0
LTYPE
  2
CENTER
 70
    64
  3
____ _ ____ _ ____ _ ____ _ ____ _ ____ _ ____
 72
    65
 73
     4
 40
17.500000
 49
13.000000
 49
-1.500000
 49
1.500000
 49
-1.500000
  0
LTYPE
  2
PHANTOM
 70
    64
  3
_____ _ _ _____ _ _ _____ _ _ _____ _ _ ____  
 72
    65
 73
     6
 40
15.500000
 49
8.000000
 49
-1.500000
 49
1.500000
 49
-1.500000
 49
1.500000
 49
-1.500000
  0
LTYPE
  2
DASHED1
 70
    64
  3
__ __ __ __ __ __ __ __ __ __ __ __ __ __ __
 72
    65
 73
     2
 40
1.500000
 49
1.000000
 49
-0.500000
  0
LTYPE
  2
DASHED2
 70
    64
  3
__ __ __ __ __ __ __ __ __ __ __ __ __ __ __
 72
    65
 73
     2
 40
3.500000
 49
2.500000
 49
-1.000000
  0
LTYPE
  2
DASHED3
 70
    64
  3
__ __ __ __ __ __ __ __ __ __ __ __ __ __ __
 72
    65
 73
     2
 40
6.000000
 49
4.000000
 49
-2.000000
  0
LTYPE
  2
DASHED4
 70
    64
  3
__ __ __ __ __ __ __ __ __ __ __ __ __ __ __
 72
    65
 73
     2
 40
12.000000
 49
10.000000
 49
-2.000000
  0
LTYPE
  2
DASHED5
 70
    64
  3
__ __ __ __ __ __ __ __ __ __ __ __ __ __ __
 72
    65
 73
     2
 40
17.000000
 49
15.000000
 49
-2.000000
  0
LTYPE
  2
DASHED6
 70
    64
  3
__ __ __ __ __ __ __ __ __ __ __ __ __ __ __
 72
    65
 73
     2
 40
29.000000
 49
27.000000
 49
-2.000000
  0
LTYPE
  2
PHANTOM1
 70
    64
  3
_____ _ _ _____ _ _ _____ _ _ _____ _ _ ____  
 72
    65
 73
     6
 40
31.000000
 49
25.000000
 49
-1.500000
 49
1.000000
 49
-1.000000
 49
1.000000
 49
-1.500000
  0
LTYPE
  2
PHANTOM2
 70
    64
  3
_____ _ _ _____ _ _ _____ _ _ _____ _ _ ____  
 72
    65
 73
     6
 40
36.000000
 49
27.000000
 49
-1.500000
 49
2.500000
 49
-1.000000
 49
2.500000
 49
-1.500000
  0
LTYPE
  2
PHANTOM3
 70
    64
  3
_____ _ _ _____ _ _ _____ _ _ _____ _ _ ____  
 72
    65
 73
     6
 40
78.000000
 49
64.000000
 49
-2.000000
 49
4.000000
 49
-2.000000
 49
4.000000
 49
-2.000000
  0
LTYPE
  2
CENTER1
 70
    64
  3
____ _ ____ _ ____ _ ____ _ ____ _ ____ _ ____
 72
    65
 73
     4
 40
19.000000
 49
14.000000
 49
-1.000000
 49
3.000000
 49
-1.000000
  0
LTYPE
  2
CENTER2
 70
    64
  3
____ _ ____ _ ____ _ ____ _ ____ _ ____ _ ____
 72
    65
 73
     4
 40
28.500000
 49
25.000000
 49
-1.000000
 49
1.500000
 49
-1.000000
  0
LTYPE
  2
CENTER3
 70
    64
  3
____ _ ____ _ ____ _ ____ _ ____ _ ____ _ ____
 72
    65
 73
     4
 40
31.500000
 49
27.000000
 49
-1.000000
 49
2.500000
 49
-1.000000
  0
LTYPE
  2
CENTER4
 70
    64
  3
____ _ ____ _ ____ _ ____ _ ____ _ ____ _ ____
 72
    65
 73
     4
 40
50.000000
 49
45.000000
 49
-1.000000
 49
3.000000
 49
-1.000000
  0
LTYPE
  2
CENTER5
 70
    64
  3
____ _ ____ _ ____ _ ____ _ ____ _ ____ _ ____
 72
    65
 73
     4
 40
100.000000
 49
92.000000
 49
-2.000000
 49
4.000000
 49
-2.000000
  0
LTYPE
  2
SBK1
 70
    64
  3
______ _ _ _ ______ _ _ _ ______ _ _ _ _____  
 72
    65
 73
     8
 40
60.500000
 49
45.000000
 49
-2.000000
 49
2.500000
 49
-2.000000
 49
2.500000
 49
-2.000000
 49
2.500000
 49
-2.000000
  0
LTYPE
  2
SBK2
 70
    64
  3
______ _ _ _ ______ _ _ _ ______ _ _ _ _____  
 72
    65
 73
     8
 40
84.000000
 49
64.000000
 49
-2.000000
 49
4.000000
 49
-2.000000
 49
4.000000
 49
-2.000000
 49
4.000000
 49
-2.000000
  0
LTYPE
  2
STCH
 70
    64
  3
__ __ __ __ __ __ __ __ __ __ __ __ __ __ __
 72
    65
 73
     2
 40
3.000000
 49
1.000000
 49
-2.000000
  0
LTYPE
  2
MTCH
 70
    64
  3
_____ _ _ _____ _ _ _____ _ _ _____ _ _ ____  
 72
    65
 73
     6
 40
80.000000
 49
66.000000
 49
-2.000000
 49
4.000000
 49
-2.000000
 49
4.000000
 49
-2.000000
  0
ENDTAB
  0
TABLE
  2
LAYER
 70
     1
  0
LAYER
  2
0
 70
     0
 62
     7
  6
CONTINUOUS
  0
ENDTAB
  0
TABLE
  2
STYLE
 70
     1
  0
STYLE
  2
STANDARD
 70
     0
 40
0.000000
 41
1.000000
 50
0.000000
 71
     0
 42
0.200000
  3
txt
  4
BIGFONT
  0
ENDTAB
  0
TABLE
  2
VIEW
 70
     0
  0
ENDTAB
  0
ENDSEC
  0
SECTION
  2
BLOCKS
  0
ENDSEC
  0
SECTION
  2
ENTITIES
  0
LINE
  8
0
 10
399.799988
 20
276.250000
 11
399.799988
 21
-276.750000
  0
LINE
  8
0
 10
-399.250000
 20
276.250000
 11
-399.250000
 21
-276.750000
  0
LINE
  8
0
 10
-399.250000
 20
276.250000
 11
399.799988
 21
276.250000
  0
LINE
  8
0
 10
-399.250000
 20
-276.750000
 11
399.799988
 21
-276.750000
  0
LINE
  8
0
 10
239.799988
 20
-251.750000
 11
399.799988
 21
-251.750000
  0
LINE
  8
0
 10
239.799988
 20
251.250000
 11
399.799988
 21
251.250000
  0
LINE
  8
0
 10
-399.250000
 20
251.250000
 11
-239.250000
 21
251.250000
  0
LINE
  8
0
 10
239.799988
 20
-251.750000
 11
239.799988
 21
-276.750000
  0
LINE
  8
0
 10
239.799988
 20
251.250000
 11
239.799988
 21
276.250000
  0
LINE
  8
0
 10
-239.250000
 20
276.250000
 11
-239.250000
 21
251.250000
  0
LINE
  8
0
  6
CENTER
 62
     2
 10
-334.630585
 20
-132.970322
 11
-93.796738
 21
-132.970322
  0
LINE
  8
0
  6
CENTER
 62
     2
 10
-215.296738
 20
-14.056381
 11
-215.296738
 21
-253.246277
  0
LINE
  8
0
 10
134.703262
 20
240.029678
 11
134.703262
 21
14.029678
  0
LINE
  8
0
  6
CENTER
 62
     2
 10
153.203262
 20
143.354752
 11
153.203262
 21
110.337967
  0
LINE
  8
0
  6
PHANTOM
 62
     2
 10
243.462372
 20
238.092407
 11
184.356750
 21
17.507221
  0
LINE
  8
0
 10
173.703262
 20
240.029678
 11
173.703262
 21
14.029678
  0
LINE
  8
0
 10
-102.296738
 20
-19.970322
 11
-102.296738
 21
-245.970322
  0
LINE
  8
0
 10
-328.296722
 20
-19.970322
 11
-328.296722
 21
-245.970322
  0
LINE
  8
0
 10
-328.296722
 20
-245.970322
 11
-102.296738
 21
-245.970322
  0
LINE
  8
0
 10
-328.296722
 20
-19.970322
 11
-102.296738
 21
-19.970322
  0
LINE
  8
0
  6
CENTER
 62
     2
 10
-124.296738
 20
-205.017944
 11
-124.296738
 21
-243.233948
  0
LINE
  8
0
  6
CENTER
 62
     2
 10
-141.317276
 20
-223.970322
 11
-106.767227
 21
-223.970322
  0
LINE
  8
0
 10
-109.296738
 20
-215.310074
 11
-109.296738
 21
-232.630569
  0
LINE
  8
0
 10
-139.296738
 20
-215.310059
 11
-139.296738
 21
-232.630585
  0
LINE
  8
0
 10
-124.296761
 20
-206.649872
 11
-109.296745
 21
-215.310135
  0
LINE
  8
0
 10
-139.296753
 20
-232.630615
 11
-124.296715
 21
-241.290894
  0
LINE
  8
0
 10
-124.296776
 20
-241.290817
 11
-109.296761
 21
-232.630554
  0
LINE
  8
0
 10
-139.296768
 20
-215.310043
 11
-124.296753
 21
-206.649780
  0
LINE
  8
0
  6
CENTER
 62
     2
 10
-124.296738
 20
-23.017929
 11
-124.296738
 21
-61.233963
  0
LINE
  8
0
  6
CENTER
 62
     2
 10
-141.317276
 20
-41.970322
 11
-106.767227
 21
-41.970322
  0
LINE
  8
0
 10
-109.296738
 20
-33.310074
 11
-109.296738
 21
-50.630569
  0
LINE
  8
0
 10
-139.296738
 20
-33.310059
 11
-139.296738
 21
-50.630569
  0
LINE
  8
0
 10
-124.296761
 20
-24.649801
 11
-109.296745
 21
-33.310062
  0
LINE
  8
0
 10
-139.296768
 20
-50.630569
 11
-124.296753
 21
-59.290829
  0
LINE
  8
0
 10
-124.296783
 20
-59.290733
 11
-109.296783
 21
-50.630482
  0
LINE
  8
0
 10
-139.296799
 20
-33.309917
 11
-124.296814
 21
-24.649673
  0
LINE
  8
0
  6
CENTER
 62
     2
 10
-306.296722
 20
-205.017929
 11
-306.296722
 21
-243.233963
  0
LINE
  8
0
  6
CENTER
 62
     2
 10
-323.317230
 20
-223.970322
 11
-288.767212
 21
-223.970322
  0
LINE
  8
0
 10
-291.296722
 20
-215.310074
 11
-291.296722
 21
-232.630569
  0
LINE
  8
0
 10
-321.296722
 20
-215.310059
 11
-321.296722
 21
-232.630569
  0
LINE
  8
0
 10
-306.296814
 20
-206.649918
 11
-291.296814
 21
-215.310165
  0
LINE
  8
0
 10
-321.296814
 20
-232.630692
 11
-306.296844
 21
-241.290939
  0
LINE
  8
0
 10
-306.296814
 20
-241.290771
 11
-291.296814
 21
-232.630524
  0
LINE
  8
0
 10
-321.296814
 20
-215.310043
 11
-306.296844
 21
-206.649796
  0
LINE
  8
0
  6
CENTER
 62
     2
 10
-306.296722
 20
-23.017929
 11
-306.296722
 21
-61.233963
  0
LINE
  8
0
  6
CENTER
 62
     2
 10
-323.317230
 20
-41.970322
 11
-288.767212
 21
-41.970322
  0
LINE
  8
0
 10
-291.296722
 20
-33.310074
 11
-291.296722
 21
-50.630569
  0
LINE
  8
0
 10
-321.296722
 20
-33.310059
 11
-321.296722
 21
-50.630569
  0
LINE
  8
0
 10
-306.296814
 20
-24.649818
 11
-291.296814
 21
-33.310074
  0
LINE
  8
0
 10
-321.296814
 20
-50.630596
 11
-306.296753
 21
-59.290878
  0
LINE
  8
0
 10
-306.296783
 20
-59.290752
 11
-291.296783
 21
-50.630505
  0
LINE
  8
0
 10
-321.296875
 20
-33.309914
 11
-306.296906
 21
-24.649666
  0
LINE
  8
0
 10
134.703262
 20
240.029678
 11
173.703262
 21
240.029678
  0
LINE
  8
0
 10
134.703262
 20
14.029678
 11
173.703262
 21
14.029678
  0
LINE
  8
0
  6
CENTER
 62
     2
 10
96.672348
 20
36.029678
 11
199.672638
 21
36.029678
  0
LINE
  8
0
  6
CENTER
 62
     2
 10
96.672348
 20
218.029678
 11
248.439392
 21
218.029678
  0
LINE
  8
0
 10
129.603256
 20
234.529678
 11
129.603256
 21
201.529678
  0
LINE
  8
0
 10
129.603256
 20
201.529678
 11
134.703262
 21
201.529678
  0
LINE
  8
0
 10
129.603256
 20
234.529678
 11
134.703262
 21
234.529678
  0
LINE
  8
0
 10
100.703262
 20
46.029678
 11
113.603256
 21
46.029678
  0
LINE
  8
0
 10
100.703262
 20
26.029678
 11
113.603256
 21
26.029678
  0
LINE
  8
0
 10
99.703262
 20
45.029678
 11
99.703262
 21
27.029678
  0
LINE
  8
0
 10
100.703262
 20
46.029678
 11
100.703262
 21
26.029678
  0
LINE
  8
0
 10
100.703262
 20
46.029678
 11
99.703239
 21
45.029655
  0
LINE
  8
0
 10
99.703262
 20
27.029671
 11
100.703262
 21
26.029669
  0
LINE
  8
0
 10
129.603256
 20
52.529678
 11
129.603256
 21
19.529678
  0
LINE
  8
0
 10
129.603256
 20
19.529678
 11
134.703262
 21
19.529678
  0
LINE
  8
0
 10
129.603256
 20
52.529678
 11
134.703262
 21
52.529678
  0
LINE
  8
0
  6
CENTER
 62
     2
 10
-44.396141
 20
127.029678
 11
224.056015
 21
127.029678
  0
LINE
  8
0
 10
242.239838
 20
233.529678
 11
173.703262
 21
233.529678
  0
LINE
  8
0
 10
240.766144
 20
228.029678
 11
173.703262
 21
228.029678
  0
LINE
  8
0
 10
235.407135
 20
208.029678
 11
173.703262
 21
208.029678
  0
LINE
  8
0
 10
191.999359
 20
46.029678
 11
173.703262
 21
46.029678
  0
LINE
  8
0
 10
186.640381
 20
26.029678
 11
173.703262
 21
26.029678
  0
LINE
  8
0
 10
185.166656
 20
20.529678
 11
173.703262
 21
20.529678
  0
LINE
  8
0
 62
     2
 10
99.703262
 20
27.429672
 11
113.603256
 21
27.429672
  0
LINE
  8
0
 62
     2
 10
99.703262
 20
44.629684
 11
113.603256
 21
44.629684
  0
LINE
  8
0
 10
173.703262
 20
-19.970322
 11
173.703262
 21
-245.970322
  0
LINE
  8
0
  6
PHANTOM
 62
     2
 10
243.462357
 20
-21.907576
 11
184.356735
 21
-242.492752
  0
LINE
  8
0
 10
148.108170
 20
-133.720322
 11
158.298355
 21
-133.720322
  0
LINE
  8
0
 10
148.108170
 20
-132.220322
 11
158.298355
 21
-132.220322
  0
LINE
  8
0
  6
CENTER
 62
     2
 10
153.203262
 20
-16.505035
 11
153.203262
 21
-144.270325
  0
LINE
  8
0
 10
134.703262
 20
-19.970322
 11
134.703262
 21
-245.970322
  0
LINE
  8
0
  6
DASHED
 62
     2
 10
166.423691
 20
-19.970238
 11
164.703201
 21
-21.470240
  0
LINE
  8
0
  6
DASHED
 62
     2
 10
164.703262
 20
-21.470322
 11
164.703262
 21
-34.070328
  0
LINE
  8
0
  6
DASHED
 62
     2
 10
141.703262
 20
-21.470322
 11
141.703262
 21
-34.070328
  0
LINE
  8
0
  6
DASHED
 62
     2
 10
141.703262
 20
-21.470322
 11
164.703262
 21
-21.470322
  0
LINE
  8
0
  6
DASHED
 62
     2
 10
140.475372
 20
-34.070354
 11
139.982712
 21
-19.970335
  0
LINE
  8
0
  6
DASHED
 62
     2
 10
166.424194
 20
-19.970369
 11
165.931702
 21
-34.070385
  0
LINE
  8
0
  6
DASHED
 62
     2
 10
139.983139
 20
-19.969965
 11
141.703629
 21
-21.469965
  0
LINE
  8
0
 62
     2
 10
99.703262
 20
-50.570328
 11
113.603256
 21
-50.570328
  0
LINE
  8
0
 62
     2
 10
99.703262
 20
-33.370316
 11
113.603256
 21
-33.370316
  0
LINE
  8
0
 62
     2
 10
99.703262
 20
-215.370331
 11
113.603256
 21
-215.370331
  0
LINE
  8
0
 62
     2
 10
99.703262
 20
-232.570328
 11
113.603256
 21
-232.570328
  0
LINE
  8
0
 10
185.166656
 20
-239.470322
 11
173.703262
 21
-239.470322
  0
LINE
  8
0
 10
186.640381
 20
-233.970322
 11
173.703262
 21
-233.970322
  0
LINE
  8
0
 10
191.999359
 20
-213.970322
 11
173.703262
 21
-213.970322
  0
LINE
  8
0
 10
235.407135
 20
-51.970322
 11
173.703262
 21
-51.970322
  0
LINE
  8
0
 10
240.766144
 20
-31.970322
 11
173.703262
 21
-31.970322
  0
LINE
  8
0
 10
242.239838
 20
-26.470322
 11
173.703262
 21
-26.470322
  0
LINE
  8
0
  6
CENTER
 62
     2
 10
-44.396141
 20
-132.970322
 11
224.056015
 21
-132.970322
  0
LINE
  8
0
 10
113.603325
 20
-209.470383
 11
115.231735
 21
-206.649902
  0
LINE
  8
0
 10
115.231674
 20
-232.630569
 11
129.603256
 21
-232.630569
  0
LINE
  8
0
 10
115.103256
 20
-215.310074
 11
129.603256
 21
-215.310074
  0
LINE
  8
0
 10
113.603256
 20
-209.470322
 11
113.603256
 21
-238.470322
  0
LINE
  8
0
 10
115.231674
 20
-241.290817
 11
129.603256
 21
-241.290817
  0
LINE
  8
0
 10
115.231674
 20
-206.649826
 11
129.603256
 21
-206.649826
  0
LINE
  8
0
 10
129.603256
 20
-207.470322
 11
134.703262
 21
-207.470322
  0
LINE
  8
0
 10
129.603256
 20
-240.470322
 11
134.703262
 21
-240.470322
  0
LINE
  8
0
 10
134.703262
 20
-19.970322
 11
173.703262
 21
-19.970322
  0
LINE
  8
0
 10
134.703262
 20
-245.970322
 11
173.703262
 21
-245.970322
  0
LINE
  8
0
  6
CENTER
 62
     2
 10
96.672348
 20
-223.970322
 11
199.672638
 21
-223.970322
  0
LINE
  8
0
  6
CENTER
 62
     2
 10
96.672348
 20
-41.970322
 11
248.439392
 21
-41.970322
  0
LINE
  8
0
 10
113.603340
 20
-56.470280
 11
115.231750
 21
-59.290768
  0
LINE
  8
0
 10
100.703262
 20
-31.970322
 11
113.603256
 21
-31.970322
  0
LINE
  8
0
 10
100.703262
 20
-51.970322
 11
113.603256
 21
-51.970322
  0
LINE
  8
0
 10
99.703262
 20
-32.970322
 11
99.703262
 21
-50.970322
  0
LINE
  8
0
 10
100.703262
 20
-31.970322
 11
100.703262
 21
-51.970322
  0
LINE
  8
0
 10
100.703278
 20
-31.970329
 11
99.703270
 21
-32.970333
  0
LINE
  8
0
 10
99.703224
 20
-50.970364
 11
100.703232
 21
-51.970364
  0
LINE
  8
0
 10
129.603256
 20
-24.649826
 11
129.603256
 21
-59.290817
  0
LINE
  8
0
 10
129.603256
 20
-58.470322
 11
134.703262
 21
-58.470322
  0
LINE
  8
0
 10
129.603256
 20
-25.470322
 11
134.703262
 21
-25.470322
  0
LINE
  8
0
 10
115.231674
 20
-24.649826
 11
129.603256
 21
-24.649826
  0
LINE
  8
0
 10
115.231674
 20
-59.290817
 11
129.603256
 21
-59.290817
  0
LINE
  8
0
 10
113.603256
 20
-27.470322
 11
113.603256
 21
-56.470322
  0
LINE
  8
0
 10
115.103256
 20
-33.310074
 11
129.603256
 21
-33.310074
  0
LINE
  8
0
 10
115.231674
 20
-50.630569
 11
129.603256
 21
-50.630569
  0
LINE
  8
0
 10
113.603279
 20
-27.470314
 11
115.231697
 21
-24.649813
  0
LINE
  8
0
 10
113.603325
 20
-238.470306
 11
115.231728
 21
-241.290787
  0
LINE
  8
0
 10
100.703262
 20
-213.970322
 11
113.603256
 21
-213.970322
  0
LINE
  8
0
 10
100.703262
 20
-233.970322
 11
113.603256
 21
-233.970322
  0
LINE
  8
0
 10
99.703262
 20
-214.970322
 11
99.703262
 21
-232.970322
  0
LINE
  8
0
 10
100.703262
 20
-213.970322
 11
100.703262
 21
-233.970322
  0
LINE
  8
0
 10
100.703224
 20
-213.970306
 11
99.703224
 21
-214.970322
  0
LINE
  8
0
 10
99.703285
 20
-232.970337
 11
100.703285
 21
-233.970337
  0
LINE
  8
0
 10
129.603256
 20
-206.649826
 11
129.603256
 21
-241.290817
  0
LINE
  8
0
 10
113.603256
 20
51.029678
 11
129.603256
 21
51.029678
  0
LINE
  8
0
 10
114.943001
 20
36.029678
 11
129.603256
 21
36.029678
  0
LINE
  8
0
 10
113.603256
 20
51.029678
 11
113.603256
 21
21.029678
  0
LINE
  8
0
 10
113.603256
 20
21.029678
 11
129.603256
 21
21.029678
  0
LINE
  8
0
 10
100.703262
 20
208.029678
 11
113.603256
 21
208.029678
  0
LINE
  8
0
 10
100.703262
 20
228.029678
 11
113.603256
 21
228.029678
  0
LINE
  8
0
 10
99.703262
 20
209.029678
 11
99.703262
 21
227.029678
  0
LINE
  8
0
 10
100.703262
 20
208.029678
 11
100.703262
 21
228.029678
  0
LINE
  8
0
 10
100.703125
 20
208.029617
 11
99.703148
 21
209.029602
  0
LINE
  8
0
 10
99.703270
 20
227.029648
 11
100.703247
 21
228.029633
  0
LINE
  8
0
 62
     2
 10
99.703262
 20
226.629684
 11
113.603256
 21
226.629684
  0
LINE
  8
0
 62
     2
 10
99.703262
 20
209.429672
 11
113.603256
 21
209.429672
  0
LINE
  8
0
 10
113.603256
 20
203.029678
 11
129.603256
 21
203.029678
  0
LINE
  8
0
 10
114.943001
 20
218.029678
 11
129.603256
 21
218.029678
  0
LINE
  8
0
 10
113.603256
 20
203.029678
 11
113.603256
 21
233.029678
  0
LINE
  8
0
 10
113.603256
 20
233.029678
 11
129.603256
 21
233.029678
  0
LINE
  8
0
 62
     4
 10
71.703262
 20
-129.970322
 11
71.703262
 21
-130.970322
  0
LINE
  8
0
 62
     4
 10
62.703262
 20
-130.970322
 11
72.703262
 21
-130.970322
  0
LINE
  8
0
 62
     4
 10
32.033386
 20
-123.172363
 11
32.033386
 21
-107.970322
  0
LINE
  8
0
 62
     4
 10
32.033386
 20
-157.970322
 11
32.033386
 21
-142.768280
  0
LINE
  8
0
 62
     1
 10
32.033447
 20
-123.172318
 11
44.703316
 21
-142.768234
  0
LINE
  8
0
 62
     1
 10
32.033356
 20
-142.768265
 11
44.703236
 21
-123.172333
  0
LINE
  8
0
 62
     4
 10
44.703262
 20
-123.172363
 11
44.703262
 21
-142.768280
  0
LINE
  8
0
 62
     4
 10
32.033386
 20
-142.768280
 11
44.703262
 21
-142.768280
  0
LINE
  8
0
 62
     4
 10
32.033401
 20
-123.172363
 11
44.703262
 21
-123.172363
  0
LINE
  8
0
 62
     4
 10
-37.546738
 20
-110.470322
 11
27.703262
 21
-110.470322
  0
LINE
  8
0
 62
     4
 10
27.703253
 20
-110.470291
 11
32.033379
 21
-107.970291
  0
LINE
  8
0
 62
     4
 10
27.703264
 20
-155.470261
 11
32.033398
 21
-157.970261
  0
LINE
  8
0
 62
     4
 10
32.033386
 20
-107.970322
 11
59.703262
 21
-107.970322
  0
LINE
  8
0
 62
     4
 10
32.033386
 20
-157.970322
 11
59.703262
 21
-157.970322
  0
LINE
  8
0
 62
     4
 10
27.703262
 20
-110.470322
 11
27.703262
 21
-155.470322
  0
LINE
  8
0
 62
     4
 10
24.703262
 20
-110.470322
 11
24.703262
 21
-155.470322
  0
LINE
  8
0
 62
     4
 10
-38.296738
 20
-111.220322
 11
-38.296738
 21
-154.720322
  0
LINE
  8
0
 62
     4
 10
121.703262
 20
-107.736343
 11
121.703262
 21
-158.204300
  0
LINE
  8
0
 62
     4
 10
121.703262
 20
-174.204300
 11
121.703262
 21
-178.970322
  0
LINE
  8
0
 62
     4
 10
115.703262
 20
-91.736343
 11
124.703262
 21
-91.736343
  0
LINE
  8
0
 62
     4
 10
114.703270
 20
-92.736328
 11
115.703270
 21
-91.736320
  0
LINE
  8
0
 62
     4
 10
115.703262
 20
-91.736343
 11
115.703262
 21
-107.736343
  0
LINE
  8
0
 62
     4
 10
115.703224
 20
-107.736427
 11
114.703224
 21
-106.736427
  0
LINE
  8
0
 62
     4
 10
114.703262
 20
-92.736343
 11
114.703262
 21
-106.736343
  0
LINE
  8
0
 62
     4
 10
115.703262
 20
-107.736343
 11
124.703262
 21
-107.736343
  0
LINE
  8
0
 62
     4
 10
115.703262
 20
-158.204300
 11
115.703262
 21
-174.204300
  0
LINE
  8
0
 62
     4
 10
115.703209
 20
-174.204315
 11
114.703232
 21
-173.204330
  0
LINE
  8
0
 62
     4
 10
114.703217
 20
-159.204254
 11
115.703217
 21
-158.204254
  0
LINE
  8
0
 62
     4
 10
114.703262
 20
-159.204300
 11
114.703262
 21
-173.204300
  0
LINE
  8
0
 62
     4
 10
115.703262
 20
-174.204300
 11
124.703262
 21
-174.204300
  0
LINE
  8
0
 62
     4
 10
115.703262
 20
-158.204300
 11
124.703262
 21
-158.204300
  0
LINE
  8
0
 62
     4
 10
122.703262
 20
-179.970322
 11
124.703262
 21
-179.970322
  0
LINE
  8
0
 62
     4
 10
122.703262
 20
-85.970322
 11
124.703262
 21
-85.970322
  0
LINE
  8
0
 62
     1
 10
24.703295
 20
-111.220360
 11
26.310547
 21
-110.470314
  0
LINE
  8
0
 62
     1
 10
-38.296738
 20
-111.220322
 11
24.703262
 21
-111.220322
  0
LINE
  8
0
 62
     1
 10
24.703302
 20
-154.720245
 11
26.310555
 21
-155.470291
  0
LINE
  8
0
 62
     4
 10
-37.546738
 20
-155.470322
 11
27.703262
 21
-155.470322
  0
LINE
  8
0
 62
     4
 10
-38.296719
 20
-154.720276
 11
-37.546715
 21
-155.470276
  0
LINE
  8
0
 62
     1
 10
-38.296738
 20
-154.720322
 11
24.703262
 21
-154.720322
  0
LINE
  8
0
 62
     4
 10
-37.546738
 20
-110.470322
 11
-37.546738
 21
-155.470322
  0
LINE
  8
0
 62
     4
 10
-38.296734
 20
-111.220322
 11
-37.546738
 21
-110.470329
  0
LINE
  8
0
 62
     4
 10
114.703270
 20
-98.229721
 11
109.703262
 21
-98.414909
  0
LINE
  8
0
 62
     4
 10
62.703262
 20
-134.970322
 11
72.703262
 21
-134.970322
  0
LINE
  8
0
 62
     4
 10
96.703262
 20
-134.970322
 11
106.703262
 21
-134.970322
  0
LINE
  8
0
 62
     4
 10
65.703262
 20
-142.970322
 11
69.703262
 21
-142.970322
  0
LINE
  8
0
 62
     4
 10
64.007141
 20
-136.970306
 11
63.471249
 21
-134.970322
  0
LINE
  8
0
 62
     4
 10
65.703262
 20
-136.970322
 11
65.703262
 21
-142.970322
  0
LINE
  8
0
 62
     1
 10
66.203262
 20
-136.970322
 11
66.203262
 21
-142.970322
  0
LINE
  8
0
 62
     1
 10
69.203262
 20
-136.970322
 11
69.203262
 21
-142.970322
  0
LINE
  8
0
 62
     4
 10
69.703262
 20
-136.970322
 11
69.703262
 21
-142.970322
  0
LINE
  8
0
 62
     4
 10
64.007111
 20
-136.970322
 11
71.399414
 21
-136.970322
  0
LINE
  8
0
 62
     4
 10
71.399406
 20
-136.970291
 11
71.935303
 21
-134.970291
  0
LINE
  8
0
 62
     4
 10
62.703262
 20
-133.970322
 11
72.703262
 21
-133.970322
  0
LINE
  8
0
 62
     4
 10
65.703262
 20
-131.970322
 11
65.703262
 21
-133.970322
  0
LINE
  8
0
 62
     1
 10
66.203262
 20
-131.970322
 11
66.203262
 21
-133.970322
  0
LINE
  8
0
 62
     1
 10
69.203262
 20
-131.970322
 11
69.203262
 21
-133.970322
  0
LINE
  8
0
 62
     4
 10
69.703262
 20
-131.970322
 11
69.703262
 21
-133.970322
  0
LINE
  8
0
 62
     4
 10
62.703262
 20
-131.970322
 11
72.703262
 21
-131.970322
  0
LINE
  8
0
 62
     4
 10
124.703262
 20
-76.470322
 11
124.703262
 21
-189.470322
  0
LINE
  8
0
 62
     4
 10
125.703262
 20
-75.470322
 11
125.703262
 21
-190.470322
  0
LINE
  8
0
 62
     4
 10
125.703262
 20
-190.470322
 11
134.703262
 21
-190.470322
  0
LINE
  8
0
 62
     4
 10
125.703262
 20
-75.470322
 11
134.703262
 21
-75.470322
  0
LINE
  8
0
 62
     4
 10
124.703270
 20
-76.470314
 11
125.703270
 21
-75.470314
  0
LINE
  8
0
 62
     4
 10
124.703239
 20
-189.470337
 11
125.703239
 21
-190.470337
  0
LINE
  8
0
 62
     4
 10
121.703262
 20
-86.970322
 11
121.703262
 21
-91.736343
  0
LINE
  8
0
 62
     4
 10
109.703255
 20
-167.525894
 11
114.703262
 21
-167.711075
  0
LINE
  8
0
 62
     4
 10
94.703262
 20
-91.970322
 11
94.703262
 21
-173.970322
  0
LINE
  8
0
 62
     4
 10
109.703262
 20
-97.525253
 11
109.703262
 21
-168.415482
  0
LINE
  8
0
 62
     4
 10
74.703262
 20
-91.970322
 11
74.703262
 21
-173.970322
  0
LINE
  8
0
 62
     4
 10
59.703262
 20
-106.970322
 11
59.703262
 21
-158.970322
  0
LINE
  8
0
 62
     4
 10
96.703262
 20
-97.525253
 11
106.703262
 21
-97.525253
  0
LINE
  8
0
 62
     4
 10
96.703262
 20
-168.415482
 11
106.703262
 21
-168.415482
  0
LINE
  8
0
 62
     4
 10
106.703262
 20
-97.525253
 11
106.703262
 21
-168.415482
  0
LINE
  8
0
 62
     4
 10
62.703262
 20
-106.970322
 11
62.703262
 21
-158.970322
  0
LINE
  8
0
 62
     4
 10
62.703262
 20
-106.970322
 11
72.703262
 21
-106.970322
  0
LINE
  8
0
 62
     4
 10
62.703262
 20
-158.970322
 11
72.703262
 21
-158.970322
  0
LINE
  8
0
 62
     4
 10
96.703262
 20
-97.525253
 11
96.703262
 21
-168.415482
  0
LINE
  8
0
 62
     4
 10
72.703262
 20
-106.970322
 11
72.703262
 21
-158.970322
  0
LINE
  8
0
 62
     4
 10
72.703262
 20
-107.470322
 11
73.203262
 21
-107.470322
  0
LINE
  8
0
 62
     4
 10
72.703262
 20
-158.470322
 11
73.203262
 21
-158.470322
  0
LINE
  8
0
 62
     4
 10
96.203262
 20
-98.025253
 11
96.703262
 21
-98.025253
  0
LINE
  8
0
 62
     4
 10
96.203262
 20
-167.915482
 11
96.703262
 21
-167.915482
  0
LINE
  8
0
 62
     4
 10
96.703262
 20
-131.970322
 11
106.703262
 21
-131.970322
  0
LINE
  8
0
 62
     4
 10
96.703262
 20
-133.970322
 11
106.703262
 21
-133.970322
  0
LINE
  8
0
 62
     4
 10
96.703262
 20
-130.970322
 11
106.703262
 21
-130.970322
  0
LINE
  8
0
 62
     4
 10
98.007111
 20
-136.970322
 11
105.399414
 21
-136.970322
  0
LINE
  8
0
 62
     4
 10
105.399399
 20
-136.970306
 11
105.935295
 21
-134.970306
  0
LINE
  8
0
 62
     4
 10
98.007179
 20
-136.970261
 11
97.471283
 21
-134.970261
  0
LINE
  8
0
 62
     4
 10
105.703262
 20
-129.970322
 11
105.703262
 21
-130.970322
  0
LINE
  8
0
 62
     4
 10
97.703262
 20
-129.970322
 11
97.703262
 21
-130.970322
  0
LINE
  8
0
 62
     4
 10
99.703262
 20
-127.970322
 11
103.703262
 21
-127.970322
  0
LINE
  8
0
 62
     4
 10
103.703262
 20
-131.970322
 11
103.703262
 21
-133.970322
  0
LINE
  8
0
 62
     4
 10
99.703262
 20
-131.970322
 11
99.703262
 21
-133.970322
  0
LINE
  8
0
 62
     1
 10
100.203262
 20
-131.970322
 11
100.203262
 21
-133.970322
  0
LINE
  8
0
 62
     1
 10
103.203262
 20
-131.970322
 11
103.203262
 21
-133.970322
  0
LINE
  8
0
 62
     4
 10
99.703262
 20
-142.970322
 11
103.703262
 21
-142.970322
  0
LINE
  8
0
 62
     4
 10
99.703262
 20
-136.970322
 11
99.703262
 21
-142.970322
  0
LINE
  8
0
 62
     1
 10
100.203262
 20
-136.970322
 11
100.203262
 21
-142.970322
  0
LINE
  8
0
 62
     1
 10
103.203262
 20
-136.970322
 11
103.203262
 21
-142.970322
  0
LINE
  8
0
 62
     4
 10
103.703262
 20
-136.970322
 11
103.703262
 21
-142.970322
  0
LINE
  8
0
  6
CENTER
 62
     1
 10
84.940414
 20
-90.470322
 11
84.724731
 21
-90.470322
  0
LINE
  8
0
  6
CENTER
 62
     1
 10
85.082214
 20
-175.470322
 11
84.724731
 21
-175.470322
  0
LINE
  8
0
 62
     4
 10
77.703262
 20
-91.970322
 11
77.703262
 21
-173.970322
  0
LINE
  8
0
 62
     4
 10
80.703262
 20
-91.970322
 11
80.703262
 21
-174.470322
  0
LINE
  8
0
 62
     4
 10
83.703262
 20
-91.970322
 11
83.703262
 21
-174.470322
  0
LINE
  8
0
 62
     4
 10
91.703262
 20
-91.970322
 11
91.703262
 21
-173.970322
  0
LINE
  8
0
 62
     4
 10
88.703262
 20
-91.970322
 11
88.703262
 21
-173.970322
  0
LINE
  8
0
 62
     4
 10
85.703262
 20
-91.970322
 11
85.703262
 21
-173.970322
  0
LINE
  8
0
 62
     4
 10
65.703262
 20
-127.970322
 11
69.703262
 21
-127.970322
  0
LINE
  8
0
 62
     4
 10
63.703262
 20
-129.970322
 11
63.703262
 21
-130.970322
  0
LINE
  8
0
 62
     4
 10
-180.867264
 20
-161.742905
 11
-177.601303
 21
-165.008881
  0
LINE
  8
0
 62
     4
 10
-186.524139
 20
-167.399719
 11
-183.258133
 21
-170.665741
  0
LINE
  8
0
 62
     4
 10
-177.601639
 20
-165.008881
 11
-178.797073
 21
-169.470337
  0
LINE
  8
0
 62
     4
 10
-185.390335
 20
-163.167191
 11
-186.524445
 21
-167.399719
  0
LINE
  8
0
 62
     4
 10
-183.258224
 20
-170.665848
 11
-178.796799
 21
-169.470413
  0
LINE
  8
0
 62
     4
 10
-185.100296
 20
-162.877228
 11
-180.867340
 21
-161.743011
  0
LINE
  8
0
 62
     4
 10
-186.524048
 20
-98.540993
 11
-183.258072
 21
-95.275024
  0
LINE
  8
0
 62
     4
 10
-180.867111
 20
-104.197807
 11
-177.601120
 21
-100.931816
  0
LINE
  8
0
 62
     4
 10
-183.258102
 20
-95.274925
 11
-178.796661
 21
-96.470367
  0
LINE
  8
0
 62
     4
 10
-185.100098
 20
-103.063591
 11
-180.867279
 21
-104.197777
  0
LINE
  8
0
 62
     4
 10
-177.601273
 20
-100.931786
 11
-178.796707
 21
-96.470367
  0
LINE
  8
0
 62
     4
 10
-185.389969
 20
-102.773735
 11
-186.524139
 21
-98.540924
  0
LINE
  8
0
 62
     4
 10
-249.726059
 20
-104.197586
 11
-252.992035
 21
-100.931618
  0
LINE
  8
0
 62
     4
 10
-244.069183
 20
-98.540764
 11
-247.335190
 21
-95.274750
  0
LINE
  8
0
 62
     4
 10
-252.992264
 20
-100.931679
 11
-251.796829
 21
-96.470253
  0
LINE
  8
0
 62
     4
 10
-245.203491
 20
-102.773727
 11
-244.069290
 21
-98.540848
  0
LINE
  8
0
 62
     4
 10
-247.335251
 20
-95.274879
 11
-251.796631
 21
-96.470306
  0
LINE
  8
0
 62
     4
 10
-245.493362
 20
-103.063553
 11
-249.726151
 21
-104.197723
  0
LINE
  8
0
 62
     4
 10
-244.069321
 20
-167.399811
 11
-247.335297
 21
-170.665787
  0
LINE
  8
0
 62
     4
 10
-249.726151
 20
-161.742889
 11
-252.992172
 21
-165.008896
  0
LINE
  8
0
 62
     4
 10
-247.335342
 20
-170.665771
 11
-251.796799
 21
-169.470337
  0
LINE
  8
0
 62
     4
 10
-245.493347
 20
-162.877182
 11
-249.726196
 21
-161.742981
  0
LINE
  8
0
 62
     4
 10
-252.991974
 20
-165.008759
 11
-251.796539
 21
-169.470184
  0
LINE
  8
0
 62
     4
 10
-245.203217
 20
-163.167068
 11
-244.069092
 21
-167.399658
  0
LINE
  8
0
 62
     4
 10
-192.296738
 20
-123.172363
 11
-192.296738
 21
-142.768280
  0
LINE
  8
0
 62
     4
 10
-238.296722
 20
-123.172363
 11
-238.296722
 21
-142.768280
  0
LINE
  8
0
 62
     4
 10
-185.296738
 20
-127.970322
 11
-181.296738
 21
-127.970322
  0
LINE
  8
0
 62
     4
 10
-187.296738
 20
-129.970322
 11
-187.296738
 21
-130.970322
  0
LINE
  8
0
 62
     4
 10
-179.296738
 20
-129.970322
 11
-179.296738
 21
-130.970322
  0
LINE
  8
0
 62
     4
 10
-187.869568
 20
-130.970322
 11
-178.296738
 21
-130.970322
  0
LINE
  8
0
 62
     4
 10
-187.814926
 20
-131.970322
 11
-178.296738
 21
-131.970322
  0
LINE
  8
0
 62
     1
 10
-181.796738
 20
-131.970322
 11
-181.796738
 21
-133.970322
  0
LINE
  8
0
 62
     4
 10
-181.296738
 20
-131.970322
 11
-181.296738
 21
-133.970322
  0
LINE
  8
0
 62
     1
 10
-184.796738
 20
-131.970322
 11
-184.796738
 21
-133.970322
  0
LINE
  8
0
 62
     4
 10
-185.296738
 20
-131.970322
 11
-185.296738
 21
-133.970322
  0
LINE
  8
0
 62
     4
 10
-187.814926
 20
-133.970322
 11
-178.296738
 21
-133.970322
  0
LINE
  8
0
 62
     4
 10
-186.993011
 20
-136.970245
 11
-187.528900
 21
-134.970245
  0
LINE
  8
0
 62
     4
 10
-186.992905
 20
-136.970322
 11
-179.600571
 21
-136.970322
  0
LINE
  8
0
 62
     4
 10
-185.296738
 20
-136.970322
 11
-185.296738
 21
-142.970322
  0
LINE
  8
0
 62
     1
 10
-184.796738
 20
-136.970322
 11
-184.796738
 21
-142.970322
  0
LINE
  8
0
 62
     1
 10
-181.796738
 20
-136.970322
 11
-181.796738
 21
-142.970322
  0
LINE
  8
0
 62
     4
 10
-181.296738
 20
-136.970322
 11
-181.296738
 21
-142.970322
  0
LINE
  8
0
 62
     4
 10
-179.600494
 20
-136.970337
 11
-179.064590
 21
-134.970291
  0
LINE
  8
0
 62
     4
 10
-185.296738
 20
-142.970322
 11
-181.296738
 21
-142.970322
  0
LINE
  8
0
 62
     4
 10
-187.869568
 20
-134.970322
 11
-178.296738
 21
-134.970322
  0
LINE
  8
0
 62
     4
 10
-178.296738
 20
-130.970322
 11
-178.296738
 21
-131.970322
  0
LINE
  8
0
 62
     4
 10
-178.296738
 20
-133.970322
 11
-178.296738
 21
-134.970322
  0
LINE
  8
0
 62
     4
 10
124.703262
 20
183.529678
 11
124.703262
 21
70.529678
  0
LINE
  8
0
 62
     4
 10
125.703262
 20
184.529678
 11
125.703262
 21
69.529678
  0
LINE
  8
0
 62
     4
 10
125.703262
 20
69.529678
 11
134.703262
 21
69.529678
  0
LINE
  8
0
 62
     4
 10
125.703262
 20
184.529678
 11
134.703262
 21
184.529678
  0
LINE
  8
0
 62
     4
 10
124.703262
 20
183.529648
 11
125.703239
 21
184.529617
  0
LINE
  8
0
 62
     4
 10
124.703178
 20
70.529610
 11
125.703186
 21
69.529602
  0
LINE
  8
0
 62
     4
 10
121.703262
 20
173.029678
 11
121.703262
 21
168.263657
  0
LINE
  8
0
 62
     4
 10
122.703262
 20
174.029678
 11
124.703262
 21
174.029678
  0
LINE
  8
0
 62
     4
 10
122.703262
 20
80.029678
 11
124.703262
 21
80.029678
  0
LINE
  8
0
 62
     4
 10
115.703262
 20
101.795700
 11
124.703262
 21
101.795700
  0
LINE
  8
0
 62
     4
 10
115.703262
 20
85.795700
 11
124.703262
 21
85.795700
  0
LINE
  8
0
 62
     4
 10
114.703262
 20
100.795700
 11
114.703262
 21
86.795700
  0
LINE
  8
0
 62
     4
 10
114.703278
 20
100.795677
 11
115.703278
 21
101.795685
  0
LINE
  8
0
 62
     4
 10
115.703148
 20
85.795631
 11
114.703163
 21
86.795616
  0
LINE
  8
0
 62
     4
 10
115.703262
 20
101.795700
 11
115.703262
 21
85.795700
  0
LINE
  8
0
 62
     4
 10
115.703262
 20
152.263657
 11
124.703262
 21
152.263657
  0
LINE
  8
0
 62
     4
 10
114.703262
 20
167.263657
 11
114.703262
 21
153.263657
  0
LINE
  8
0
 62
     4
 10
115.703156
 20
152.263580
 11
114.703156
 21
153.263580
  0
LINE
  8
0
 62
     4
 10
115.703262
 20
168.263657
 11
115.703262
 21
152.263657
  0
LINE
  8
0
 62
     4
 10
114.703323
 20
167.263580
 11
115.703308
 21
168.263565
  0
LINE
  8
0
 62
     4
 10
115.703262
 20
168.263657
 11
124.703262
 21
168.263657
  0
LINE
  8
0
 62
     4
 10
121.703262
 20
85.795700
 11
121.703262
 21
81.029678
  0
LINE
  8
0
 62
     4
 10
121.703262
 20
152.263657
 11
121.703262
 21
101.795700
  0
LINE
  8
0
 62
     4
 10
-38.296738
 20
148.779678
 11
-38.296738
 21
105.279678
  0
LINE
  8
0
 62
     4
 10
24.703262
 20
149.529678
 11
24.703262
 21
104.529678
  0
LINE
  8
0
 62
     4
 10
27.703262
 20
149.529678
 11
27.703262
 21
104.529678
  0
LINE
  8
0
 62
     4
 10
45.858002
 20
102.029678
 11
59.703262
 21
102.029678
  0
LINE
  8
0
 62
     4
 10
45.857964
 20
152.029678
 11
59.703262
 21
152.029678
  0
LINE
  8
0
 62
     4
 10
27.703278
 20
104.529854
 11
28.569408
 21
104.029793
  0
LINE
  8
0
 62
     4
 10
27.703226
 20
149.529816
 11
28.569132
 21
150.029755
  0
LINE
  8
0
 62
     4
 10
-37.546738
 20
149.529678
 11
27.703262
 21
149.529678
  0
LINE
  8
0
 62
     4
 10
32.033386
 20
104.029678
 11
32.033386
 21
150.029678
  0
LINE
  8
0
 62
     1
 10
-38.296738
 20
148.779678
 11
24.703262
 21
148.779678
  0
LINE
  8
0
 62
     1
 10
24.703335
 20
148.779449
 11
26.310587
 21
149.529510
  0
LINE
  8
0
 62
     4
 10
109.703247
 20
92.473892
 11
114.703255
 21
92.288704
  0
LINE
  8
0
 62
     4
 10
94.703262
 20
168.029678
 11
94.703262
 21
86.029678
  0
LINE
  8
0
 62
     4
 10
109.703262
 20
162.474747
 11
109.703262
 21
91.584518
  0
LINE
  8
0
 62
     4
 10
74.703262
 20
168.029678
 11
74.703262
 21
86.029678
  0
LINE
  8
0
 62
     4
 10
59.703262
 20
153.029678
 11
59.703262
 21
101.029678
  0
LINE
  8
0
 62
     4
 10
96.703262
 20
162.474747
 11
106.703262
 21
162.474747
  0
LINE
  8
0
 62
     4
 10
96.703262
 20
91.584518
 11
106.703262
 21
91.584518
  0
LINE
  8
0
 62
     4
 10
106.703262
 20
162.474747
 11
106.703262
 21
91.584518
  0
LINE
  8
0
 62
     4
 10
62.703262
 20
153.029678
 11
62.703262
 21
101.029678
  0
LINE
  8
0
 62
     4
 10
62.703262
 20
153.029678
 11
72.703262
 21
153.029678
  0
LINE
  8
0
 62
     4
 10
62.703262
 20
101.029678
 11
72.703262
 21
101.029678
  0
LINE
  8
0
 62
     4
 10
96.703262
 20
162.474747
 11
96.703262
 21
91.584518
  0
LINE
  8
0
 62
     4
 10
72.703262
 20
153.029678
 11
72.703262
 21
101.029678
  0
LINE
  8
0
 62
     4
 10
72.703262
 20
152.529678
 11
73.203262
 21
152.529678
  0
LINE
  8
0
 62
     4
 10
72.703262
 20
101.529678
 11
73.203262
 21
101.529678
  0
LINE
  8
0
 62
     4
 10
96.203262
 20
161.974747
 11
96.703262
 21
161.974747
  0
LINE
  8
0
 62
     4
 10
96.203262
 20
92.084518
 11
96.703262
 21
92.084518
  0
LINE
  8
0
  6
CENTER
 62
     1
 10
84.940414
 20
169.529678
 11
84.724731
 21
169.529678
  0
LINE
  8
0
  6
CENTER
 62
     1
 10
85.082214
 20
84.529678
 11
84.724731
 21
84.529678
  0
LINE
  8
0
 62
     4
 10
77.703262
 20
168.029678
 11
77.703262
 21
86.029678
  0
LINE
  8
0
 62
     4
 10
80.703262
 20
168.029678
 11
80.703262
 21
85.529678
  0
LINE
  8
0
 62
     4
 10
83.703262
 20
168.029678
 11
83.703262
 21
85.529678
  0
LINE
  8
0
 62
     4
 10
91.703262
 20
168.029678
 11
91.703262
 21
86.029678
  0
LINE
  8
0
 62
     4
 10
88.703262
 20
168.029678
 11
88.703262
 21
86.029678
  0
LINE
  8
0
 62
     4
 10
85.703262
 20
168.029678
 11
85.703262
 21
86.029678
  0
LINE
  8
0
 62
     4
 10
114.703300
 20
161.770004
 11
109.703293
 21
161.584824
  0
LINE
  8
0
 62
     4
 10
-38.296719
 20
148.779617
 11
-37.546711
 21
149.529633
  0
LINE
  8
0
 62
     4
 10
-37.546738
 20
149.529678
 11
-37.546738
 21
104.529678
  0
LINE
  8
0
 62
     1
 10
-38.296738
 20
105.279678
 11
24.703262
 21
105.279678
  0
LINE
  8
0
 62
     4
 10
-38.296764
 20
105.279648
 11
-37.546757
 21
104.529640
  0
LINE
  8
0
 62
     4
 10
-37.546738
 20
104.529678
 11
27.703262
 21
104.529678
  0
LINE
  8
0
 62
     1
 10
24.703293
 20
105.279739
 11
26.310545
 21
104.529686
  0
LINE
  8
0
 62
     4
 10
28.569138
 20
150.029678
 11
44.703262
 21
150.029678
  0
LINE
  8
0
 62
     4
 10
28.569412
 20
104.029678
 11
44.703293
 21
104.029678
  0
LINE
  8
0
 62
     4
 10
44.703323
 20
150.029633
 11
45.858032
 21
152.029648
  0
LINE
  8
0
 62
     4
 10
44.703224
 20
104.029709
 11
45.857925
 21
102.029724
  0
LINE
  8
0
 62
     4
 10
62.703262
 20
101.029678
 11
62.703262
 21
90.029678
  0
LINE
  8
0
 62
     4
 10
72.703262
 20
101.029678
 11
72.703262
 21
90.029678
  0
LINE
  8
0
 62
     4
 10
66.218330
 20
93.544777
 11
69.188187
 21
96.514633
  0
LINE
  8
0
 62
     4
 10
66.218361
 20
96.514633
 11
69.188217
 21
93.544777
  0
LINE
  8
0
 62
     4
 10
62.703262
 20
90.029678
 11
72.703262
 21
90.029678
  0
LINE
  8
0
 62
     4
 10
106.703262
 20
91.584518
 11
106.703262
 21
80.584503
  0
LINE
  8
0
 62
     4
 10
96.703262
 20
91.584518
 11
96.703262
 21
80.584503
  0
LINE
  8
0
 62
     4
 10
96.703255
 20
80.584503
 11
106.703255
 21
80.584503
  0
LINE
  8
0
 62
     4
 10
100.218330
 20
84.099579
 11
103.188187
 21
87.069443
  0
LINE
  8
0
 62
     4
 10
100.218330
 20
87.069458
 11
103.188187
 21
84.099602
  0
CIRCLE
  8
0
 10
-124.296738
 20
-223.970322
 40
14.500000
  0
CIRCLE
  8
0
 10
-124.296738
 20
-223.970322
 40
10.000000
  0
CIRCLE
  8
0
 10
-124.296738
 20
-41.970322
 40
14.500000
  0
CIRCLE
  8
0
 10
-124.296738
 20
-41.970322
 40
10.000000
  0
CIRCLE
  8
0
 10
-306.296722
 20
-223.970322
 40
14.500000
  0
CIRCLE
  8
0
 10
-306.296722
 20
-223.970322
 40
10.000000
  0
CIRCLE
  8
0
 10
-306.296722
 20
-41.970322
 40
10.000000
  0
CIRCLE
  8
0
 10
-306.296722
 20
-41.970322
 40
14.500000
  0
CIRCLE
  8
0
 62
     2
 10
-124.296738
 20
-223.970322
 40
8.600000
  0
CIRCLE
  8
0
 62
     2
 10
-306.296722
 20
-223.970322
 40
8.600000
  0
CIRCLE
  8
0
 62
     2
 10
-124.296738
 20
-41.970322
 40
8.600000
  0
CIRCLE
  8
0
 62
     2
 10
-306.296722
 20
-41.970322
 40
8.600000
  0
ARC
  8
0
 10
120.174606
 20
-28.979950
 40
6.571336
 50
138.780853
 51
221.219131
  0
ARC
  8
0
 10
137.445969
 20
-41.970322
 40
23.842712
 50
158.701691
 51
201.298309
  0
ARC
  8
0
 10
120.174591
 20
-54.960693
 40
6.571329
 50
138.780823
 51
221.219177
  0
ARC
  8
0
 10
120.174606
 20
-210.979950
 40
6.571337
 50
138.780838
 51
221.219162
  0
ARC
  8
0
 10
137.445969
 20
-223.970322
 40
23.842716
 50
158.701675
 51
201.298294
  0
ARC
  8
0
 10
120.174591
 20
-236.960693
 40
6.571332
 50
138.780792
 51
221.219208
  0
CIRCLE
  8
0
 10
153.203262
 20
-132.970322
 40
5.150000
  0
CIRCLE
  8
0
 10
153.203262
 20
-132.970322
 40
7.950000
  0
ARC
  8
0
 10
135.265900
 20
43.529678
 40
21.662643
 50
159.743851
 51
200.256134
  0
ARC
  8
0
 10
135.265900
 20
28.529678
 40
21.662643
 50
159.743790
 51
200.256073
  0
ARC
  8
0
 10
135.265900
 20
225.529678
 40
21.662640
 50
159.743866
 51
200.256134
  0
ARC
  8
0
 10
135.265900
 20
210.529678
 40
21.662643
 50
159.743790
 51
200.256088
  0
CIRCLE
  8
0
 62
     2
 10
153.203262
 20
127.029678
 40
13.220500
  0
CIRCLE
  8
0
 10
153.203262
 20
127.029678
 40
12.058500
  0
ARC
  8
0
 62
     4
 10
108.203262
 20
-97.525253
 40
1.500000
 50
0.000000
 51
180.000000
  0
ARC
  8
0
 62
     4
 10
108.203262
 20
-168.415482
 40
1.500000
 50
180.000000
 51
0.000000
  0
ARC
  8
0
 62
     4
 10
73.203262
 20
-105.970322
 40
1.500000
 50
270.000000
 51
0.000000
  0
ARC
  8
0
 62
     4
 10
73.203262
 20
-159.970322
 40
1.500000
 50
0.000000
 51
90.000000
  0
ARC
  8
0
 62
     4
 10
96.203262
 20
-169.415482
 40
1.500000
 50
90.000000
 51
180.000000
  0
ARC
  8
0
 62
     4
 10
96.203262
 20
-96.525253
 40
1.500000
 50
180.000000
 51
270.000000
  0
ARC
  8
0
 62
     4
 10
99.703262
 20
-129.970322
 40
2.000000
 50
90.000000
 51
180.000000
  0
ARC
  8
0
 62
     4
 10
103.703262
 20
-129.970322
 40
2.000000
 50
0.000000
 51
90.000000
  0
ARC
  8
0
 62
     4
 10
93.203262
 20
-91.970322
 40
1.500000
 50
0.000000
 51
180.000000
  0
ARC
  8
0
 62
     4
 10
90.203262
 20
-93.470322
 40
1.500000
 50
180.000000
 51
0.000000
  0
ARC
  8
0
 62
     4
 10
122.703262
 20
-86.970322
 40
1.000000
 50
90.000000
 51
180.000000
  0
ARC
  8
0
 62
     4
 10
122.703262
 20
-178.970322
 40
1.000000
 50
180.000000
 51
270.000000
  0
ARC
  8
0
 62
     4
 10
13.453262
 20
-132.970322
 40
32.749996
 50
342.591980
 51
0.000000
  0
ARC
  8
0
 62
     4
 10
13.453262
 20
-132.970322
 40
32.749996
 50
0.000000
 51
17.408018
  0
ARC
  8
0
 62
     4
 10
44.157730
 20
-132.970322
 40
15.588446
 50
141.057571
 51
218.942398
  0
ARC
  8
0
 62
     4
 10
76.203262
 20
-91.970322
 40
1.500000
 50
0.000000
 51
180.000000
  0
ARC
  8
0
 62
     4
 10
87.203262
 20
-91.970322
 40
1.500000
 50
0.000000
 51
180.000000
  0
ARC
  8
0
 62
     4
 10
82.203262
 20
-91.970322
 40
1.500000
 50
0.000000
 51
180.000000
  0
ARC
  8
0
 62
     4
 10
79.203262
 20
-93.470322
 40
1.500000
 50
180.000000
 51
0.000000
  0
ARC
  8
0
 62
     4
 10
87.203262
 20
-173.970322
 40
1.500000
 50
180.000000
 51
0.000000
  0
ARC
  8
0
 62
     4
 10
76.203262
 20
-173.970322
 40
1.500000
 50
180.000000
 51
0.000000
  0
ARC
  8
0
 62
     4
 10
79.203262
 20
-172.470322
 40
1.500000
 50
0.000000
 51
180.000000
  0
ARC
  8
0
 62
     4
 10
82.203262
 20
-173.970322
 40
1.500000
 50
180.000000
 51
0.000000
  0
ARC
  8
0
 62
     4
 10
93.203262
 20
-173.970322
 40
1.500000
 50
180.000000
 51
0.000000
  0
ARC
  8
0
 62
     4
 10
65.703262
 20
-129.970322
 40
2.000000
 50
90.000000
 51
180.000000
  0
ARC
  8
0
 62
     4
 10
90.203262
 20
-172.470322
 40
1.500000
 50
0.000000
 51
180.000000
  0
ARC
  8
0
 62
     4
 10
69.703262
 20
-129.970322
 40
2.000000
 50
0.000000
 51
90.000000
  0
ARC
  8
0
 62
     4
 10
61.203262
 20
-158.970322
 40
1.500000
 50
180.000000
 51
0.000000
  0
ARC
  8
0
 62
     4
 10
61.203262
 20
-106.970322
 40
1.500000
 50
0.000000
 51
180.000000
  0
CIRCLE
  8
0
 62
     4
 10
-215.296738
 20
-132.970322
 40
57.500000
  0
ARC
  8
0
 62
     4
 10
-182.062759
 20
-166.204391
 40
10.000008
 50
56.944412
 51
77.333008
  0
ARC
  8
0
 62
     4
 10
-182.062759
 20
-166.204391
 40
8.000000
 50
270.000000
 51
83.365692
  0
ARC
  8
0
 62
     4
 10
-182.062668
 20
-99.736343
 40
8.000000
 50
0.000000
 51
173.365631
  0
ARC
  8
0
 62
     4
 10
-248.530701
 20
-99.736252
 40
7.999994
 50
6.634201
 51
263.365692
  0
ARC
  8
0
 62
     4
 10
-248.530792
 20
-166.204300
 40
8.000000
 50
180.000000
 51
353.365692
  0
ARC
  8
0
 62
     4
 10
-176.062729
 20
-108.955917
 40
0.999995
 50
31.470470
 51
123.055977
  0
ARC
  8
0
 62
     4
 10
-176.062790
 20
-156.984848
 40
1.000009
 50
236.944504
 51
328.530365
  0
ARC
  8
0
 62
     4
 10
-215.296738
 20
-132.970322
 40
46.999996
 50
328.529846
 51
31.470057
  0
ARC
  8
0
 62
     4
 10
-182.062668
 20
-99.736343
 40
9.999995
 50
146.944366
 51
167.333054
  0
ARC
  8
0
 62
     4
 10
-191.282211
 20
-93.736374
 40
1.000005
 50
326.944855
 51
58.530128
  0
ARC
  8
0
 62
     4
 10
-215.296738
 20
-132.970322
 40
46.999996
 50
58.529835
 51
121.470055
  0
ARC
  8
0
 62
     4
 10
-239.311127
 20
-93.736313
 40
1.000006
 50
121.470619
 51
213.055969
  0
ARC
  8
0
 62
     4
 10
-248.530701
 20
-99.736252
 40
10.000001
 50
236.944382
 51
257.333008
  0
ARC
  8
0
 62
     4
 10
-254.530670
 20
-108.955811
 40
1.000002
 50
56.944263
 51
148.530365
  0
ARC
  8
0
 62
     4
 10
-215.296738
 20
-132.970322
 40
46.999996
 50
148.529831
 51
211.470062
  0
ARC
  8
0
 62
     4
 10
-254.530731
 20
-156.984726
 40
0.999999
 50
211.470840
 51
303.055969
  0
ARC
  8
0
 62
     4
 10
-248.530792
 20
-166.204300
 40
10.000008
 50
326.944397
 51
347.333099
  0
ARC
  8
0
 62
     4
 10
-239.311249
 20
-172.204269
 40
1.000009
 50
146.944504
 51
238.530365
  0
ARC
  8
0
 62
     4
 10
-215.296738
 20
-132.970322
 40
46.999996
 50
238.529831
 51
301.470062
  0
ARC
  8
0
 62
     4
 10
-191.282333
 20
-172.204330
 40
0.999999
 50
301.470856
 51
33.055973
  0
CIRCLE
  8
0
 62
     4
 10
-215.296738
 20
-132.970322
 40
25.000000
  0
CIRCLE
  8
0
 62
     4
 10
-215.296738
 20
-132.970322
 40
22.500000
  0
CIRCLE
  8
0
 62
     1
 10
-215.296738
 20
-132.970322
 40
21.750000
  0
ARC
  8
0
 62
     4
 10
-181.296738
 20
-129.970322
 40
2.000000
 50
0.000000
 51
90.000000
  0
ARC
  8
0
 62
     4
 10
-185.296738
 20
-129.970322
 40
2.000000
 50
90.000000
 51
180.000000
  0
CIRCLE
  8
0
 62
     4
 10
-215.296738
 20
-132.970322
 40
27.500000
  0
CIRCLE
  8
0
 62
     4
 10
-215.296738
 20
-132.970322
 40
42.500000
  0
ARC
  8
0
 62
     4
 10
-248.530701
 20
-99.736252
 40
10.000005
 50
12.666800
 51
33.055359
  0
ARC
  8
0
 62
     4
 10
-182.062668
 20
-99.736343
 40
9.999997
 50
282.666809
 51
303.055420
  0
ARC
  8
0
 62
     4
 10
-182.062668
 20
-99.736343
 40
8.000002
 50
276.634186
 51
0.000000
  0
ARC
  8
0
 62
     4
 10
-182.062759
 20
-166.204391
 40
7.999994
 50
186.634201
 51
270.000000
  0
ARC
  8
0
 62
     4
 10
-182.062759
 20
-166.204391
 40
10.000001
 50
192.666718
 51
213.055435
  0
ARC
  8
0
 62
     4
 10
-248.530792
 20
-166.204300
 40
7.999993
 50
96.634094
 51
180.000000
  0
ARC
  8
0
 62
     4
 10
-248.530792
 20
-166.204300
 40
10.000005
 50
102.666801
 51
123.055397
  0
ARC
  8
0
 62
     4
 10
122.703262
 20
81.029678
 40
1.000000
 50
180.000000
 51
270.000000
  0
ARC
  8
0
 62
     4
 10
122.703262
 20
173.029678
 40
1.000000
 50
90.000000
 51
180.000000
  0
ARC
  8
0
 62
     4
 10
76.203262
 20
168.029678
 40
1.500000
 50
0.000000
 51
180.000000
  0
ARC
  8
0
 62
     4
 10
87.203262
 20
168.029678
 40
1.500000
 50
0.000000
 51
180.000000
  0
ARC
  8
0
 62
     4
 10
82.203262
 20
168.029678
 40
1.500000
 50
0.000000
 51
180.000000
  0
ARC
  8
0
 62
     4
 10
79.203262
 20
166.529678
 40
1.500000
 50
180.000000
 51
0.000000
  0
ARC
  8
0
 62
     4
 10
87.203262
 20
86.029678
 40
1.500000
 50
180.000000
 51
0.000000
  0
ARC
  8
0
 62
     4
 10
76.203262
 20
86.029678
 40
1.500000
 50
180.000000
 51
0.000000
  0
ARC
  8
0
 62
     4
 10
79.203262
 20
87.529678
 40
1.500000
 50
0.000000
 51
180.000000
  0
ARC
  8
0
 62
     4
 10
82.203262
 20
86.029678
 40
1.500000
 50
180.000000
 51
0.000000
  0
ARC
  8
0
 62
     4
 10
93.203262
 20
86.029678
 40
1.500000
 50
180.000000
 51
0.000000
  0
ARC
  8
0
 62
     4
 10
90.203262
 20
87.529678
 40
1.500000
 50
0.000000
 51
180.000000
  0
ARC
  8
0
 62
     4
 10
61.203262
 20
101.029678
 40
1.500000
 50
180.000000
 51
0.000000
  0
ARC
  8
0
 62
     4
 10
61.203262
 20
153.029678
 40
1.500000
 50
0.000000
 51
180.000000
  0
ARC
  8
0
 62
     4
 10
108.203262
 20
162.474747
 40
1.500000
 50
0.000000
 51
180.000000
  0
ARC
  8
0
 62
     4
 10
108.203262
 20
91.584518
 40
1.500000
 50
180.000000
 51
0.000000
  0
ARC
  8
0
 62
     4
 10
73.203262
 20
154.029678
 40
1.500000
 50
270.000000
 51
0.000000
  0
ARC
  8
0
 62
     4
 10
73.203262
 20
100.029678
 40
1.500000
 50
0.000000
 51
90.000000
  0
ARC
  8
0
 62
     4
 10
96.203262
 20
90.584518
 40
1.500000
 50
90.000000
 51
180.000000
  0
ARC
  8
0
 62
     4
 10
96.203262
 20
163.474747
 40
1.500000
 50
180.000000
 51
270.000000
  0
ARC
  8
0
 62
     4
 10
93.203262
 20
168.029678
 40
1.500000
 50
0.000000
 51
180.000000
  0
ARC
  8
0
 62
     4
 10
90.203262
 20
166.529678
 40
1.500000
 50
180.000000
 51
0.000000
  0
CIRCLE
  8
0
 62
     4
 10
67.703262
 20
95.029678
 40
4.000000
  0
CIRCLE
  8
0
 62
     4
 10
101.703255
 20
85.584503
 40
4.000000
  0
TEXT
  8
0
 10
-374.285309
 20
256.649994
 40
9.000000
  1
SD JABARA,-J
 50
0.000000
 41
1.052632
 51
0.000000
  7
STANDARD
  0
TEXT
  8
0
 10
242.014816
 20
-274.500000
 40
12.500000
  1
KOGANEI CORP.
 50
0.000000
 41
1.052632
 51
0.000000
  7
STANDARD
  0
TEXT
  8
0
 10
251.264664
 20
256.649994
 40
9.000000
  1
DATE: AUG ,1993
 50
0.000000
 41
1.052632
 51
0.000000
  7
STANDARD
  0
TEXT
  8
0
 10
-384.785309
 20
224.149994
 40
9.000000
  1
BORE:200(STROKE=100)
 50
0.000000
 41
1.052632
 51
0.000000
  7
STANDARD
  0
ENDSEC
  0
EOF
