  0
SECTION
  2
HEADER
  0
ENDSEC
  0
SECTION
  2
TABLES
  0
TABLE
  2
LTYPE
 70
     4
  0
LTYPE
  2
CONTINUOUS
 70
    64
  3
Solid line
 72
    65
 73
     0
 40
0.000000
  0
LTYPE
  2
DASHED
 70
    64
  3
__ __ __ __ __ __ __ __ __ __ __ __ __ __ __
 72
    65
 73
     2
 40
3.500000
 49
2.000000
 49
-1.500000
  0
LTYPE
  2
CENTER
 70
    64
  3
____ _ ____ _ ____ _ ____ _ ____ _ ____ _ ____
 72
    65
 73
     4
 40
17.500000
 49
13.000000
 49
-1.500000
 49
1.500000
 49
-1.500000
  0
LTYPE
  2
PHANTOM
 70
    64
  3
_____ _ _ _____ _ _ _____ _ _ _____ _ _ ____  
 72
    65
 73
     6
 40
15.500000
 49
8.000000
 49
-1.500000
 49
1.500000
 49
-1.500000
 49
1.500000
 49
-1.500000
  0
LTYPE
  2
DASHED1
 70
    64
  3
__ __ __ __ __ __ __ __ __ __ __ __ __ __ __
 72
    65
 73
     2
 40
1.500000
 49
1.000000
 49
-0.500000
  0
LTYPE
  2
DASHED2
 70
    64
  3
__ __ __ __ __ __ __ __ __ __ __ __ __ __ __
 72
    65
 73
     2
 40
3.500000
 49
2.500000
 49
-1.000000
  0
LTYPE
  2
DASHED3
 70
    64
  3
__ __ __ __ __ __ __ __ __ __ __ __ __ __ __
 72
    65
 73
     2
 40
6.000000
 49
4.000000
 49
-2.000000
  0
LTYPE
  2
DASHED4
 70
    64
  3
__ __ __ __ __ __ __ __ __ __ __ __ __ __ __
 72
    65
 73
     2
 40
12.000000
 49
10.000000
 49
-2.000000
  0
LTYPE
  2
DASHED5
 70
    64
  3
__ __ __ __ __ __ __ __ __ __ __ __ __ __ __
 72
    65
 73
     2
 40
17.000000
 49
15.000000
 49
-2.000000
  0
LTYPE
  2
DASHED6
 70
    64
  3
__ __ __ __ __ __ __ __ __ __ __ __ __ __ __
 72
    65
 73
     2
 40
29.000000
 49
27.000000
 49
-2.000000
  0
LTYPE
  2
PHANTOM1
 70
    64
  3
_____ _ _ _____ _ _ _____ _ _ _____ _ _ ____  
 72
    65
 73
     6
 40
31.000000
 49
25.000000
 49
-1.500000
 49
1.000000
 49
-1.000000
 49
1.000000
 49
-1.500000
  0
LTYPE
  2
PHANTOM2
 70
    64
  3
_____ _ _ _____ _ _ _____ _ _ _____ _ _ ____  
 72
    65
 73
     6
 40
36.000000
 49
27.000000
 49
-1.500000
 49
2.500000
 49
-1.000000
 49
2.500000
 49
-1.500000
  0
LTYPE
  2
PHANTOM3
 70
    64
  3
_____ _ _ _____ _ _ _____ _ _ _____ _ _ ____  
 72
    65
 73
     6
 40
78.000000
 49
64.000000
 49
-2.000000
 49
4.000000
 49
-2.000000
 49
4.000000
 49
-2.000000
  0
LTYPE
  2
CENTER1
 70
    64
  3
____ _ ____ _ ____ _ ____ _ ____ _ ____ _ ____
 72
    65
 73
     4
 40
19.000000
 49
14.000000
 49
-1.000000
 49
3.000000
 49
-1.000000
  0
LTYPE
  2
CENTER2
 70
    64
  3
____ _ ____ _ ____ _ ____ _ ____ _ ____ _ ____
 72
    65
 73
     4
 40
28.500000
 49
25.000000
 49
-1.000000
 49
1.500000
 49
-1.000000
  0
LTYPE
  2
CENTER3
 70
    64
  3
____ _ ____ _ ____ _ ____ _ ____ _ ____ _ ____
 72
    65
 73
     4
 40
31.500000
 49
27.000000
 49
-1.000000
 49
2.500000
 49
-1.000000
  0
LTYPE
  2
CENTER4
 70
    64
  3
____ _ ____ _ ____ _ ____ _ ____ _ ____ _ ____
 72
    65
 73
     4
 40
50.000000
 49
45.000000
 49
-1.000000
 49
3.000000
 49
-1.000000
  0
LTYPE
  2
CENTER5
 70
    64
  3
____ _ ____ _ ____ _ ____ _ ____ _ ____ _ ____
 72
    65
 73
     4
 40
100.000000
 49
92.000000
 49
-2.000000
 49
4.000000
 49
-2.000000
  0
LTYPE
  2
SBK1
 70
    64
  3
______ _ _ _ ______ _ _ _ ______ _ _ _ _____  
 72
    65
 73
     8
 40
60.500000
 49
45.000000
 49
-2.000000
 49
2.500000
 49
-2.000000
 49
2.500000
 49
-2.000000
 49
2.500000
 49
-2.000000
  0
LTYPE
  2
SBK2
 70
    64
  3
______ _ _ _ ______ _ _ _ ______ _ _ _ _____  
 72
    65
 73
     8
 40
84.000000
 49
64.000000
 49
-2.000000
 49
4.000000
 49
-2.000000
 49
4.000000
 49
-2.000000
 49
4.000000
 49
-2.000000
  0
LTYPE
  2
STCH
 70
    64
  3
__ __ __ __ __ __ __ __ __ __ __ __ __ __ __
 72
    65
 73
     2
 40
3.000000
 49
1.000000
 49
-2.000000
  0
LTYPE
  2
MTCH
 70
    64
  3
_____ _ _ _____ _ _ _____ _ _ _____ _ _ ____  
 72
    65
 73
     6
 40
80.000000
 49
66.000000
 49
-2.000000
 49
4.000000
 49
-2.000000
 49
4.000000
 49
-2.000000
  0
ENDTAB
  0
TABLE
  2
LAYER
 70
     1
  0
LAYER
  2
0
 70
     0
 62
     7
  6
CONTINUOUS
  0
ENDTAB
  0
TABLE
  2
STYLE
 70
     1
  0
STYLE
  2
STANDARD
 70
     0
 40
0.000000
 41
1.000000
 50
0.000000
 71
     0
 42
0.200000
  3
txt
  4
BIGFONT
  0
ENDTAB
  0
TABLE
  2
VIEW
 70
     0
  0
ENDTAB
  0
ENDSEC
  0
SECTION
  2
BLOCKS
  0
ENDSEC
  0
SECTION
  2
ENTITIES
  0
LINE
  8
0
 10
399.799988
 20
276.250000
 11
399.799988
 21
-276.750000
  0
LINE
  8
0
 10
-399.250000
 20
276.250000
 11
-399.250000
 21
-276.750000
  0
LINE
  8
0
 10
-399.250000
 20
276.250000
 11
399.799988
 21
276.250000
  0
LINE
  8
0
 10
-399.250000
 20
-276.750000
 11
399.799988
 21
-276.750000
  0
LINE
  8
0
 10
239.799988
 20
-251.750000
 11
399.799988
 21
-251.750000
  0
LINE
  8
0
 10
239.799988
 20
251.250000
 11
399.799988
 21
251.250000
  0
LINE
  8
0
 10
-399.250000
 20
251.250000
 11
-239.250000
 21
251.250000
  0
LINE
  8
0
 10
239.799988
 20
-251.750000
 11
239.799988
 21
-276.750000
  0
LINE
  8
0
 10
239.799988
 20
251.250000
 11
239.799988
 21
276.250000
  0
LINE
  8
0
 10
-239.250000
 20
276.250000
 11
-239.250000
 21
251.250000
  0
LINE
  8
0
 10
-15.725006
 20
-276.750000
 11
-15.725006
 21
276.250000
  0
LINE
  8
0
 62
     4
 10
-97.290802
 20
-51.081604
 11
-97.290802
 21
-196.081604
  0
LINE
  8
0
 62
     4
 10
-111.290802
 20
-51.081604
 11
-97.290802
 21
-51.081604
  0
LINE
  8
0
 62
     4
 10
-111.290802
 20
-196.081604
 11
-97.290802
 21
-196.081604
  0
LINE
  8
0
 62
     4
 10
-111.290802
 20
-51.081604
 11
-111.290802
 21
-196.081604
  0
LINE
  8
0
  6
CENTER
 62
     1
 10
-119.290802
 20
-66.081604
 11
-89.290802
 21
-66.081604
  0
LINE
  8
0
  6
CENTER
 62
     1
 10
-119.290802
 20
-123.581604
 11
-89.290802
 21
-123.581604
  0
LINE
  8
0
  6
CENTER
 62
     1
 10
-119.290802
 20
-181.081604
 11
-89.290802
 21
-181.081604
  0
LINE
  8
0
  6
CENTER
 62
     1
 10
-119.290802
 20
-69.831604
 11
-89.290802
 21
-69.831604
  0
LINE
  8
0
  6
CENTER
 62
     1
 10
-119.290802
 20
-177.331604
 11
-89.290802
 21
-177.331604
  0
LINE
  8
0
  6
CENTER
 62
     1
 10
-394.980743
 20
-123.581604
 11
-154.146881
 21
-123.581604
  0
LINE
  8
0
  6
CENTER
 62
     1
 10
-275.290802
 20
-47.081604
 11
-275.290802
 21
-199.831604
  0
LINE
  8
0
 62
     4
 10
-390.290802
 20
-51.081604
 11
-160.290802
 21
-51.081604
  0
LINE
  8
0
 62
     4
 10
-390.290802
 20
-196.081604
 11
-160.290802
 21
-196.081604
  0
LINE
  8
0
  6
CENTER
 62
     1
 10
-217.790802
 20
-56.490822
 11
-217.790802
 21
-76.089317
  0
LINE
  8
0
  6
CENTER
 62
     1
 10
-332.790802
 20
-56.158646
 11
-332.790802
 21
-76.421494
  0
LINE
  8
0
  6
CENTER
 62
     1
 10
-343.592560
 20
-66.081604
 11
-322.665375
 21
-66.081604
  0
LINE
  8
0
  6
CENTER
 62
     1
 10
-343.592560
 20
-181.081604
 11
-322.333160
 21
-181.081604
  0
LINE
  8
0
  6
CENTER
 62
     1
 10
-332.790802
 20
-170.427841
 11
-332.790802
 21
-191.022858
  0
LINE
  8
0
  6
CENTER
 62
     1
 10
-227.662476
 20
-181.081604
 11
-207.399628
 21
-181.081604
  0
LINE
  8
0
  6
CENTER
 62
     1
 10
-217.790802
 20
-170.760010
 11
-217.790802
 21
-191.022858
  0
LINE
  8
0
  6
CENTER
 62
     1
 10
-228.326843
 20
-66.081604
 11
-207.731812
 21
-66.081604
  0
LINE
  8
0
 62
     4
 10
-390.290802
 20
-51.081604
 11
-390.290802
 21
-196.081604
  0
LINE
  8
0
 62
     4
 10
-160.290802
 20
-51.081604
 11
-160.290802
 21
-196.081604
  0
LINE
  8
0
  6
CENTER
 62
     1
 10
-370.290802
 20
-60.476959
 11
-370.290802
 21
-87.383362
  0
LINE
  8
0
 62
     1
 10
-180.290802
 20
-61.473488
 11
-180.290802
 21
-85.722473
  0
LINE
  8
0
  6
CENTER
 62
     1
 10
-383.786102
 20
-173.581604
 11
-357.211884
 21
-173.581604
  0
LINE
  8
0
  6
CENTER
 62
     1
 10
-382.457367
 20
-73.581604
 11
-357.211884
 21
-73.581604
  0
LINE
  8
0
 62
     1
 10
-193.115967
 20
-173.581604
 11
-166.873901
 21
-173.581604
  0
LINE
  8
0
 62
     1
 10
-193.780334
 20
-73.581604
 11
-168.202637
 21
-73.581604
  0
LINE
  8
0
  6
CENTER
 62
     1
 10
-370.290802
 20
-159.798141
 11
-370.290802
 21
-187.368912
  0
LINE
  8
0
 62
     1
 10
-180.290802
 20
-161.459030
 11
-180.290802
 21
-187.036743
  0
LINE
  8
0
 62
     4
 10
-111.290771
 20
-21.081604
 11
-97.290771
 21
-21.081604
  0
LINE
  8
0
 62
     4
 10
-111.290833
 20
208.918396
 11
-97.290833
 21
208.918396
  0
LINE
  8
0
 62
     4
 10
-97.290802
 20
-21.081604
 11
-97.290802
 21
208.918381
  0
LINE
  8
0
 62
     4
 10
-111.290802
 20
208.918381
 11
-111.290802
 21
-21.081604
  0
LINE
  8
0
  6
CENTER
 62
     1
 10
-119.290802
 20
93.918396
 11
-89.290802
 21
93.918396
  0
LINE
  8
0
  6
CENTER
 62
     1
 10
-119.290825
 20
188.918396
 11
-89.290825
 21
188.918396
  0
LINE
  8
0
  6
CENTER
 62
     1
 10
-119.290779
 20
-1.081604
 11
-89.290779
 21
-1.081604
  0
LINE
  8
0
  6
CENTER
 62
     1
 10
-119.290817
 20
151.418396
 11
-89.290817
 21
151.418396
  0
LINE
  8
0
  6
CENTER
 62
     1
 10
-119.290787
 20
36.418396
 11
-89.290787
 21
36.418396
  0
LINE
  8
0
 62
     4
 10
322.819000
 20
-43.581604
 11
322.819000
 21
-203.581604
  0
LINE
  8
0
 62
     4
 10
302.819000
 20
-43.581604
 11
322.819000
 21
-43.581604
  0
LINE
  8
0
 62
     4
 10
302.819000
 20
-203.581604
 11
322.819000
 21
-203.581604
  0
LINE
  8
0
 62
     4
 10
302.819000
 20
-43.581604
 11
302.819000
 21
-203.581604
  0
LINE
  8
0
  6
CENTER
 62
     1
 10
297.819000
 20
-59.581604
 11
327.819000
 21
-59.581604
  0
LINE
  8
0
  6
CENTER
 62
     1
 10
297.819000
 20
-123.581604
 11
327.819000
 21
-123.581604
  0
LINE
  8
0
  6
CENTER
 62
     1
 10
297.819000
 20
-187.581604
 11
327.819000
 21
-187.581604
  0
LINE
  8
0
  6
CENTER
 62
     1
 10
297.819000
 20
-67.581604
 11
327.819000
 21
-67.581604
  0
LINE
  8
0
  6
CENTER
 62
     1
 10
297.819000
 20
-179.581604
 11
327.819000
 21
-179.581604
  0
LINE
  8
0
  6
CENTER
 62
     1
 10
-11.158722
 20
-123.581604
 11
259.927551
 21
-123.581604
  0
LINE
  8
0
  6
CENTER
 62
     1
 10
123.819000
 20
-39.738876
 11
123.819000
 21
-209.062317
  0
LINE
  8
0
  6
CENTER
 62
     1
 10
187.819000
 20
-45.081604
 11
187.819000
 21
-74.081604
  0
LINE
  8
0
  6
CENTER
 62
     1
 10
59.819000
 20
-44.581604
 11
59.819000
 21
-73.081604
  0
LINE
  8
0
  6
CENTER
 62
     1
 10
46.569000
 20
-59.581604
 11
73.569000
 21
-59.581604
  0
LINE
  8
0
  6
CENTER
 62
     1
 10
46.319000
 20
-187.581604
 11
73.319000
 21
-187.581604
  0
LINE
  8
0
  6
CENTER
 62
     1
 10
59.819000
 20
-172.581604
 11
59.819000
 21
-202.331604
  0
LINE
  8
0
  6
CENTER
 62
     1
 10
175.569000
 20
-187.581604
 11
201.819000
 21
-187.581604
  0
LINE
  8
0
  6
CENTER
 62
     1
 10
187.819000
 20
-171.831604
 11
187.819000
 21
-201.081604
  0
LINE
  8
0
  6
CENTER
 62
     1
 10
174.569000
 20
-59.581604
 11
200.819000
 21
-59.581604
  0
LINE
  8
0
 62
     4
 10
-3.681000
 20
-203.581604
 11
251.319000
 21
-203.581604
  0
LINE
  8
0
 62
     4
 10
-3.681000
 20
-43.581604
 11
251.319000
 21
-43.581604
  0
LINE
  8
0
 62
     4
 10
-3.681000
 20
-43.581604
 11
-3.681000
 21
-203.581604
  0
LINE
  8
0
 62
     4
 10
251.319000
 20
-43.581604
 11
251.319000
 21
-203.581604
  0
LINE
  8
0
  6
CENTER
 62
     1
 10
229.819000
 20
-54.049194
 11
229.819000
 21
-81.680573
  0
LINE
  8
0
  6
CENTER
 62
     1
 10
17.819000
 20
-53.302399
 11
17.819000
 21
-82.053970
  0
LINE
  8
0
  6
CENTER
 62
     1
 10
4.150574
 20
-179.581604
 11
31.408569
 21
-179.581604
  0
LINE
  8
0
  6
CENTER
 62
     1
 10
2.657013
 20
-67.581604
 11
32.155365
 21
-67.581604
  0
LINE
  8
0
  6
CENTER
 62
     1
 10
215.866699
 20
-67.581604
 11
244.991669
 21
-67.581604
  0
LINE
  8
0
  6
CENTER
 62
     1
 10
216.986877
 20
-179.581604
 11
242.377899
 21
-179.581604
  0
LINE
  8
0
  6
CENTER
 62
     1
 10
17.819000
 20
-166.068298
 11
17.819000
 21
-192.952896
  0
LINE
  8
0
  6
CENTER
 62
     1
 10
229.819000
 20
-167.188492
 11
229.819000
 21
-193.326294
  0
LINE
  8
0
 62
     4
 10
302.819000
 20
-33.581604
 11
322.819000
 21
-33.581604
  0
LINE
  8
0
 62
     4
 10
302.819000
 20
221.418396
 11
322.819000
 21
221.418396
  0
LINE
  8
0
 62
     4
 10
322.819000
 20
221.418396
 11
322.819000
 21
-33.581604
  0
LINE
  8
0
 62
     4
 10
302.819000
 20
-33.581604
 11
302.819000
 21
221.418396
  0
LINE
  8
0
  6
CENTER
 62
     1
 10
297.819000
 20
199.918396
 11
327.819000
 21
199.918396
  0
LINE
  8
0
  6
CENTER
 62
     1
 10
297.819000
 20
157.918396
 11
327.819000
 21
157.918396
  0
LINE
  8
0
  6
CENTER
 62
     1
 10
297.819000
 20
93.918396
 11
327.819000
 21
93.918396
  0
LINE
  8
0
  6
CENTER
 62
     1
 10
297.819000
 20
-12.081604
 11
327.819000
 21
-12.081604
  0
LINE
  8
0
  6
CENTER
 62
     1
 10
297.819000
 20
29.918396
 11
327.819000
 21
29.918396
  0
CIRCLE
  8
0
 62
     4
 10
-275.290802
 20
-123.581604
 40
45.000000
  0
CIRCLE
  8
0
 62
     1
 10
-332.790802
 20
-181.081604
 40
7.000000
  0
CIRCLE
  8
0
 62
     1
 10
-217.790802
 20
-181.081604
 40
7.000000
  0
CIRCLE
  8
0
 62
     1
 10
-217.790802
 20
-66.081604
 40
7.000000
  0
CIRCLE
  8
0
 62
     1
 10
-332.790802
 20
-66.081604
 40
7.000000
  0
CIRCLE
  8
0
 62
     4
 10
-217.790802
 20
-66.081604
 40
5.600000
  0
CIRCLE
  8
0
 62
     4
 10
-332.790802
 20
-66.081604
 40
5.600000
  0
CIRCLE
  8
0
 62
     4
 10
-217.790802
 20
-181.081604
 40
5.600000
  0
CIRCLE
  8
0
 62
     4
 10
-332.790802
 20
-181.081604
 40
5.600000
  0
CIRCLE
  8
0
 62
     4
 10
-370.290802
 20
-73.581604
 40
9.500000
  0
CIRCLE
  8
0
 62
     4
 10
-370.290802
 20
-173.581604
 40
9.500000
  0
CIRCLE
  8
0
 62
     4
 10
-180.290802
 20
-73.581604
 40
9.500000
  0
CIRCLE
  8
0
 62
     4
 10
-180.290802
 20
-173.581604
 40
9.500000
  0
CIRCLE
  8
0
 62
     4
 10
123.819000
 20
-123.581604
 40
45.000000
  0
CIRCLE
  8
0
 62
     1
 10
59.819000
 20
-187.581604
 40
7.000000
  0
CIRCLE
  8
0
 62
     1
 10
187.819000
 20
-187.581604
 40
7.000000
  0
CIRCLE
  8
0
 62
     1
 10
187.819000
 20
-59.581604
 40
7.000000
  0
CIRCLE
  8
0
 62
     1
 10
59.819000
 20
-59.581604
 40
7.000000
  0
CIRCLE
  8
0
 62
     4
 10
187.819000
 20
-187.581604
 40
5.600000
  0
CIRCLE
  8
0
 62
     4
 10
187.819000
 20
-59.581604
 40
5.600000
  0
CIRCLE
  8
0
 62
     4
 10
59.819000
 20
-59.581604
 40
5.600000
  0
CIRCLE
  8
0
 62
     4
 10
59.819000
 20
-187.581604
 40
5.600000
  0
CIRCLE
  8
0
 62
     4
 10
17.819000
 20
-67.581604
 40
9.500000
  0
CIRCLE
  8
0
 62
     4
 10
17.819000
 20
-179.581604
 40
9.500000
  0
CIRCLE
  8
0
 62
     4
 10
229.819000
 20
-179.581604
 40
9.500000
  0
CIRCLE
  8
0
 62
     4
 10
229.819000
 20
-67.581604
 40
9.500000
  0
TEXT
  8
0
 10
-383.285309
 20
256.649994
 40
9.000000
  1
SD R-FRANGE,-3
 50
0.000000
 41
1.052632
 51
0.000000
  7
STANDARD
  0
TEXT
  8
0
 10
242.014816
 20
-274.500000
 40
12.500000
  1
KOGANEI CORP.
 50
0.000000
 41
1.052632
 51
0.000000
  7
STANDARD
  0
TEXT
  8
0
 10
251.264664
 20
256.649994
 40
9.000000
  1
DATE: AUG ,1993
 50
0.000000
 41
1.052632
 51
0.000000
  7
STANDARD
  0
TEXT
  8
0
 10
-5.260320
 20
224.149994
 40
9.000000
  1
BORE:140
 50
0.000000
 41
1.052632
 51
0.000000
  7
STANDARD
  0
TEXT
  8
0
 10
-384.785309
 20
224.149994
 40
9.000000
  1
BORE:125
 50
0.000000
 41
1.052632
 51
0.000000
  7
STANDARD
  0
ENDSEC
  0
EOF
