  0
SECTION
  2
HEADER
  0
ENDSEC
  0
SECTION
  2
TABLES
  0
TABLE
  2
LTYPE
 70
     4
  0
LTYPE
  2
CONTINUOUS
 70
    64
  3
Solid line
 72
    65
 73
     0
 40
0.000000
  0
LTYPE
  2
DASHED
 70
    64
  3
__ __ __ __ __ __ __ __ __ __ __ __ __ __ __
 72
    65
 73
     2
 40
3.500000
 49
2.000000
 49
-1.500000
  0
LTYPE
  2
CENTER
 70
    64
  3
____ _ ____ _ ____ _ ____ _ ____ _ ____ _ ____
 72
    65
 73
     4
 40
17.500000
 49
13.000000
 49
-1.500000
 49
1.500000
 49
-1.500000
  0
LTYPE
  2
PHANTOM
 70
    64
  3
_____ _ _ _____ _ _ _____ _ _ _____ _ _ ____  
 72
    65
 73
     6
 40
15.500000
 49
8.000000
 49
-1.500000
 49
1.500000
 49
-1.500000
 49
1.500000
 49
-1.500000
  0
LTYPE
  2
DASHED1
 70
    64
  3
__ __ __ __ __ __ __ __ __ __ __ __ __ __ __
 72
    65
 73
     2
 40
1.500000
 49
1.000000
 49
-0.500000
  0
LTYPE
  2
DASHED2
 70
    64
  3
__ __ __ __ __ __ __ __ __ __ __ __ __ __ __
 72
    65
 73
     2
 40
3.500000
 49
2.500000
 49
-1.000000
  0
LTYPE
  2
DASHED3
 70
    64
  3
__ __ __ __ __ __ __ __ __ __ __ __ __ __ __
 72
    65
 73
     2
 40
6.000000
 49
4.000000
 49
-2.000000
  0
LTYPE
  2
DASHED4
 70
    64
  3
__ __ __ __ __ __ __ __ __ __ __ __ __ __ __
 72
    65
 73
     2
 40
12.000000
 49
10.000000
 49
-2.000000
  0
LTYPE
  2
DASHED5
 70
    64
  3
__ __ __ __ __ __ __ __ __ __ __ __ __ __ __
 72
    65
 73
     2
 40
17.000000
 49
15.000000
 49
-2.000000
  0
LTYPE
  2
DASHED6
 70
    64
  3
__ __ __ __ __ __ __ __ __ __ __ __ __ __ __
 72
    65
 73
     2
 40
29.000000
 49
27.000000
 49
-2.000000
  0
LTYPE
  2
PHANTOM1
 70
    64
  3
_____ _ _ _____ _ _ _____ _ _ _____ _ _ ____  
 72
    65
 73
     6
 40
31.000000
 49
25.000000
 49
-1.500000
 49
1.000000
 49
-1.000000
 49
1.000000
 49
-1.500000
  0
LTYPE
  2
PHANTOM2
 70
    64
  3
_____ _ _ _____ _ _ _____ _ _ _____ _ _ ____  
 72
    65
 73
     6
 40
36.000000
 49
27.000000
 49
-1.500000
 49
2.500000
 49
-1.000000
 49
2.500000
 49
-1.500000
  0
LTYPE
  2
PHANTOM3
 70
    64
  3
_____ _ _ _____ _ _ _____ _ _ _____ _ _ ____  
 72
    65
 73
     6
 40
78.000000
 49
64.000000
 49
-2.000000
 49
4.000000
 49
-2.000000
 49
4.000000
 49
-2.000000
  0
LTYPE
  2
CENTER1
 70
    64
  3
____ _ ____ _ ____ _ ____ _ ____ _ ____ _ ____
 72
    65
 73
     4
 40
19.000000
 49
14.000000
 49
-1.000000
 49
3.000000
 49
-1.000000
  0
LTYPE
  2
CENTER2
 70
    64
  3
____ _ ____ _ ____ _ ____ _ ____ _ ____ _ ____
 72
    65
 73
     4
 40
28.500000
 49
25.000000
 49
-1.000000
 49
1.500000
 49
-1.000000
  0
LTYPE
  2
CENTER3
 70
    64
  3
____ _ ____ _ ____ _ ____ _ ____ _ ____ _ ____
 72
    65
 73
     4
 40
31.500000
 49
27.000000
 49
-1.000000
 49
2.500000
 49
-1.000000
  0
LTYPE
  2
CENTER4
 70
    64
  3
____ _ ____ _ ____ _ ____ _ ____ _ ____ _ ____
 72
    65
 73
     4
 40
50.000000
 49
45.000000
 49
-1.000000
 49
3.000000
 49
-1.000000
  0
LTYPE
  2
CENTER5
 70
    64
  3
____ _ ____ _ ____ _ ____ _ ____ _ ____ _ ____
 72
    65
 73
     4
 40
100.000000
 49
92.000000
 49
-2.000000
 49
4.000000
 49
-2.000000
  0
LTYPE
  2
SBK1
 70
    64
  3
______ _ _ _ ______ _ _ _ ______ _ _ _ _____  
 72
    65
 73
     8
 40
60.500000
 49
45.000000
 49
-2.000000
 49
2.500000
 49
-2.000000
 49
2.500000
 49
-2.000000
 49
2.500000
 49
-2.000000
  0
LTYPE
  2
SBK2
 70
    64
  3
______ _ _ _ ______ _ _ _ ______ _ _ _ _____  
 72
    65
 73
     8
 40
84.000000
 49
64.000000
 49
-2.000000
 49
4.000000
 49
-2.000000
 49
4.000000
 49
-2.000000
 49
4.000000
 49
-2.000000
  0
LTYPE
  2
STCH
 70
    64
  3
__ __ __ __ __ __ __ __ __ __ __ __ __ __ __
 72
    65
 73
     2
 40
3.000000
 49
1.000000
 49
-2.000000
  0
LTYPE
  2
MTCH
 70
    64
  3
_____ _ _ _____ _ _ _____ _ _ _____ _ _ ____  
 72
    65
 73
     6
 40
80.000000
 49
66.000000
 49
-2.000000
 49
4.000000
 49
-2.000000
 49
4.000000
 49
-2.000000
  0
ENDTAB
  0
TABLE
  2
LAYER
 70
     1
  0
LAYER
  2
0
 70
     0
 62
     7
  6
CONTINUOUS
  0
ENDTAB
  0
TABLE
  2
STYLE
 70
     1
  0
STYLE
  2
STANDARD
 70
     0
 40
0.000000
 41
1.000000
 50
0.000000
 71
     0
 42
0.200000
  3
txt
  4
BIGFONT
  0
ENDTAB
  0
TABLE
  2
VIEW
 70
     0
  0
ENDTAB
  0
ENDSEC
  0
SECTION
  2
BLOCKS
  0
ENDSEC
  0
SECTION
  2
ENTITIES
  0
LINE
  8
0
 10
574.500000
 20
400.500000
 11
574.500000
 21
-400.500000
  0
LINE
  8
0
 10
-564.500000
 20
400.500000
 11
574.500000
 21
400.500000
  0
LINE
  8
0
 10
-564.500000
 20
-400.500000
 11
574.500000
 21
-400.500000
  0
LINE
  8
0
 10
-564.500000
 20
400.500000
 11
-564.500000
 21
-400.500000
  0
LINE
  8
0
 10
-564.500000
 20
370.500000
 11
-334.500000
 21
370.500000
  0
LINE
  8
0
 10
344.500000
 20
370.500000
 11
574.500000
 21
370.500000
  0
LINE
  8
0
 10
344.500000
 20
-370.500000
 11
574.500000
 21
-370.500000
  0
LINE
  8
0
 10
344.500000
 20
-370.500000
 11
344.500000
 21
-400.500000
  0
LINE
  8
0
 10
344.500000
 20
400.500000
 11
344.500000
 21
370.500000
  0
LINE
  8
0
 10
-334.500000
 20
400.500000
 11
-334.500000
 21
370.500000
  0
LINE
  8
0
 62
     4
 10
245.250000
 20
-77.093475
 11
245.250000
 21
-303.093475
  0
LINE
  8
0
 62
     4
 10
220.250000
 20
-77.093475
 11
245.250000
 21
-77.093475
  0
LINE
  8
0
 62
     4
 10
220.250000
 20
-303.093475
 11
245.250000
 21
-303.093475
  0
LINE
  8
0
 62
     4
 10
220.250000
 20
-77.093475
 11
220.250000
 21
-303.093475
  0
LINE
  8
0
  6
CENTER
 62
     1
 10
212.750000
 20
-99.093475
 11
252.750000
 21
-99.093475
  0
LINE
  8
0
  6
CENTER
 62
     1
 10
212.750000
 20
-190.093475
 11
252.750000
 21
-190.093475
  0
LINE
  8
0
  6
CENTER
 62
     1
 10
212.750000
 20
-281.093475
 11
252.750000
 21
-281.093475
  0
LINE
  8
0
  6
CENTER
 62
     1
 10
212.750000
 20
-265.093475
 11
252.750000
 21
-265.093475
  0
LINE
  8
0
  6
CENTER
 62
     1
 10
212.750000
 20
-115.093475
 11
252.750000
 21
-115.093475
  0
LINE
  8
0
  6
CENTER
 62
     1
 10
-270.281677
 20
-190.093475
 11
81.167358
 21
-190.093475
  0
LINE
  8
0
  6
CENTER
 62
     1
 10
-94.750000
 20
-71.179535
 11
-94.750000
 21
-311.370270
  0
LINE
  8
0
 62
     4
 10
-262.250000
 20
-77.093475
 11
72.750000
 21
-77.093475
  0
LINE
  8
0
  6
CENTER
 62
     1
 10
-3.750000
 20
-262.141083
 11
-3.750000
 21
-300.357117
  0
LINE
  8
0
  6
CENTER
 62
     1
 10
-20.770538
 20
-281.093475
 11
13.779510
 21
-281.093475
  0
LINE
  8
0
  6
CENTER
 62
     1
 10
-3.750000
 20
-80.141083
 11
-3.750000
 21
-118.357117
  0
LINE
  8
0
  6
CENTER
 62
     1
 10
-20.770538
 20
-99.093475
 11
13.779510
 21
-99.093475
  0
LINE
  8
0
  6
CENTER
 62
     1
 10
-185.750000
 20
-262.141083
 11
-185.750000
 21
-300.357117
  0
LINE
  8
0
  6
CENTER
 62
     1
 10
-202.770508
 20
-281.093475
 11
-168.220459
 21
-281.093475
  0
LINE
  8
0
  6
CENTER
 62
     1
 10
-185.750000
 20
-80.141083
 11
-185.750000
 21
-118.357117
  0
LINE
  8
0
  6
CENTER
 62
     1
 10
-202.770508
 20
-99.093475
 11
-168.220459
 21
-99.093475
  0
LINE
  8
0
 62
     4
 10
-262.250000
 20
-303.093475
 11
72.750000
 21
-303.093475
  0
LINE
  8
0
 62
     4
 10
72.750000
 20
-77.093475
 11
72.750000
 21
-303.093475
  0
LINE
  8
0
 62
     4
 10
-262.250000
 20
-77.093475
 11
-262.250000
 21
-303.093475
  0
LINE
  8
0
  6
CENTER
 62
     1
 10
25.250000
 20
-115.093475
 11
65.250000
 21
-115.093475
  0
LINE
  8
0
  6
CENTER
 62
     1
 10
45.250000
 20
-95.093475
 11
45.250000
 21
-135.093475
  0
LINE
  8
0
  6
CENTER
 62
     1
 10
45.250000
 20
-245.093475
 11
45.250000
 21
-285.093475
  0
LINE
  8
0
  6
CENTER
 62
     1
 10
25.250000
 20
-265.093475
 11
65.250000
 21
-265.093475
  0
LINE
  8
0
  6
CENTER
 62
     1
 10
-234.750000
 20
-245.093475
 11
-234.750000
 21
-285.093475
  0
LINE
  8
0
  6
CENTER
 62
     1
 10
-254.750000
 20
-265.093475
 11
-214.750000
 21
-265.093475
  0
LINE
  8
0
  6
CENTER
 62
     1
 10
-234.750000
 20
-95.093475
 11
-234.750000
 21
-135.093475
  0
LINE
  8
0
  6
CENTER
 62
     1
 10
-254.750000
 20
-115.093475
 11
-214.750000
 21
-115.093475
  0
LINE
  8
0
 62
     4
 10
220.250000
 20
-7.093475
 11
245.250000
 21
-7.093475
  0
LINE
  8
0
 62
     4
 10
220.250000
 20
327.906525
 11
245.250000
 21
327.906525
  0
LINE
  8
0
 62
     4
 10
220.250000
 20
-7.093475
 11
220.250000
 21
327.906525
  0
LINE
  8
0
 62
     4
 10
245.250000
 20
327.906525
 11
245.250000
 21
-7.093475
  0
LINE
  8
0
  6
CENTER
 62
     1
 10
212.750000
 20
160.406525
 11
252.750000
 21
160.406525
  0
LINE
  8
0
  6
CENTER
 62
     1
 10
212.750000
 20
251.406525
 11
252.750000
 21
251.406525
  0
LINE
  8
0
  6
CENTER
 62
     1
 10
212.750000
 20
300.406525
 11
252.750000
 21
300.406525
  0
LINE
  8
0
  6
CENTER
 62
     1
 10
212.750000
 20
69.406525
 11
252.750000
 21
69.406525
  0
LINE
  8
0
  6
CENTER
 62
     1
 10
212.750000
 20
20.406525
 11
252.750000
 21
20.406525
  0
CIRCLE
  8
0
 62
     4
 10
-94.750000
 20
-190.093475
 40
57.500000
  0
CIRCLE
  8
0
 62
     1
 10
-3.750000
 20
-281.093475
 40
10.000000
  0
CIRCLE
  8
0
 62
     1
 10
-3.750000
 20
-99.093475
 40
10.000000
  0
CIRCLE
  8
0
 62
     1
 10
-185.750000
 20
-281.093475
 40
10.000000
  0
CIRCLE
  8
0
 62
     1
 10
-185.750000
 20
-99.093475
 40
10.000000
  0
CIRCLE
  8
0
 62
     4
 10
-3.750000
 20
-99.093475
 40
7.400000
  0
CIRCLE
  8
0
 62
     4
 10
-3.750000
 20
-281.093475
 40
7.400000
  0
CIRCLE
  8
0
 62
     4
 10
-185.750000
 20
-281.093475
 40
7.400000
  0
CIRCLE
  8
0
 62
     4
 10
-185.750000
 20
-99.093475
 40
7.400000
  0
CIRCLE
  8
0
 62
     4
 10
-234.750000
 20
-115.093475
 40
12.000000
  0
CIRCLE
  8
0
 62
     4
 10
-234.750000
 20
-265.093475
 40
12.000000
  0
CIRCLE
  8
0
 62
     4
 10
45.250000
 20
-265.093475
 40
12.000000
  0
CIRCLE
  8
0
 62
     4
 10
45.250000
 20
-115.093475
 40
12.000000
  0
TEXT
  8
0
 10
-538.535156
 20
375.250000
 40
12.500000
  1
SD R-FRANGE,-3
 50
0.000000
 41
1.052632
 51
0.000000
  7
STANDARD
  0
TEXT
  8
0
 10
364.214844
 20
375.250000
 40
12.500000
  1
DATE: AUG ,1993
 50
0.000000
 41
1.052632
 51
0.000000
  7
STANDARD
  0
TEXT
  8
0
 10
345.179352
 20
-400.700012
 40
18.000000
  1
KOGANEI CORP.
 50
0.000000
 41
1.052632
 51
0.000000
  7
STANDARD
  0
TEXT
  8
0
 10
-542.285156
 20
330.250000
 40
12.500000
  1
BORE:200
 50
0.000000
 41
1.052632
 51
0.000000
  7
STANDARD
  0
ENDSEC
  0
EOF
