  0
SECTION
  2
HEADER
  0
ENDSEC
  0
SECTION
  2
TABLES
  0
TABLE
  2
LTYPE
 70
     4
  0
LTYPE
  2
CONTINUOUS
 70
    64
  3
Solid line
 72
    65
 73
     0
 40
0.000000
  0
LTYPE
  2
DASHED
 70
    64
  3
__ __ __ __ __ __ __ __ __ __ __ __ __ __ __
 72
    65
 73
     2
 40
3.500000
 49
2.000000
 49
-1.500000
  0
LTYPE
  2
CENTER
 70
    64
  3
____ _ ____ _ ____ _ ____ _ ____ _ ____ _ ____
 72
    65
 73
     4
 40
17.500000
 49
13.000000
 49
-1.500000
 49
1.500000
 49
-1.500000
  0
LTYPE
  2
PHANTOM
 70
    64
  3
_____ _ _ _____ _ _ _____ _ _ _____ _ _ ____  
 72
    65
 73
     6
 40
15.500000
 49
8.000000
 49
-1.500000
 49
1.500000
 49
-1.500000
 49
1.500000
 49
-1.500000
  0
LTYPE
  2
DASHED1
 70
    64
  3
__ __ __ __ __ __ __ __ __ __ __ __ __ __ __
 72
    65
 73
     2
 40
1.500000
 49
1.000000
 49
-0.500000
  0
LTYPE
  2
DASHED2
 70
    64
  3
__ __ __ __ __ __ __ __ __ __ __ __ __ __ __
 72
    65
 73
     2
 40
3.500000
 49
2.500000
 49
-1.000000
  0
LTYPE
  2
DASHED3
 70
    64
  3
__ __ __ __ __ __ __ __ __ __ __ __ __ __ __
 72
    65
 73
     2
 40
6.000000
 49
4.000000
 49
-2.000000
  0
LTYPE
  2
DASHED4
 70
    64
  3
__ __ __ __ __ __ __ __ __ __ __ __ __ __ __
 72
    65
 73
     2
 40
12.000000
 49
10.000000
 49
-2.000000
  0
LTYPE
  2
DASHED5
 70
    64
  3
__ __ __ __ __ __ __ __ __ __ __ __ __ __ __
 72
    65
 73
     2
 40
17.000000
 49
15.000000
 49
-2.000000
  0
LTYPE
  2
DASHED6
 70
    64
  3
__ __ __ __ __ __ __ __ __ __ __ __ __ __ __
 72
    65
 73
     2
 40
29.000000
 49
27.000000
 49
-2.000000
  0
LTYPE
  2
PHANTOM1
 70
    64
  3
_____ _ _ _____ _ _ _____ _ _ _____ _ _ ____  
 72
    65
 73
     6
 40
31.000000
 49
25.000000
 49
-1.500000
 49
1.000000
 49
-1.000000
 49
1.000000
 49
-1.500000
  0
LTYPE
  2
PHANTOM2
 70
    64
  3
_____ _ _ _____ _ _ _____ _ _ _____ _ _ ____  
 72
    65
 73
     6
 40
36.000000
 49
27.000000
 49
-1.500000
 49
2.500000
 49
-1.000000
 49
2.500000
 49
-1.500000
  0
LTYPE
  2
PHANTOM3
 70
    64
  3
_____ _ _ _____ _ _ _____ _ _ _____ _ _ ____  
 72
    65
 73
     6
 40
78.000000
 49
64.000000
 49
-2.000000
 49
4.000000
 49
-2.000000
 49
4.000000
 49
-2.000000
  0
LTYPE
  2
CENTER1
 70
    64
  3
____ _ ____ _ ____ _ ____ _ ____ _ ____ _ ____
 72
    65
 73
     4
 40
19.000000
 49
14.000000
 49
-1.000000
 49
3.000000
 49
-1.000000
  0
LTYPE
  2
CENTER2
 70
    64
  3
____ _ ____ _ ____ _ ____ _ ____ _ ____ _ ____
 72
    65
 73
     4
 40
28.500000
 49
25.000000
 49
-1.000000
 49
1.500000
 49
-1.000000
  0
LTYPE
  2
CENTER3
 70
    64
  3
____ _ ____ _ ____ _ ____ _ ____ _ ____ _ ____
 72
    65
 73
     4
 40
31.500000
 49
27.000000
 49
-1.000000
 49
2.500000
 49
-1.000000
  0
LTYPE
  2
CENTER4
 70
    64
  3
____ _ ____ _ ____ _ ____ _ ____ _ ____ _ ____
 72
    65
 73
     4
 40
50.000000
 49
45.000000
 49
-1.000000
 49
3.000000
 49
-1.000000
  0
LTYPE
  2
CENTER5
 70
    64
  3
____ _ ____ _ ____ _ ____ _ ____ _ ____ _ ____
 72
    65
 73
     4
 40
100.000000
 49
92.000000
 49
-2.000000
 49
4.000000
 49
-2.000000
  0
LTYPE
  2
SBK1
 70
    64
  3
______ _ _ _ ______ _ _ _ ______ _ _ _ _____  
 72
    65
 73
     8
 40
60.500000
 49
45.000000
 49
-2.000000
 49
2.500000
 49
-2.000000
 49
2.500000
 49
-2.000000
 49
2.500000
 49
-2.000000
  0
LTYPE
  2
SBK2
 70
    64
  3
______ _ _ _ ______ _ _ _ ______ _ _ _ _____  
 72
    65
 73
     8
 40
84.000000
 49
64.000000
 49
-2.000000
 49
4.000000
 49
-2.000000
 49
4.000000
 49
-2.000000
 49
4.000000
 49
-2.000000
  0
LTYPE
  2
STCH
 70
    64
  3
__ __ __ __ __ __ __ __ __ __ __ __ __ __ __
 72
    65
 73
     2
 40
3.000000
 49
1.000000
 49
-2.000000
  0
LTYPE
  2
MTCH
 70
    64
  3
_____ _ _ _____ _ _ _____ _ _ _____ _ _ ____  
 72
    65
 73
     6
 40
80.000000
 49
66.000000
 49
-2.000000
 49
4.000000
 49
-2.000000
 49
4.000000
 49
-2.000000
  0
ENDTAB
  0
TABLE
  2
LAYER
 70
     1
  0
LAYER
  2
0
 70
     0
 62
     7
  6
CONTINUOUS
  0
ENDTAB
  0
TABLE
  2
STYLE
 70
     1
  0
STYLE
  2
STANDARD
 70
     0
 40
0.000000
 41
1.000000
 50
0.000000
 71
     0
 42
0.200000
  3
txt
  4
BIGFONT
  0
ENDTAB
  0
TABLE
  2
VIEW
 70
     0
  0
ENDTAB
  0
ENDSEC
  0
SECTION
  2
BLOCKS
  0
ENDSEC
  0
SECTION
  2
ENTITIES
  0
LINE
  8
0
 10
574.500000
 20
400.500000
 11
574.500000
 21
-400.500000
  0
LINE
  8
0
 10
-564.500000
 20
400.500000
 11
574.500000
 21
400.500000
  0
LINE
  8
0
 10
-564.500000
 20
-400.500000
 11
574.500000
 21
-400.500000
  0
LINE
  8
0
 10
-564.500000
 20
400.500000
 11
-564.500000
 21
-400.500000
  0
LINE
  8
0
 10
-564.500000
 20
370.500000
 11
-334.500000
 21
370.500000
  0
LINE
  8
0
 10
344.500000
 20
370.500000
 11
574.500000
 21
370.500000
  0
LINE
  8
0
 10
344.500000
 20
-370.500000
 11
574.500000
 21
-370.500000
  0
LINE
  8
0
 10
344.500000
 20
-370.500000
 11
344.500000
 21
-400.500000
  0
LINE
  8
0
 10
344.500000
 20
400.500000
 11
344.500000
 21
370.500000
  0
LINE
  8
0
 10
-334.500000
 20
400.500000
 11
-334.500000
 21
370.500000
  0
LINE
  8
0
 10
1.000000
 20
-400.500000
 11
1.000000
 21
400.500000
  0
LINE
  8
0
 10
-417.481445
 20
-156.219666
 11
-417.481445
 21
-172.712097
  0
LINE
  8
0
 10
-449.481445
 20
-156.219666
 11
-449.481445
 21
-172.712097
  0
LINE
  8
0
  6
CENTER
 62
     2
 10
-554.849854
 20
-164.465881
 11
-311.044586
 21
-164.465881
  0
LINE
  8
0
  6
CENTER
 62
     2
 10
-433.481445
 20
-78.179108
 11
-433.481445
 21
-254.987457
  0
LINE
  8
0
 10
-360.981445
 20
-91.965881
 11
-360.981445
 21
-236.965881
  0
LINE
  8
0
 10
-505.981445
 20
-91.965881
 11
-505.981445
 21
-236.965881
  0
LINE
  8
0
 10
-505.981445
 20
-91.965881
 11
-360.981445
 21
-91.965881
  0
LINE
  8
0
 10
-505.981445
 20
-236.965881
 11
-360.981445
 21
-236.965881
  0
LINE
  8
0
  6
CENTER
 62
     2
 10
-375.981445
 20
-92.465881
 11
-375.981445
 21
-121.465881
  0
LINE
  8
0
  6
CENTER
 62
     2
 10
-490.981445
 20
-91.965881
 11
-490.981445
 21
-120.465881
  0
LINE
  8
0
  6
CENTER
 62
     2
 10
-504.231445
 20
-106.965881
 11
-477.231445
 21
-106.965881
  0
LINE
  8
0
  6
CENTER
 62
     2
 10
-504.481445
 20
-221.965881
 11
-477.481445
 21
-221.965881
  0
LINE
  8
0
 10
-479.981445
 20
-215.615051
 11
-479.981445
 21
-228.316742
  0
LINE
  8
0
 10
-501.981445
 20
-215.615051
 11
-501.981445
 21
-228.316742
  0
LINE
  8
0
 10
-501.981201
 20
-215.615112
 11
-490.981232
 21
-209.264297
  0
LINE
  8
0
 10
-490.981354
 20
-234.667816
 11
-479.981232
 21
-228.316879
  0
LINE
  8
0
 10
-490.981201
 20
-209.263885
 11
-479.981293
 21
-215.614716
  0
LINE
  8
0
 10
-501.981384
 20
-228.316635
 11
-490.981415
 21
-234.667465
  0
LINE
  8
0
  6
CENTER
 62
     2
 10
-490.981445
 20
-206.965881
 11
-490.981445
 21
-236.715881
  0
LINE
  8
0
  6
CENTER
 62
     2
 10
-388.231445
 20
-221.965881
 11
-361.981445
 21
-221.965881
  0
LINE
  8
0
  6
CENTER
 62
     2
 10
-375.981445
 20
-206.215881
 11
-375.981445
 21
-235.465881
  0
LINE
  8
0
  6
CENTER
 62
     2
 10
-389.231445
 20
-106.965881
 11
-362.981445
 21
-106.965881
  0
LINE
  8
0
  6
CENTER
 62
     2
 10
-43.731453
 20
-164.465881
 11
-203.731445
 21
-164.465881
  0
LINE
  8
0
  6
CENTER
 62
     2
 10
-188.731445
 20
-106.965881
 11
-28.731453
 21
-106.965881
  0
LINE
  8
0
  6
CENTER
 62
     2
 10
-218.731445
 20
-221.965881
 11
-58.731453
 21
-221.965881
  0
LINE
  8
0
 10
-148.731445
 20
-99.965881
 11
-160.682648
 21
-99.965881
  0
LINE
  8
0
 10
-148.731445
 20
-113.965881
 11
-164.433945
 21
-113.965881
  0
LINE
  8
0
 10
-148.731445
 20
-214.965881
 11
-191.496811
 21
-214.965881
  0
LINE
  8
0
 10
-148.731445
 20
-228.965881
 11
-195.248108
 21
-228.965881
  0
LINE
  8
0
 10
-460.894592
 20
-187.636459
 11
-457.548523
 21
-188.533035
  0
LINE
  8
0
 10
-462.447571
 20
-193.432053
 11
-459.101471
 21
-194.328644
  0
LINE
  8
0
 10
-463.343933
 20
-190.085754
 11
-462.447357
 21
-193.431839
  0
LINE
  8
0
 10
-457.548309
 20
-188.532852
 11
-456.651733
 21
-191.878860
  0
LINE
  8
0
 10
-459.101257
 20
-194.328476
 11
-456.651764
 21
-191.878998
  0
LINE
  8
0
 10
-463.343994
 20
-190.085831
 11
-460.894470
 21
-187.636322
  0
LINE
  8
0
 10
-459.101196
 20
-134.603195
 11
-456.651703
 21
-137.052704
  0
LINE
  8
0
 10
-456.652039
 20
-137.052750
 11
-457.548615
 21
-140.398819
  0
LINE
  8
0
 10
-462.447632
 20
-135.499847
 11
-463.344208
 21
-138.845901
  0
LINE
  8
0
 10
-459.101318
 20
-134.603287
 11
-462.447388
 21
-135.499863
  0
LINE
  8
0
 10
-457.548462
 20
-140.398849
 11
-460.894470
 21
-141.295395
  0
LINE
  8
0
 10
-463.343872
 20
-138.845810
 11
-460.894409
 21
-141.295288
  0
LINE
  8
0
 10
-406.068207
 20
-187.636185
 11
-403.618713
 21
-190.085693
  0
LINE
  8
0
 10
-403.618988
 20
-190.085770
 11
-404.515564
 21
-193.431854
  0
LINE
  8
0
 10
-409.414551
 20
-188.532852
 11
-410.311127
 21
-191.878906
  0
LINE
  8
0
 10
-406.068329
 20
-187.636322
 11
-409.414398
 21
-188.532898
  0
LINE
  8
0
 10
-404.515411
 20
-193.431854
 11
-407.861450
 21
-194.328415
  0
LINE
  8
0
 10
-410.310913
 20
-191.878830
 11
-407.861420
 21
-194.328308
  0
LINE
  8
0
 10
-410.310913
 20
-137.052826
 11
-407.861420
 21
-134.603333
  0
LINE
  8
0
 10
-407.861603
 20
-134.603439
 11
-404.515503
 21
-135.500015
  0
LINE
  8
0
 10
-409.414490
 20
-140.398956
 11
-406.068420
 21
-141.295532
  0
LINE
  8
0
 10
-410.310913
 20
-137.052750
 11
-409.414337
 21
-140.398819
  0
LINE
  8
0
 10
-404.515320
 20
-135.499893
 11
-403.618744
 21
-138.845901
  0
LINE
  8
0
 10
-406.068298
 20
-141.295486
 11
-403.618835
 21
-138.846039
  0
LINE
  8
0
 10
-364.981445
 20
-215.615051
 11
-364.981445
 21
-228.316742
  0
LINE
  8
0
 10
-386.981445
 20
-215.615051
 11
-386.981445
 21
-228.316742
  0
LINE
  8
0
 10
-386.981354
 20
-215.615036
 11
-375.981384
 21
-209.264221
  0
LINE
  8
0
 10
-375.981354
 20
-234.667572
 11
-364.981354
 21
-228.316711
  0
LINE
  8
0
 10
-375.981232
 20
-209.263916
 11
-364.981293
 21
-215.614746
  0
LINE
  8
0
 10
-386.981384
 20
-228.316666
 11
-375.981384
 21
-234.667496
  0
LINE
  8
0
 10
-364.981445
 20
-100.615036
 11
-364.981445
 21
-113.316742
  0
LINE
  8
0
 10
-386.981445
 20
-100.615036
 11
-386.981445
 21
-113.316742
  0
LINE
  8
0
 10
-386.981323
 20
-100.615158
 11
-375.981323
 21
-94.264328
  0
LINE
  8
0
 10
-375.981262
 20
-119.667816
 11
-364.981232
 21
-113.316956
  0
LINE
  8
0
 10
-375.981293
 20
-94.263969
 11
-364.981354
 21
-100.614807
  0
LINE
  8
0
 10
-386.981445
 20
-113.316780
 11
-375.981476
 21
-119.667603
  0
LINE
  8
0
 10
-479.981445
 20
-100.615036
 11
-479.981445
 21
-113.316742
  0
LINE
  8
0
 10
-501.981445
 20
-100.615036
 11
-501.981445
 21
-113.316742
  0
LINE
  8
0
 10
-501.981262
 20
-100.615318
 11
-490.981232
 21
-94.264481
  0
LINE
  8
0
 10
-490.981110
 20
-119.667961
 11
-479.981110
 21
-113.317101
  0
LINE
  8
0
 10
-490.981232
 20
-94.263962
 11
-479.981293
 21
-100.614799
  0
LINE
  8
0
 10
-501.981384
 20
-113.316727
 11
-490.981354
 21
-119.667580
  0
LINE
  8
0
 10
-85.640816
 20
-214.965881
 11
-98.731453
 21
-214.965881
  0
LINE
  8
0
 10
-89.392105
 20
-228.965881
 11
-98.731453
 21
-228.965881
  0
LINE
  8
0
 10
-58.577946
 20
-113.965881
 11
-98.731453
 21
-113.965881
  0
LINE
  8
0
 10
-54.826656
 20
-99.965881
 11
-98.731453
 21
-99.965881
  0
LINE
  8
0
 10
-148.731445
 20
-231.965881
 11
-196.051956
 21
-231.965881
  0
LINE
  8
0
 10
-90.195953
 20
-231.965881
 11
-98.731453
 21
-231.965881
  0
LINE
  8
0
 10
-54.022808
 20
-96.965881
 11
-98.731453
 21
-96.965881
  0
LINE
  8
0
 10
-148.731445
 20
-96.965881
 11
-159.878799
 21
-96.965881
  0
LINE
  8
0
 10
160.999237
 20
-156.219666
 11
160.999237
 21
-172.712097
  0
LINE
  8
0
 10
128.999237
 20
-156.219666
 11
128.999237
 21
-172.712097
  0
LINE
  8
0
  6
CENTER
 62
     2
 10
5.832336
 20
-164.465881
 11
284.332336
 21
-164.465881
  0
LINE
  8
0
  6
CENTER
 62
     2
 10
144.999237
 20
-68.366516
 11
144.999237
 21
-260.097412
  0
LINE
  8
0
  6
CENTER
 62
     2
 10
208.999237
 20
-85.965881
 11
208.999237
 21
-114.965881
  0
LINE
  8
0
  6
CENTER
 62
     2
 10
80.999237
 20
-85.465881
 11
80.999237
 21
-113.965881
  0
LINE
  8
0
  6
CENTER
 62
     2
 10
67.749237
 20
-100.465881
 11
94.749237
 21
-100.465881
  0
LINE
  8
0
  6
CENTER
 62
     2
 10
67.499237
 20
-228.465881
 11
94.499237
 21
-228.465881
  0
LINE
  8
0
 10
91.999237
 20
-222.115021
 11
91.999237
 21
-234.816742
  0
LINE
  8
0
 10
69.999237
 20
-222.115021
 11
69.999237
 21
-234.816742
  0
LINE
  8
0
 10
69.999283
 20
-222.114975
 11
80.999275
 21
-215.764160
  0
LINE
  8
0
 10
80.999168
 20
-241.167603
 11
91.999207
 21
-234.816727
  0
LINE
  8
0
 10
80.999382
 20
-215.763885
 11
91.999306
 21
-222.114716
  0
LINE
  8
0
 10
69.999306
 20
-234.816727
 11
80.999260
 21
-241.167542
  0
LINE
  8
0
  6
CENTER
 62
     2
 10
80.999237
 20
-213.465881
 11
80.999237
 21
-243.215881
  0
LINE
  8
0
  6
CENTER
 62
     2
 10
196.749237
 20
-228.465881
 11
222.999237
 21
-228.465881
  0
LINE
  8
0
  6
CENTER
 62
     2
 10
208.999237
 20
-212.715881
 11
208.999237
 21
-241.965881
  0
LINE
  8
0
  6
CENTER
 62
     2
 10
195.749237
 20
-100.465881
 11
221.999237
 21
-100.465881
  0
LINE
  8
0
  6
CENTER
 62
     2
 10
374.014526
 20
-164.465881
 11
521.483948
 21
-164.465881
  0
LINE
  8
0
  6
CENTER
 62
     2
 10
391.163269
 20
-100.465881
 11
538.632690
 21
-100.465881
  0
LINE
  8
0
  6
CENTER
 62
     2
 10
356.865784
 20
-228.465881
 11
504.335144
 21
-228.465881
  0
LINE
  8
0
 10
117.586113
 20
-187.636368
 11
120.932190
 21
-188.532944
  0
LINE
  8
0
 10
116.033157
 20
-193.432037
 11
119.379227
 21
-194.328613
  0
LINE
  8
0
 10
115.136703
 20
-190.085785
 11
116.033279
 21
-193.431854
  0
LINE
  8
0
 10
120.932266
 20
-188.532944
 11
121.828827
 21
-191.878967
  0
LINE
  8
0
 10
119.379288
 20
-194.328415
 11
121.828766
 21
-191.878937
  0
LINE
  8
0
 10
115.136650
 20
-190.085785
 11
117.586151
 21
-187.636292
  0
LINE
  8
0
 10
119.379372
 20
-134.603287
 11
121.828857
 21
-137.052765
  0
LINE
  8
0
 10
121.828827
 20
-137.052811
 11
120.932243
 21
-140.398911
  0
LINE
  8
0
 10
116.033188
 20
-135.499863
 11
115.136612
 21
-138.845917
  0
LINE
  8
0
 10
119.379364
 20
-134.603302
 11
116.033287
 21
-135.499878
  0
LINE
  8
0
 10
120.932259
 20
-140.398880
 11
117.586243
 21
-141.295441
  0
LINE
  8
0
 10
115.136696
 20
-138.845886
 11
117.586136
 21
-141.295334
  0
LINE
  8
0
 10
172.412415
 20
-187.636292
 11
174.861908
 21
-190.085800
  0
LINE
  8
0
 10
174.861877
 20
-190.085800
 11
173.965302
 21
-193.431885
  0
LINE
  8
0
 10
169.066223
 20
-188.532898
 11
168.169647
 21
-191.878952
  0
LINE
  8
0
 10
172.412384
 20
-187.636322
 11
169.066299
 21
-188.532898
  0
LINE
  8
0
 10
173.965225
 20
-193.431885
 11
170.619202
 21
-194.328445
  0
LINE
  8
0
 10
168.169708
 20
-191.878922
 11
170.619186
 21
-194.328384
  0
LINE
  8
0
 10
168.169662
 20
-137.052765
 11
170.619171
 21
-134.603271
  0
LINE
  8
0
 10
170.619156
 20
-134.603363
 11
173.965195
 21
-135.499939
  0
LINE
  8
0
 10
169.066193
 20
-140.398941
 11
172.412277
 21
-141.295517
  0
LINE
  8
0
 10
168.169693
 20
-137.052795
 11
169.066269
 21
-140.398849
  0
LINE
  8
0
 10
173.965286
 20
-135.499908
 11
174.861847
 21
-138.845932
  0
LINE
  8
0
 10
172.412338
 20
-141.295410
 11
174.861816
 21
-138.845947
  0
LINE
  8
0
 10
219.999237
 20
-222.115021
 11
219.999237
 21
-234.816742
  0
LINE
  8
0
 10
197.999237
 20
-222.115021
 11
197.999237
 21
-234.816742
  0
LINE
  8
0
 10
197.999146
 20
-222.114807
 11
208.999176
 21
-215.763962
  0
LINE
  8
0
 10
208.999069
 20
-241.167282
 11
219.999100
 21
-234.816406
  0
LINE
  8
0
 10
208.999329
 20
-215.764023
 11
219.999252
 21
-222.114853
  0
LINE
  8
0
 10
197.999283
 20
-234.816696
 11
208.999252
 21
-241.167511
  0
LINE
  8
0
 10
219.999237
 20
-94.115036
 11
219.999237
 21
-106.816742
  0
LINE
  8
0
 10
197.999237
 20
-94.115036
 11
197.999237
 21
-106.816742
  0
LINE
  8
0
 10
197.999298
 20
-94.114990
 11
208.999298
 21
-87.764160
  0
LINE
  8
0
 10
208.999191
 20
-113.167580
 11
219.999237
 21
-106.816704
  0
LINE
  8
0
 10
208.999191
 20
-87.764145
 11
219.999115
 21
-94.114975
  0
LINE
  8
0
 10
197.999252
 20
-106.816719
 11
208.999222
 21
-113.167542
  0
LINE
  8
0
 10
91.999237
 20
-94.115036
 11
91.999237
 21
-106.816742
  0
LINE
  8
0
 10
69.999237
 20
-94.115036
 11
69.999237
 21
-106.816742
  0
LINE
  8
0
 10
69.999397
 20
-94.115158
 11
80.999420
 21
-87.764328
  0
LINE
  8
0
 10
80.999367
 20
-113.167786
 11
91.999405
 21
-106.816902
  0
LINE
  8
0
 10
80.999321
 20
-87.764122
 11
91.999222
 21
-94.114929
  0
LINE
  8
0
 10
69.999252
 20
-106.816696
 11
80.999252
 21
-113.167542
  0
LINE
  8
0
 10
64.999237
 20
-84.465881
 11
64.999237
 21
-244.465881
  0
LINE
  8
0
 10
224.999237
 20
-84.465881
 11
224.999237
 21
-244.465881
  0
LINE
  8
0
 10
64.999237
 20
-244.465881
 11
224.999237
 21
-244.465881
  0
LINE
  8
0
 10
64.999237
 20
-84.465881
 11
224.999237
 21
-84.465881
  0
LINE
  8
0
 10
420.249237
 20
-93.465881
 11
408.568085
 21
-93.465881
  0
LINE
  8
0
 10
420.249237
 20
-107.465881
 11
404.816772
 21
-107.465881
  0
LINE
  8
0
 10
420.249237
 20
-221.465881
 11
374.270569
 21
-221.465881
  0
LINE
  8
0
 10
420.249237
 20
-235.465881
 11
370.519287
 21
-235.465881
  0
LINE
  8
0
 10
420.249237
 20
-239.465881
 11
369.447479
 21
-239.465881
  0
LINE
  8
0
 10
420.249237
 20
-89.465881
 11
409.639862
 21
-89.465881
  0
LINE
  8
0
 10
475.249268
 20
-235.465881
 11
486.930389
 21
-235.465881
  0
LINE
  8
0
 10
475.249268
 20
-93.465881
 11
524.979187
 21
-93.465881
  0
LINE
  8
0
 10
475.249268
 20
-221.465881
 11
490.681671
 21
-221.465881
  0
LINE
  8
0
 10
475.249268
 20
-107.465881
 11
521.227905
 21
-107.465881
  0
LINE
  8
0
 10
475.249268
 20
-239.465881
 11
485.858582
 21
-239.465881
  0
LINE
  8
0
 10
475.249268
 20
-89.465881
 11
526.050964
 21
-89.465881
  0
LINE
  8
0
  6
CENTER
 10
-198.670883
 20
-241.739914
 11
-157.259842
 21
-87.191818
  0
LINE
  8
0
  6
CENTER
 10
-92.814896
 20
-241.739914
 11
-51.403862
 21
-87.191826
  0
LINE
  8
0
  6
CENTER
 10
368.838104
 20
-241.739944
 11
410.249146
 21
-87.191826
  0
LINE
  8
0
  6
CENTER
 10
485.249176
 20
-241.739914
 11
526.660217
 21
-87.191826
  0
LINE
  8
0
 62
     4
 10
-148.731445
 20
-194.465881
 11
-98.731445
 21
-194.465881
  0
LINE
  8
0
 62
     4
 10
-148.731445
 20
-134.465881
 11
-98.731445
 21
-134.465881
  0
LINE
  8
0
  6
CENTER
 62
     1
 10
-123.731445
 20
-74.300568
 11
-123.731445
 21
-254.567413
  0
LINE
  8
0
 62
     4
 10
-148.731445
 20
-82.465881
 11
-148.731445
 21
-246.465881
  0
LINE
  8
0
 62
     4
 10
-98.731445
 20
-82.465881
 11
-98.731445
 21
-246.465881
  0
LINE
  8
0
 62
     4
 10
-148.731445
 20
-246.465881
 11
-98.731445
 21
-246.465881
  0
LINE
  8
0
 62
     4
 10
-148.731445
 20
-82.465881
 11
-98.731445
 21
-82.465881
  0
LINE
  8
0
 62
     4
 10
-148.731445
 20
-236.965881
 11
-98.731445
 21
-236.965881
  0
LINE
  8
0
 62
     4
 10
-148.731445
 20
-91.965881
 11
-98.731445
 21
-91.965881
  0
LINE
  8
0
 62
     4
 10
-518.481445
 20
-194.465881
 11
-513.481445
 21
-194.465881
  0
LINE
  8
0
 62
     4
 10
-518.481445
 20
-134.465881
 11
-513.481445
 21
-134.465881
  0
LINE
  8
0
 62
     4
 10
-348.481445
 20
-134.465881
 11
-348.481445
 21
-194.465881
  0
LINE
  8
0
 62
     4
 10
-518.481445
 20
-134.465881
 11
-518.481445
 21
-194.465881
  0
LINE
  8
0
 62
     4
 10
-550.481445
 20
-148.465881
 11
-550.481445
 21
-180.465881
  0
LINE
  8
0
 62
     4
 10
-316.481445
 20
-148.465881
 11
-316.481445
 21
-180.465881
  0
LINE
  8
0
 62
     4
 10
-550.481445
 20
-180.465881
 11
-518.481445
 21
-180.465881
  0
LINE
  8
0
 62
     4
 10
-550.481445
 20
-148.465881
 11
-518.481445
 21
-148.465881
  0
LINE
  8
0
 62
     4
 10
-353.481537
 20
-134.465912
 11
-360.981537
 21
-105.081818
  0
LINE
  8
0
 62
     4
 10
-353.481506
 20
-194.465866
 11
-360.981476
 21
-223.849930
  0
LINE
  8
0
 62
     4
 10
-513.481628
 20
-194.465881
 11
-505.981598
 21
-223.849976
  0
LINE
  8
0
 62
     4
 10
-513.481506
 20
-134.465866
 11
-505.981506
 21
-105.081749
  0
LINE
  8
0
 62
     4
 10
-348.481445
 20
-148.465881
 11
-316.481445
 21
-148.465881
  0
LINE
  8
0
 62
     4
 10
-348.481445
 20
-180.465881
 11
-316.481445
 21
-180.465881
  0
LINE
  8
0
 62
     4
 10
-353.481445
 20
-194.465881
 11
-348.481445
 21
-194.465881
  0
LINE
  8
0
 62
     4
 10
-353.481445
 20
-134.465881
 11
-348.481445
 21
-134.465881
  0
LINE
  8
0
 62
     4
 10
-107.731453
 20
259.256744
 11
-139.731445
 21
259.256744
  0
LINE
  8
0
 62
     4
 10
-98.731453
 20
227.256744
 11
-148.731445
 21
227.256744
  0
LINE
  8
0
 62
     4
 10
-98.731453
 20
222.256744
 11
-148.731445
 21
222.256744
  0
LINE
  8
0
  6
CENTER
 62
     1
 10
-73.731453
 20
142.256744
 11
-173.731445
 21
142.256744
  0
LINE
  8
0
 62
     4
 10
-98.731453
 20
62.256744
 11
-148.731445
 21
62.256744
  0
LINE
  8
0
 62
     4
 10
-98.731453
 20
57.256744
 11
-148.731445
 21
57.256744
  0
LINE
  8
0
 62
     4
 10
-107.731453
 20
25.256744
 11
-139.731445
 21
25.256744
  0
LINE
  8
0
  6
CENTER
 62
     1
 10
-123.731453
 20
271.777893
 11
-123.731453
 21
11.628555
  0
LINE
  8
0
 62
     4
 10
-98.731453
 20
227.256744
 11
-98.731453
 21
57.256744
  0
LINE
  8
0
 62
     4
 10
-148.731445
 20
227.256744
 11
-148.731445
 21
57.256744
  0
LINE
  8
0
 62
     4
 10
-107.731453
 20
259.256744
 11
-107.731453
 21
227.256744
  0
LINE
  8
0
 62
     4
 10
-139.731445
 20
259.256744
 11
-139.731445
 21
227.256744
  0
LINE
  8
0
 62
     4
 10
-139.731445
 20
57.256744
 11
-139.731445
 21
25.256744
  0
LINE
  8
0
 62
     4
 10
-107.731453
 20
57.256744
 11
-107.731453
 21
25.256744
  0
LINE
  8
0
  6
CENTER
 62
     1
 10
447.749237
 20
-67.759865
 11
447.749237
 21
-264.451385
  0
LINE
  8
0
 62
     4
 10
420.249237
 20
-72.465889
 11
420.249237
 21
-256.465881
  0
LINE
  8
0
 62
     4
 10
475.249268
 20
-72.465889
 11
475.249268
 21
-256.465881
  0
LINE
  8
0
 62
     4
 10
420.249237
 20
-199.465881
 11
475.249268
 21
-199.465881
  0
LINE
  8
0
 62
     4
 10
420.249237
 20
-129.465881
 11
475.249268
 21
-129.465881
  0
LINE
  8
0
 62
     4
 10
420.249237
 20
-244.465881
 11
475.249268
 21
-244.465881
  0
LINE
  8
0
 62
     4
 10
420.249237
 20
-84.465889
 11
475.249268
 21
-84.465889
  0
LINE
  8
0
 62
     4
 10
420.249237
 20
-256.465881
 11
475.249268
 21
-256.465881
  0
LINE
  8
0
 62
     4
 10
420.249237
 20
-72.465889
 11
475.249268
 21
-72.465889
  0
LINE
  8
0
 62
     4
 10
275.999237
 20
-146.465881
 11
275.999237
 21
-182.465881
  0
LINE
  8
0
 62
     4
 10
13.999237
 20
-146.465881
 11
13.999237
 21
-182.465881
  0
LINE
  8
0
 62
     4
 10
49.999237
 20
-129.465881
 11
49.999237
 21
-199.465881
  0
LINE
  8
0
 62
     4
 10
239.999237
 20
-129.465881
 11
239.999237
 21
-199.465881
  0
LINE
  8
0
 62
     4
 10
13.999237
 20
-182.465881
 11
49.999237
 21
-182.465881
  0
LINE
  8
0
 62
     4
 10
13.999237
 20
-146.465881
 11
49.999237
 21
-146.465881
  0
LINE
  8
0
 62
     4
 10
49.999237
 20
-129.465881
 11
54.999237
 21
-129.465881
  0
LINE
  8
0
 62
     4
 10
49.999237
 20
-199.465881
 11
54.999237
 21
-199.465881
  0
LINE
  8
0
 62
     4
 10
239.999237
 20
-146.465881
 11
275.999237
 21
-146.465881
  0
LINE
  8
0
 62
     4
 10
239.999237
 20
-182.465881
 11
275.999237
 21
-182.465881
  0
LINE
  8
0
 62
     4
 10
234.999237
 20
-129.465881
 11
239.999237
 21
-129.465881
  0
LINE
  8
0
 62
     4
 10
234.999237
 20
-199.465881
 11
239.999237
 21
-199.465881
  0
LINE
  8
0
 62
     4
 10
234.999390
 20
-129.465866
 11
224.999374
 21
-97.985619
  0
LINE
  8
0
 62
     4
 10
54.999184
 20
-129.465851
 11
64.999168
 21
-97.985680
  0
LINE
  8
0
 62
     4
 10
54.999134
 20
-199.465927
 11
64.999153
 21
-230.946182
  0
LINE
  8
0
 62
     4
 10
234.999466
 20
-199.465912
 11
224.999451
 21
-230.946152
  0
LINE
  8
0
 62
     4
 10
465.749268
 20
278.780090
 11
429.749237
 21
278.780090
  0
LINE
  8
0
 62
     4
 10
475.249268
 20
242.780090
 11
420.249237
 21
242.780090
  0
LINE
  8
0
 62
     4
 10
475.249268
 20
237.780090
 11
420.249237
 21
237.780090
  0
LINE
  8
0
  6
CENTER
 62
     1
 10
497.749268
 20
147.780090
 11
397.749237
 21
147.780090
  0
LINE
  8
0
 62
     4
 10
475.249268
 20
57.780090
 11
420.249237
 21
57.780090
  0
LINE
  8
0
 62
     4
 10
475.249268
 20
52.780090
 11
420.249237
 21
52.780090
  0
LINE
  8
0
 62
     4
 10
465.749268
 20
16.780090
 11
429.749237
 21
16.780090
  0
LINE
  8
0
 62
     4
 10
420.249237
 20
242.780090
 11
420.249237
 21
52.780090
  0
LINE
  8
0
 62
     4
 10
475.249268
 20
242.780090
 11
475.249268
 21
52.780090
  0
LINE
  8
0
  6
CENTER
 62
     1
 10
447.749237
 20
286.570160
 11
447.749237
 21
7.808502
  0
LINE
  8
0
 62
     4
 10
429.749237
 20
278.780090
 11
429.749237
 21
242.780090
  0
LINE
  8
0
 62
     4
 10
465.749268
 20
278.780090
 11
465.749268
 21
242.780090
  0
LINE
  8
0
 62
     4
 10
429.749237
 20
52.780090
 11
429.749237
 21
16.780090
  0
LINE
  8
0
 62
     4
 10
465.749268
 20
52.780090
 11
465.749268
 21
16.780090
  0
ARC
  8
0
 10
-464.202087
 20
-144.755646
 40
0.999999
 50
58.297192
 51
147.315308
  0
CIRCLE
  8
0
 10
-433.481445
 20
-164.465881
 40
15.000000
  0
CIRCLE
  8
0
 10
-433.481445
 20
-164.465881
 40
18.000000
  0
CIRCLE
  8
0
 10
-433.481445
 20
-164.465881
 40
30.000000
  0
ARC
  8
0
 10
-433.481445
 20
-164.465881
 40
37.500000
 50
0.000000
 51
32.684078
  0
ARC
  8
0
 10
-459.997955
 20
-190.982391
 40
7.000000
 50
0.000000
 51
121.703087
  0
ARC
  8
0
 10
-459.997955
 20
-137.949371
 40
7.000000
 50
0.000000
 51
31.702848
  0
ARC
  8
0
 10
-406.964935
 20
-137.949371
 40
7.000012
 50
148.297150
 51
301.702820
  0
ARC
  8
0
 10
-433.481445
 20
-164.465881
 40
37.500004
 50
57.315922
 51
122.684090
  0
ARC
  8
0
 10
-413.771210
 20
-133.745270
 40
1.000012
 50
328.297638
 51
57.315781
  0
ARC
  8
0
 10
-402.760834
 20
-144.755646
 40
0.999987
 50
32.684692
 51
121.702805
  0
ARC
  8
0
 10
-433.481445
 20
-164.465881
 40
37.499996
 50
327.315948
 51
0.000000
  0
ARC
  8
0
 10
-406.964935
 20
-190.982391
 40
7.000007
 50
58.296978
 51
211.702850
  0
ARC
  8
0
 10
-402.760834
 20
-184.176117
 40
0.999999
 50
238.297195
 51
327.316254
  0
ARC
  8
0
 10
-413.771210
 20
-195.186493
 40
1.000000
 50
302.684235
 51
31.703268
  0
ARC
  8
0
 10
-433.481445
 20
-164.465881
 40
37.499992
 50
237.315903
 51
302.684082
  0
ARC
  8
0
 10
-459.997955
 20
-190.982391
 40
6.999986
 50
328.297028
 51
0.000000
  0
ARC
  8
0
 10
-453.191681
 20
-195.186493
 40
1.000012
 50
148.297653
 51
237.315781
  0
ARC
  8
0
 10
-464.202087
 20
-184.176117
 40
1.000013
 50
212.683746
 51
301.702820
  0
ARC
  8
0
 10
-433.481445
 20
-164.465881
 40
37.499996
 50
147.315948
 51
212.684021
  0
ARC
  8
0
 10
-459.997955
 20
-137.949371
 40
6.999994
 50
238.296921
 51
0.000000
  0
ARC
  8
0
 10
-453.191681
 20
-133.745270
 40
1.000000
 50
122.684219
 51
211.703262
  0
CIRCLE
  8
0
 10
-433.481445
 20
-164.465881
 40
45.000000
  0
CIRCLE
  8
0
 10
-490.981445
 20
-221.965881
 40
7.000000
  0
CIRCLE
  8
0
 10
-459.997955
 20
-190.982391
 40
6.500000
  0
CIRCLE
  8
0
 10
-406.964935
 20
-190.982391
 40
6.500000
  0
CIRCLE
  8
0
 10
-406.964935
 20
-137.949371
 40
6.500000
  0
CIRCLE
  8
0
 10
-459.997955
 20
-137.949371
 40
6.500000
  0
CIRCLE
  8
0
 10
-490.981445
 20
-221.965881
 40
10.500000
  0
CIRCLE
  8
0
 10
-375.981445
 20
-221.965881
 40
7.000000
  0
CIRCLE
  8
0
 10
-375.981445
 20
-221.965881
 40
10.500000
  0
CIRCLE
  8
0
 10
-375.981445
 20
-106.965881
 40
7.000000
  0
CIRCLE
  8
0
 10
-375.981445
 20
-106.965881
 40
10.500000
  0
CIRCLE
  8
0
 10
-490.981445
 20
-106.965881
 40
7.000000
  0
CIRCLE
  8
0
 10
-490.981445
 20
-106.965881
 40
10.500000
  0
CIRCLE
  8
0
 62
     2
 10
-375.981445
 20
-106.965881
 40
5.600000
  0
CIRCLE
  8
0
 62
     2
 10
-490.981445
 20
-106.965881
 40
5.600000
  0
CIRCLE
  8
0
 62
     2
 10
-375.981445
 20
-221.965881
 40
5.600000
  0
CIRCLE
  8
0
 62
     2
 10
-490.981445
 20
-221.965881
 40
5.600000
  0
CIRCLE
  8
0
 62
     2
 10
-433.481445
 20
-164.465881
 40
13.600000
  0
ARC
  8
0
 10
114.278595
 20
-144.755646
 40
0.999999
 50
58.297192
 51
147.315781
  0
CIRCLE
  8
0
 10
144.999237
 20
-164.465881
 40
15.000000
  0
CIRCLE
  8
0
 10
144.999237
 20
-164.465881
 40
18.000000
  0
CIRCLE
  8
0
 10
144.999237
 20
-164.465881
 40
30.000000
  0
ARC
  8
0
 10
144.999237
 20
-164.465881
 40
37.500000
 50
0.000000
 51
32.684078
  0
ARC
  8
0
 10
118.482727
 20
-190.982391
 40
7.000000
 50
0.000000
 51
121.703087
  0
ARC
  8
0
 10
118.482727
 20
-137.949371
 40
7.000000
 50
0.000000
 51
31.702881
  0
ARC
  8
0
 10
171.515747
 20
-137.949371
 40
7.000000
 50
148.297089
 51
301.702911
  0
ARC
  8
0
 10
144.999237
 20
-164.465881
 40
37.500004
 50
57.315922
 51
122.684113
  0
ARC
  8
0
 10
164.709473
 20
-133.745270
 40
0.999999
 50
328.297180
 51
57.315781
  0
ARC
  8
0
 10
175.719879
 20
-144.755646
 40
1.000000
 50
32.684219
 51
121.702805
  0
ARC
  8
0
 10
144.999237
 20
-164.465881
 40
37.499996
 50
327.315948
 51
0.000000
  0
ARC
  8
0
 10
171.515747
 20
-190.982391
 40
7.000000
 50
58.297085
 51
211.702911
  0
ARC
  8
0
 10
175.719879
 20
-184.176117
 40
0.999999
 50
238.297195
 51
327.315765
  0
ARC
  8
0
 10
164.709473
 20
-195.186508
 40
1.000000
 50
302.684235
 51
31.702808
  0
ARC
  8
0
 10
144.999237
 20
-164.465881
 40
37.500000
 50
237.315887
 51
302.684082
  0
ARC
  8
0
 10
118.482727
 20
-190.982391
 40
7.000000
 50
328.297089
 51
0.000000
  0
ARC
  8
0
 10
125.289001
 20
-195.186508
 40
0.999999
 50
148.297195
 51
237.315781
  0
ARC
  8
0
 10
114.278595
 20
-184.176117
 40
1.000000
 50
212.684219
 51
301.702820
  0
ARC
  8
0
 10
144.999237
 20
-164.465881
 40
37.500004
 50
147.315948
 51
212.684021
  0
ARC
  8
0
 10
118.482727
 20
-137.949371
 40
6.999994
 50
238.296921
 51
0.000000
  0
ARC
  8
0
 10
125.289001
 20
-133.745270
 40
1.000000
 50
122.684219
 51
211.702805
  0
CIRCLE
  8
0
 10
144.999237
 20
-164.465881
 40
45.000000
  0
CIRCLE
  8
0
 10
80.999237
 20
-228.465881
 40
7.000000
  0
CIRCLE
  8
0
 10
118.482727
 20
-190.982391
 40
6.500000
  0
CIRCLE
  8
0
 10
171.515747
 20
-190.982391
 40
6.500000
  0
CIRCLE
  8
0
 10
171.515747
 20
-137.949371
 40
6.500000
  0
CIRCLE
  8
0
 10
118.482727
 20
-137.949371
 40
6.500000
  0
CIRCLE
  8
0
 10
118.482727
 20
-190.982391
 40
3.430000
  0
CIRCLE
  8
0
 10
118.482727
 20
-137.949371
 40
3.430000
  0
CIRCLE
  8
0
 10
171.515747
 20
-190.982391
 40
3.430000
  0
CIRCLE
  8
0
 10
171.515747
 20
-137.949371
 40
3.430000
  0
CIRCLE
  8
0
 10
80.999237
 20
-228.465881
 40
10.500000
  0
CIRCLE
  8
0
 10
208.999237
 20
-228.465881
 40
7.000000
  0
CIRCLE
  8
0
 10
208.999237
 20
-228.465881
 40
10.500000
  0
CIRCLE
  8
0
 10
208.999237
 20
-100.465881
 40
7.000000
  0
CIRCLE
  8
0
 10
208.999237
 20
-100.465881
 40
10.500000
  0
CIRCLE
  8
0
 10
80.999237
 20
-100.465881
 40
7.000000
  0
CIRCLE
  8
0
 10
80.999237
 20
-100.465881
 40
10.500000
  0
CIRCLE
  8
0
 62
     2
 10
208.999237
 20
-228.465881
 40
5.600000
  0
CIRCLE
  8
0
 62
     2
 10
208.999237
 20
-100.465881
 40
5.600000
  0
CIRCLE
  8
0
 62
     2
 10
80.999237
 20
-100.465881
 40
5.600000
  0
CIRCLE
  8
0
 62
     2
 10
80.999237
 20
-228.465881
 40
5.600000
  0
CIRCLE
  8
0
 62
     2
 10
144.999237
 20
-164.465881
 40
13.600000
  0
CIRCLE
  8
0
 62
     4
 10
-123.731445
 20
-164.465881
 40
16.000000
  0
ARC
  8
0
 62
     4
 10
-433.481445
 20
-164.465881
 40
82.000000
 50
62.146660
 51
117.853363
  0
ARC
  8
0
 62
     4
 10
-433.481445
 20
-164.465881
 40
82.000008
 50
242.146637
 51
297.853333
  0
CIRCLE
  8
0
 62
     4
 10
447.749237
 20
-164.465881
 40
18.000000
  0
ARC
  8
0
 62
     4
 10
144.999237
 20
-164.465881
 40
92.000000
 50
60.408150
 51
119.591858
  0
ARC
  8
0
 62
     4
 10
144.999237
 20
-164.465881
 40
91.999992
 50
240.408142
 51
299.591827
  0
TEXT
  8
0
 10
-544.785156
 20
375.250000
 40
12.500000
  1
SD TRUNNION,-11
 50
0.000000
 41
1.052632
 51
0.000000
  7
STANDARD
  0
TEXT
  8
0
 10
23.214844
 20
330.250000
 40
12.500000
  1
BORE:140
 50
0.000000
 41
1.052632
 51
0.000000
  7
STANDARD
  0
TEXT
  8
0
 10
364.214844
 20
375.250000
 40
12.500000
  1
DATE: AUG ,1993
 50
0.000000
 41
1.052632
 51
0.000000
  7
STANDARD
  0
TEXT
  8
0
 10
345.179352
 20
-400.700012
 40
18.000000
  1
KOGANEI CORP.
 50
0.000000
 41
1.052632
 51
0.000000
  7
STANDARD
  0
TEXT
  8
0
 10
-542.285156
 20
330.250000
 40
12.500000
  1
BORE:125
 50
0.000000
 41
1.052632
 51
0.000000
  7
STANDARD
  0
ENDSEC
  0
EOF
