  0
SECTION
  2
HEADER
  0
ENDSEC
  0
SECTION
  2
TABLES
  0
TABLE
  2
LTYPE
 70
     4
  0
LTYPE
  2
CONTINUOUS
 70
    64
  3
Solid line
 72
    65
 73
     0
 40
0.000000
  0
LTYPE
  2
DASHED
 70
    64
  3
__ __ __ __ __ __ __ __ __ __ __ __ __ __ __
 72
    65
 73
     2
 40
3.500000
 49
2.000000
 49
-1.500000
  0
LTYPE
  2
CENTER
 70
    64
  3
____ _ ____ _ ____ _ ____ _ ____ _ ____ _ ____
 72
    65
 73
     4
 40
17.500000
 49
13.000000
 49
-1.500000
 49
1.500000
 49
-1.500000
  0
LTYPE
  2
PHANTOM
 70
    64
  3
_____ _ _ _____ _ _ _____ _ _ _____ _ _ ____  
 72
    65
 73
     6
 40
15.500000
 49
8.000000
 49
-1.500000
 49
1.500000
 49
-1.500000
 49
1.500000
 49
-1.500000
  0
LTYPE
  2
DASHED1
 70
    64
  3
__ __ __ __ __ __ __ __ __ __ __ __ __ __ __
 72
    65
 73
     2
 40
1.500000
 49
1.000000
 49
-0.500000
  0
LTYPE
  2
DASHED2
 70
    64
  3
__ __ __ __ __ __ __ __ __ __ __ __ __ __ __
 72
    65
 73
     2
 40
3.500000
 49
2.500000
 49
-1.000000
  0
LTYPE
  2
DASHED3
 70
    64
  3
__ __ __ __ __ __ __ __ __ __ __ __ __ __ __
 72
    65
 73
     2
 40
6.000000
 49
4.000000
 49
-2.000000
  0
LTYPE
  2
DASHED4
 70
    64
  3
__ __ __ __ __ __ __ __ __ __ __ __ __ __ __
 72
    65
 73
     2
 40
12.000000
 49
10.000000
 49
-2.000000
  0
LTYPE
  2
DASHED5
 70
    64
  3
__ __ __ __ __ __ __ __ __ __ __ __ __ __ __
 72
    65
 73
     2
 40
17.000000
 49
15.000000
 49
-2.000000
  0
LTYPE
  2
DASHED6
 70
    64
  3
__ __ __ __ __ __ __ __ __ __ __ __ __ __ __
 72
    65
 73
     2
 40
29.000000
 49
27.000000
 49
-2.000000
  0
LTYPE
  2
PHANTOM1
 70
    64
  3
_____ _ _ _____ _ _ _____ _ _ _____ _ _ ____  
 72
    65
 73
     6
 40
31.000000
 49
25.000000
 49
-1.500000
 49
1.000000
 49
-1.000000
 49
1.000000
 49
-1.500000
  0
LTYPE
  2
PHANTOM2
 70
    64
  3
_____ _ _ _____ _ _ _____ _ _ _____ _ _ ____  
 72
    65
 73
     6
 40
36.000000
 49
27.000000
 49
-1.500000
 49
2.500000
 49
-1.000000
 49
2.500000
 49
-1.500000
  0
LTYPE
  2
PHANTOM3
 70
    64
  3
_____ _ _ _____ _ _ _____ _ _ _____ _ _ ____  
 72
    65
 73
     6
 40
78.000000
 49
64.000000
 49
-2.000000
 49
4.000000
 49
-2.000000
 49
4.000000
 49
-2.000000
  0
LTYPE
  2
CENTER1
 70
    64
  3
____ _ ____ _ ____ _ ____ _ ____ _ ____ _ ____
 72
    65
 73
     4
 40
19.000000
 49
14.000000
 49
-1.000000
 49
3.000000
 49
-1.000000
  0
LTYPE
  2
CENTER2
 70
    64
  3
____ _ ____ _ ____ _ ____ _ ____ _ ____ _ ____
 72
    65
 73
     4
 40
28.500000
 49
25.000000
 49
-1.000000
 49
1.500000
 49
-1.000000
  0
LTYPE
  2
CENTER3
 70
    64
  3
____ _ ____ _ ____ _ ____ _ ____ _ ____ _ ____
 72
    65
 73
     4
 40
31.500000
 49
27.000000
 49
-1.000000
 49
2.500000
 49
-1.000000
  0
LTYPE
  2
CENTER4
 70
    64
  3
____ _ ____ _ ____ _ ____ _ ____ _ ____ _ ____
 72
    65
 73
     4
 40
50.000000
 49
45.000000
 49
-1.000000
 49
3.000000
 49
-1.000000
  0
LTYPE
  2
CENTER5
 70
    64
  3
____ _ ____ _ ____ _ ____ _ ____ _ ____ _ ____
 72
    65
 73
     4
 40
100.000000
 49
92.000000
 49
-2.000000
 49
4.000000
 49
-2.000000
  0
LTYPE
  2
SBK1
 70
    64
  3
______ _ _ _ ______ _ _ _ ______ _ _ _ _____  
 72
    65
 73
     8
 40
60.500000
 49
45.000000
 49
-2.000000
 49
2.500000
 49
-2.000000
 49
2.500000
 49
-2.000000
 49
2.500000
 49
-2.000000
  0
LTYPE
  2
SBK2
 70
    64
  3
______ _ _ _ ______ _ _ _ ______ _ _ _ _____  
 72
    65
 73
     8
 40
84.000000
 49
64.000000
 49
-2.000000
 49
4.000000
 49
-2.000000
 49
4.000000
 49
-2.000000
 49
4.000000
 49
-2.000000
  0
LTYPE
  2
STCH
 70
    64
  3
__ __ __ __ __ __ __ __ __ __ __ __ __ __ __
 72
    65
 73
     2
 40
3.000000
 49
1.000000
 49
-2.000000
  0
LTYPE
  2
MTCH
 70
    64
  3
_____ _ _ _____ _ _ _____ _ _ _____ _ _ ____  
 72
    65
 73
     6
 40
80.000000
 49
66.000000
 49
-2.000000
 49
4.000000
 49
-2.000000
 49
4.000000
 49
-2.000000
  0
ENDTAB
  0
TABLE
  2
LAYER
 70
     1
  0
LAYER
  2
0
 70
     0
 62
     7
  6
CONTINUOUS
  0
ENDTAB
  0
TABLE
  2
STYLE
 70
     1
  0
STYLE
  2
STANDARD
 70
     0
 40
0.000000
 41
1.000000
 50
0.000000
 71
     0
 42
0.200000
  3
txt
  4
BIGFONT
  0
ENDTAB
  0
TABLE
  2
VIEW
 70
     0
  0
ENDTAB
  0
ENDSEC
  0
SECTION
  2
BLOCKS
  0
ENDSEC
  0
SECTION
  2
ENTITIES
  0
LINE
  8
0
 10
574.500000
 20
400.500000
 11
574.500000
 21
-400.500000
  0
LINE
  8
0
 10
-564.500000
 20
400.500000
 11
574.500000
 21
400.500000
  0
LINE
  8
0
 10
-564.500000
 20
-400.500000
 11
574.500000
 21
-400.500000
  0
LINE
  8
0
 10
-564.500000
 20
400.500000
 11
-564.500000
 21
-400.500000
  0
LINE
  8
0
 10
-564.500000
 20
370.500000
 11
-334.500000
 21
370.500000
  0
LINE
  8
0
 10
344.500000
 20
370.500000
 11
574.500000
 21
370.500000
  0
LINE
  8
0
 10
344.500000
 20
-370.500000
 11
574.500000
 21
-370.500000
  0
LINE
  8
0
 10
344.500000
 20
400.500000
 11
344.500000
 21
370.500000
  0
LINE
  8
0
 10
-334.500000
 20
400.500000
 11
-334.500000
 21
370.500000
  0
LINE
  8
0
  6
CENTER
 62
     2
 10
-371.854614
 20
-209.750732
 11
2.958450
 21
-209.750732
  0
LINE
  8
0
 10
-150.270798
 20
-238.523254
 11
-147.004822
 21
-241.789215
  0
LINE
  8
0
 10
-155.927689
 20
-244.180145
 11
-152.661682
 21
-247.446152
  0
LINE
  8
0
 10
-147.005219
 20
-241.789246
 11
-148.200668
 21
-246.250687
  0
LINE
  8
0
 10
-154.732651
 20
-239.718674
 11
-155.928085
 21
-244.180099
  0
LINE
  8
0
 10
-152.661743
 20
-247.446213
 11
-148.200333
 21
-246.250778
  0
LINE
  8
0
 10
-154.732269
 20
-239.718842
 11
-150.270874
 21
-238.523422
  0
LINE
  8
0
 10
-155.927567
 20
-175.321411
 11
-152.661606
 21
-172.055435
  0
LINE
  8
0
 10
-150.270737
 20
-180.978241
 11
-147.004761
 21
-177.712250
  0
LINE
  8
0
 10
-152.661652
 20
-172.055344
 11
-148.200226
 21
-173.250778
  0
LINE
  8
0
 10
-154.732208
 20
-179.782761
 11
-150.270813
 21
-180.978180
  0
LINE
  8
0
 10
-147.004822
 20
-177.712219
 11
-148.200256
 21
-173.250793
  0
LINE
  8
0
 10
-154.732269
 20
-179.782806
 11
-155.927704
 21
-175.321381
  0
LINE
  8
0
 10
-219.129669
 20
-180.977936
 11
-222.395630
 21
-177.711975
  0
LINE
  8
0
 10
-213.472702
 20
-175.321198
 11
-216.738708
 21
-172.055191
  0
LINE
  8
0
 10
-222.395828
 20
-177.712097
 11
-221.200378
 21
-173.250671
  0
LINE
  8
0
 10
-214.668350
 20
-179.782623
 11
-213.472916
 21
-175.321213
  0
LINE
  8
0
 10
-216.738800
 20
-172.055267
 11
-221.200195
 21
-173.250687
  0
LINE
  8
0
 10
-214.668289
 20
-179.782700
 11
-219.129700
 21
-180.978134
  0
LINE
  8
0
 10
-213.472931
 20
-244.180191
 11
-216.738907
 21
-247.446167
  0
LINE
  8
0
 10
-219.129715
 20
-238.523315
 11
-222.395721
 21
-241.789322
  0
LINE
  8
0
 10
-216.738922
 20
-247.446304
 11
-221.200378
 21
-246.250870
  0
LINE
  8
0
 10
-214.668350
 20
-239.718811
 11
-219.129761
 21
-238.523376
  0
LINE
  8
0
 10
-222.395462
 20
-241.789154
 11
-221.200027
 21
-246.250580
  0
LINE
  8
0
 10
-214.668076
 20
-239.718613
 11
-213.472656
 21
-244.180038
  0
LINE
  8
0
 10
-161.700302
 20
-199.952774
 11
-161.700302
 21
-219.548691
  0
LINE
  8
0
 10
-207.700302
 20
-199.952774
 11
-207.700302
 21
-219.548691
  0
LINE
  8
0
 10
-71.700302
 20
-96.750732
 11
-71.700302
 21
-322.750732
  0
LINE
  8
0
 10
-297.700317
 20
-96.750732
 11
-297.700317
 21
-322.750732
  0
LINE
  8
0
 10
-297.700317
 20
-96.750732
 11
-71.700302
 21
-96.750732
  0
LINE
  8
0
  6
CENTER
 62
     2
 10
-93.700302
 20
-281.798340
 11
-93.700302
 21
-320.014374
  0
LINE
  8
0
  6
CENTER
 62
     2
 10
-110.720840
 20
-300.750732
 11
-76.170792
 21
-300.750732
  0
LINE
  8
0
 10
-78.700302
 20
-292.090485
 11
-78.700302
 21
-309.410980
  0
LINE
  8
0
 10
-108.700302
 20
-292.090485
 11
-108.700302
 21
-309.410980
  0
LINE
  8
0
 10
-93.700340
 20
-283.430298
 11
-78.700333
 21
-292.090576
  0
LINE
  8
0
 10
-108.700356
 20
-309.411133
 11
-93.700317
 21
-318.071411
  0
LINE
  8
0
 10
-93.700294
 20
-318.071289
 11
-78.700279
 21
-309.411041
  0
LINE
  8
0
 10
-108.700340
 20
-292.090454
 11
-93.700317
 21
-283.430176
  0
LINE
  8
0
  6
CENTER
 62
     2
 10
-93.700302
 20
-99.798340
 11
-93.700302
 21
-138.014374
  0
LINE
  8
0
  6
CENTER
 62
     2
 10
-110.720840
 20
-118.750732
 11
-76.170792
 21
-118.750732
  0
LINE
  8
0
 10
-78.700302
 20
-110.090485
 11
-78.700302
 21
-127.410980
  0
LINE
  8
0
 10
-108.700302
 20
-110.090469
 11
-108.700302
 21
-127.410980
  0
LINE
  8
0
 10
-93.700317
 20
-101.430252
 11
-78.700294
 21
-110.090515
  0
LINE
  8
0
 10
-108.700310
 20
-127.411018
 11
-93.700294
 21
-136.071289
  0
LINE
  8
0
 10
-93.700356
 20
-136.071136
 11
-78.700340
 21
-127.410866
  0
LINE
  8
0
 10
-108.700340
 20
-110.090370
 11
-93.700348
 21
-101.430122
  0
LINE
  8
0
  6
CENTER
 62
     2
 10
-275.700317
 20
-281.798340
 11
-275.700317
 21
-320.014374
  0
LINE
  8
0
  6
CENTER
 62
     2
 10
-292.720825
 20
-300.750732
 11
-258.170776
 21
-300.750732
  0
LINE
  8
0
 10
-260.700317
 20
-292.090485
 11
-260.700317
 21
-309.410980
  0
LINE
  8
0
 10
-290.700317
 20
-292.090454
 11
-290.700317
 21
-309.410980
  0
LINE
  8
0
 10
-275.700378
 20
-283.430420
 11
-260.700409
 21
-292.090668
  0
LINE
  8
0
 10
-290.700439
 20
-309.411194
 11
-275.700409
 21
-318.071472
  0
LINE
  8
0
 10
-275.700348
 20
-318.071198
 11
-260.700348
 21
-309.410950
  0
LINE
  8
0
 10
-290.700378
 20
-292.090424
 11
-275.700378
 21
-283.430176
  0
LINE
  8
0
  6
CENTER
 62
     2
 10
-275.700317
 20
-99.798340
 11
-275.700317
 21
-138.014374
  0
LINE
  8
0
  6
CENTER
 62
     2
 10
-292.720825
 20
-118.750732
 11
-258.170776
 21
-118.750732
  0
LINE
  8
0
 10
-260.700317
 20
-110.090485
 11
-260.700317
 21
-127.410980
  0
LINE
  8
0
 10
-290.700317
 20
-110.090469
 11
-290.700317
 21
-127.410980
  0
LINE
  8
0
 10
-275.700348
 20
-101.430267
 11
-260.700348
 21
-110.090515
  0
LINE
  8
0
 10
-290.700348
 20
-127.411057
 11
-275.700317
 21
-136.071335
  0
LINE
  8
0
 10
-275.700378
 20
-136.071136
 11
-260.700378
 21
-127.410873
  0
LINE
  8
0
 10
-290.700439
 20
-110.090279
 11
-275.700439
 21
-101.430031
  0
LINE
  8
0
 10
-297.700317
 20
-322.750732
 11
-71.700302
 21
-322.750732
  0
LINE
  8
0
  6
CENTER
 62
     2
 10
82.817978
 20
-300.750732
 11
252.097168
 21
-300.750732
  0
LINE
  8
0
  6
CENTER
 62
     2
 10
131.584702
 20
-118.750732
 11
300.863892
 21
-118.750732
  0
LINE
  8
0
  6
CENTER
 62
     2
 10
107.201340
 20
-209.750732
 11
276.480530
 21
-209.750732
  0
LINE
  8
0
 10
225.549698
 20
-103.250732
 11
294.664215
 21
-103.250732
  0
LINE
  8
0
 10
225.549698
 20
-108.750732
 11
293.190491
 21
-108.750732
  0
LINE
  8
0
 10
225.549698
 20
-128.750732
 11
287.831512
 21
-128.750732
  0
LINE
  8
0
 10
225.549698
 20
-290.750732
 11
244.423767
 21
-290.750732
  0
LINE
  8
0
 10
225.549698
 20
-310.750732
 11
239.064789
 21
-310.750732
  0
LINE
  8
0
 10
225.549698
 20
-316.250732
 11
237.591064
 21
-316.250732
  0
LINE
  8
0
  6
CENTER
 62
     2
 10
-184.700302
 20
-74.670609
 11
-184.700302
 21
-354.136475
  0
LINE
  8
0
  6
PHANTOM
 62
     2
 10
297.343445
 20
-93.252548
 11
235.549789
 21
-323.869690
  0
LINE
  8
0
  6
PHANTOM
 62
     2
 10
148.549698
 20
-94.073555
 11
87.497139
 21
-321.924957
  0
LINE
  8
0
 10
146.090607
 20
-103.250732
 11
158.549698
 21
-103.250732
  0
LINE
  8
0
 10
144.616882
 20
-108.750732
 11
158.549698
 21
-108.750732
  0
LINE
  8
0
 10
139.257904
 20
-128.750732
 11
158.549698
 21
-128.750732
  0
LINE
  8
0
 10
95.850159
 20
-290.750732
 11
158.549698
 21
-290.750732
  0
LINE
  8
0
 10
90.491180
 20
-310.750732
 11
158.549698
 21
-310.750732
  0
LINE
  8
0
 10
89.017456
 20
-316.250732
 11
158.549698
 21
-316.250732
  0
LINE
  8
0
 10
344.500000
 20
-370.500000
 11
344.500000
 21
-400.500000
  0
LINE
  8
0
  6
CENTER
 62
     1
 10
192.049698
 20
-75.750732
 11
192.049698
 21
-346.750732
  0
LINE
  8
0
 62
     4
 10
158.549698
 20
-82.250732
 11
158.549698
 21
-337.250732
  0
LINE
  8
0
 62
     4
 10
225.549698
 20
-82.250732
 11
225.549698
 21
-337.250732
  0
LINE
  8
0
 62
     4
 10
158.549698
 20
-254.750732
 11
225.549698
 21
-254.750732
  0
LINE
  8
0
 62
     4
 10
158.549698
 20
-164.750732
 11
225.549698
 21
-164.750732
  0
LINE
  8
0
 62
     4
 10
158.549698
 20
-337.250732
 11
225.549698
 21
-337.250732
  0
LINE
  8
0
 62
     4
 10
158.549698
 20
-82.250732
 11
225.549698
 21
-82.250732
  0
LINE
  8
0
 62
     4
 10
158.549698
 20
-117.250732
 11
225.549698
 21
-117.250732
  0
LINE
  8
0
 62
     4
 10
158.549698
 20
-302.250732
 11
225.549698
 21
-302.250732
  0
LINE
  8
0
 62
     4
 10
-57.200302
 20
-117.250748
 11
-57.200302
 21
-164.750732
  0
LINE
  8
0
 62
     4
 10
-312.200317
 20
-117.250732
 11
-312.200317
 21
-164.750732
  0
LINE
  8
0
 62
     4
 10
-277.200317
 20
-337.250732
 11
-92.200302
 21
-337.250732
  0
LINE
  8
0
 62
     4
 10
-277.200378
 20
-82.250732
 11
-92.200302
 21
-82.250732
  0
LINE
  8
0
 62
     4
 10
-317.200317
 20
-164.750732
 11
-317.200317
 21
-254.750732
  0
LINE
  8
0
 62
     4
 10
-52.200302
 20
-164.750732
 11
-52.200302
 21
-254.750732
  0
LINE
  8
0
 62
     4
 10
-7.200302
 20
-187.250732
 11
-7.200302
 21
-232.250732
  0
LINE
  8
0
 62
     4
 10
-362.200317
 20
-187.250732
 11
-362.200317
 21
-232.250732
  0
LINE
  8
0
 62
     4
 10
-362.200317
 20
-187.250732
 11
-317.200317
 21
-187.250732
  0
LINE
  8
0
 62
     4
 10
-362.200317
 20
-232.250732
 11
-317.200317
 21
-232.250732
  0
LINE
  8
0
 62
     4
 10
-317.200317
 20
-254.750732
 11
-312.200317
 21
-254.750732
  0
LINE
  8
0
 62
     4
 10
-317.200317
 20
-164.750732
 11
-312.200317
 21
-164.750732
  0
LINE
  8
0
 62
     4
 10
-57.200302
 20
-164.750732
 11
-52.200302
 21
-164.750732
  0
LINE
  8
0
 62
     4
 10
-57.200302
 20
-254.750732
 11
-52.200302
 21
-254.750732
  0
LINE
  8
0
 62
     4
 10
-52.200302
 20
-232.250732
 11
-7.200302
 21
-232.250732
  0
LINE
  8
0
 62
     4
 10
-52.200302
 20
-187.250732
 11
-7.200302
 21
-187.250732
  0
LINE
  8
0
 62
     4
 10
-57.200302
 20
-254.750732
 11
-57.200302
 21
-302.250732
  0
LINE
  8
0
 62
     4
 10
-312.200317
 20
-254.750732
 11
-312.200317
 21
-302.250732
  0
LINE
  8
0
 62
     4
 10
-312.200256
 20
-117.250824
 11
-297.700256
 21
-102.750809
  0
LINE
  8
0
 62
     4
 10
-92.200272
 20
-82.250725
 11
-77.700294
 21
-96.750710
  0
LINE
  8
0
 62
     4
 10
-57.200306
 20
-302.250732
 11
-71.700317
 21
-316.750763
  0
LINE
  8
0
 62
     4
 10
-312.200287
 20
-302.250671
 11
-297.700287
 21
-316.750702
  0
LINE
  8
0
 62
     4
 10
-291.700256
 20
-322.750702
 11
-277.200287
 21
-337.250671
  0
LINE
  8
0
 62
     4
 10
-77.700287
 20
-322.750702
 11
-92.200333
 21
-337.250763
  0
LINE
  8
0
 62
     4
 10
-71.700287
 20
-102.750717
 11
-57.200287
 21
-117.250725
  0
LINE
  8
0
 62
     4
 10
-291.700256
 20
-96.750793
 11
-277.200317
 21
-82.250809
  0
LINE
  8
0
 62
     4
 10
158.549698
 20
305.622620
 11
158.549698
 21
40.622620
  0
LINE
  8
0
 62
     4
 10
225.549698
 20
305.622620
 11
225.549698
 21
40.622620
  0
LINE
  8
0
 62
     4
 10
214.549698
 20
350.622620
 11
214.549698
 21
305.622620
  0
LINE
  8
0
 62
     4
 10
169.549698
 20
350.622620
 11
169.549698
 21
305.622620
  0
LINE
  8
0
  6
CENTER
 62
     1
 10
192.049698
 20
368.122620
 11
192.049698
 21
-21.877380
  0
LINE
  8
0
 62
     4
 10
214.549698
 20
350.622620
 11
169.549698
 21
350.622620
  0
LINE
  8
0
 62
     4
 10
225.549698
 20
305.622620
 11
158.549698
 21
305.622620
  0
LINE
  8
0
 62
     4
 10
225.549698
 20
300.622620
 11
158.549698
 21
300.622620
  0
LINE
  8
0
 62
     4
 10
225.549698
 20
265.622681
 11
158.549698
 21
265.622681
  0
LINE
  8
0
  6
CENTER
 62
     1
 10
252.049698
 20
173.122620
 11
132.049698
 21
173.122620
  0
LINE
  8
0
 62
     4
 10
225.549698
 20
80.622620
 11
158.549698
 21
80.622620
  0
LINE
  8
0
 62
     4
 10
225.549698
 20
45.622620
 11
158.549698
 21
45.622620
  0
LINE
  8
0
 62
     4
 10
225.549698
 20
45.622620
 11
158.549698
 21
45.622620
  0
LINE
  8
0
 62
     4
 10
225.549698
 20
40.622620
 11
158.549698
 21
40.622620
  0
LINE
  8
0
 62
     4
 10
214.549698
 20
-4.377380
 11
169.549698
 21
-4.377380
  0
LINE
  8
0
 62
     4
 10
169.549698
 20
40.622620
 11
169.549698
 21
-4.377380
  0
LINE
  8
0
 62
     4
 10
214.549698
 20
40.622620
 11
214.549698
 21
-4.377380
  0
CIRCLE
  8
0
 10
-184.700302
 20
-209.750732
 40
57.500000
  0
ARC
  8
0
 10
-151.466324
 20
-242.984802
 40
10.000008
 50
56.944412
 51
213.055389
  0
CIRCLE
  8
0
 10
-151.466324
 20
-242.984802
 40
8.000000
  0
CIRCLE
  8
0
 10
-151.466232
 20
-176.516754
 40
8.000000
  0
CIRCLE
  8
0
 10
-217.934280
 20
-176.516663
 40
8.000000
  0
CIRCLE
  8
0
 10
-217.934372
 20
-242.984711
 40
8.000000
  0
ARC
  8
0
 10
-145.466293
 20
-185.736328
 40
0.999999
 50
31.470844
 51
123.055977
  0
ARC
  8
0
 10
-145.466354
 20
-233.765259
 40
1.000009
 50
236.944504
 51
328.530365
  0
ARC
  8
0
 10
-184.700302
 20
-209.750732
 40
46.999996
 50
328.529846
 51
31.470057
  0
ARC
  8
0
 10
-151.466232
 20
-176.516754
 40
9.999995
 50
146.944366
 51
303.055389
  0
ARC
  8
0
 10
-160.685776
 20
-170.516785
 40
1.000009
 50
326.944489
 51
58.530357
  0
ARC
  8
0
 10
-184.700302
 20
-209.750732
 40
46.999996
 50
58.529835
 51
121.470055
  0
ARC
  8
0
 10
-208.714706
 20
-170.516724
 40
0.999999
 50
121.470840
 51
213.055969
  0
ARC
  8
0
 10
-217.934280
 20
-176.516663
 40
10.000008
 50
236.944412
 51
33.055393
  0
ARC
  8
0
 10
-223.934250
 20
-185.736221
 40
1.000009
 50
56.944504
 51
148.530365
  0
ARC
  8
0
 10
-184.700302
 20
-209.750732
 40
46.999996
 50
148.529831
 51
211.470062
  0
ARC
  8
0
 10
-223.934311
 20
-233.765137
 40
0.999999
 50
211.470840
 51
303.055969
  0
ARC
  8
0
 10
-217.934372
 20
-242.984711
 40
10.000008
 50
326.944397
 51
123.055397
  0
ARC
  8
0
 10
-208.714828
 20
-248.984680
 40
1.000009
 50
146.944504
 51
238.530365
  0
ARC
  8
0
 10
-184.700302
 20
-209.750732
 40
46.999996
 50
238.529831
 51
301.470062
  0
ARC
  8
0
 10
-160.685898
 20
-248.984741
 40
0.999999
 50
301.470856
 51
33.055973
  0
CIRCLE
  8
0
 10
-184.700302
 20
-209.750732
 40
25.000000
  0
CIRCLE
  8
0
 10
-184.700302
 20
-209.750732
 40
22.500000
  0
CIRCLE
  8
0
 10
-184.700302
 20
-209.750732
 40
35.000000
  0
CIRCLE
  8
0
 10
-93.700302
 20
-300.750732
 40
14.500000
  0
CIRCLE
  8
0
 10
-93.700302
 20
-300.750732
 40
10.000000
  0
CIRCLE
  8
0
 10
-93.700302
 20
-118.750732
 40
14.500000
  0
CIRCLE
  8
0
 10
-93.700302
 20
-118.750732
 40
10.000000
  0
CIRCLE
  8
0
 10
-275.700317
 20
-300.750732
 40
14.500000
  0
CIRCLE
  8
0
 10
-275.700317
 20
-300.750732
 40
10.000000
  0
CIRCLE
  8
0
 10
-275.700317
 20
-118.750732
 40
10.000000
  0
CIRCLE
  8
0
 10
-275.700317
 20
-118.750732
 40
14.500000
  0
CIRCLE
  8
0
 62
     2
 10
-184.700302
 20
-209.750732
 40
19.900000
  0
CIRCLE
  8
0
 62
     2
 10
-93.700302
 20
-118.750732
 40
7.400000
  0
CIRCLE
  8
0
 62
     2
 10
-93.700302
 20
-300.750732
 40
7.400000
  0
CIRCLE
  8
0
 62
     2
 10
-275.700317
 20
-300.750732
 40
7.400000
  0
CIRCLE
  8
0
 62
     2
 10
-275.700317
 20
-118.750732
 40
7.400000
  0
CIRCLE
  8
0
 62
     4
 10
192.049698
 20
-209.750732
 40
22.500000
  0
TEXT
  8
0
 10
-544.785156
 20
375.250000
 40
12.500000
  1
SD TRUNNION,-11
 50
0.000000
 41
1.052632
 51
0.000000
  7
STANDARD
  0
TEXT
  8
0
 10
364.214844
 20
375.250000
 40
12.500000
  1
DATE: AUG ,1993
 50
0.000000
 41
1.052632
 51
0.000000
  7
STANDARD
  0
TEXT
  8
0
 10
345.179352
 20
-400.700012
 40
18.000000
  1
KOGANEI CORP.
 50
0.000000
 41
1.052632
 51
0.000000
  7
STANDARD
  0
TEXT
  8
0
 10
-542.285156
 20
330.250000
 40
12.500000
  1
BORE:200
 50
0.000000
 41
1.052632
 51
0.000000
  7
STANDARD
  0
ENDSEC
  0
EOF
