  0
SECTION
  2
HEADER
  0
ENDSEC
  0
SECTION
  2
TABLES
  0
TABLE
  2
LTYPE
 70
     4
  0
LTYPE
  2
CONTINUOUS
 70
    64
  3
Solid line
 72
    65
 73
     0
 40
0.000000
  0
LTYPE
  2
DASHED
 70
    64
  3
__ __ __ __ __ __ __ __ __ __ __ __ __ __ __
 72
    65
 73
     2
 40
3.500000
 49
2.000000
 49
-1.500000
  0
LTYPE
  2
CENTER
 70
    64
  3
____ _ ____ _ ____ _ ____ _ ____ _ ____ _ ____
 72
    65
 73
     4
 40
17.500000
 49
13.000000
 49
-1.500000
 49
1.500000
 49
-1.500000
  0
LTYPE
  2
PHANTOM
 70
    64
  3
_____ _ _ _____ _ _ _____ _ _ _____ _ _ ____  
 72
    65
 73
     6
 40
15.500000
 49
8.000000
 49
-1.500000
 49
1.500000
 49
-1.500000
 49
1.500000
 49
-1.500000
  0
LTYPE
  2
DASHED1
 70
    64
  3
__ __ __ __ __ __ __ __ __ __ __ __ __ __ __
 72
    65
 73
     2
 40
1.500000
 49
1.000000
 49
-0.500000
  0
LTYPE
  2
DASHED2
 70
    64
  3
__ __ __ __ __ __ __ __ __ __ __ __ __ __ __
 72
    65
 73
     2
 40
3.500000
 49
2.500000
 49
-1.000000
  0
LTYPE
  2
DASHED3
 70
    64
  3
__ __ __ __ __ __ __ __ __ __ __ __ __ __ __
 72
    65
 73
     2
 40
6.000000
 49
4.000000
 49
-2.000000
  0
LTYPE
  2
DASHED4
 70
    64
  3
__ __ __ __ __ __ __ __ __ __ __ __ __ __ __
 72
    65
 73
     2
 40
12.000000
 49
10.000000
 49
-2.000000
  0
LTYPE
  2
DASHED5
 70
    64
  3
__ __ __ __ __ __ __ __ __ __ __ __ __ __ __
 72
    65
 73
     2
 40
17.000000
 49
15.000000
 49
-2.000000
  0
LTYPE
  2
DASHED6
 70
    64
  3
__ __ __ __ __ __ __ __ __ __ __ __ __ __ __
 72
    65
 73
     2
 40
29.000000
 49
27.000000
 49
-2.000000
  0
LTYPE
  2
PHANTOM1
 70
    64
  3
_____ _ _ _____ _ _ _____ _ _ _____ _ _ ____  
 72
    65
 73
     6
 40
31.000000
 49
25.000000
 49
-1.500000
 49
1.000000
 49
-1.000000
 49
1.000000
 49
-1.500000
  0
LTYPE
  2
PHANTOM2
 70
    64
  3
_____ _ _ _____ _ _ _____ _ _ _____ _ _ ____  
 72
    65
 73
     6
 40
36.000000
 49
27.000000
 49
-1.500000
 49
2.500000
 49
-1.000000
 49
2.500000
 49
-1.500000
  0
LTYPE
  2
PHANTOM3
 70
    64
  3
_____ _ _ _____ _ _ _____ _ _ _____ _ _ ____  
 72
    65
 73
     6
 40
78.000000
 49
64.000000
 49
-2.000000
 49
4.000000
 49
-2.000000
 49
4.000000
 49
-2.000000
  0
LTYPE
  2
CENTER1
 70
    64
  3
____ _ ____ _ ____ _ ____ _ ____ _ ____ _ ____
 72
    65
 73
     4
 40
19.000000
 49
14.000000
 49
-1.000000
 49
3.000000
 49
-1.000000
  0
LTYPE
  2
CENTER2
 70
    64
  3
____ _ ____ _ ____ _ ____ _ ____ _ ____ _ ____
 72
    65
 73
     4
 40
28.500000
 49
25.000000
 49
-1.000000
 49
1.500000
 49
-1.000000
  0
LTYPE
  2
CENTER3
 70
    64
  3
____ _ ____ _ ____ _ ____ _ ____ _ ____ _ ____
 72
    65
 73
     4
 40
31.500000
 49
27.000000
 49
-1.000000
 49
2.500000
 49
-1.000000
  0
LTYPE
  2
CENTER4
 70
    64
  3
____ _ ____ _ ____ _ ____ _ ____ _ ____ _ ____
 72
    65
 73
     4
 40
50.000000
 49
45.000000
 49
-1.000000
 49
3.000000
 49
-1.000000
  0
LTYPE
  2
CENTER5
 70
    64
  3
____ _ ____ _ ____ _ ____ _ ____ _ ____ _ ____
 72
    65
 73
     4
 40
100.000000
 49
92.000000
 49
-2.000000
 49
4.000000
 49
-2.000000
  0
LTYPE
  2
SBK1
 70
    64
  3
______ _ _ _ ______ _ _ _ ______ _ _ _ _____  
 72
    65
 73
     8
 40
60.500000
 49
45.000000
 49
-2.000000
 49
2.500000
 49
-2.000000
 49
2.500000
 49
-2.000000
 49
2.500000
 49
-2.000000
  0
LTYPE
  2
SBK2
 70
    64
  3
______ _ _ _ ______ _ _ _ ______ _ _ _ _____  
 72
    65
 73
     8
 40
84.000000
 49
64.000000
 49
-2.000000
 49
4.000000
 49
-2.000000
 49
4.000000
 49
-2.000000
 49
4.000000
 49
-2.000000
  0
LTYPE
  2
STCH
 70
    64
  3
__ __ __ __ __ __ __ __ __ __ __ __ __ __ __
 72
    65
 73
     2
 40
3.000000
 49
1.000000
 49
-2.000000
  0
LTYPE
  2
MTCH
 70
    64
  3
_____ _ _ _____ _ _ _____ _ _ _____ _ _ ____  
 72
    65
 73
     6
 40
80.000000
 49
66.000000
 49
-2.000000
 49
4.000000
 49
-2.000000
 49
4.000000
 49
-2.000000
  0
ENDTAB
  0
TABLE
  2
LAYER
 70
     1
  0
LAYER
  2
0
 70
     0
 62
     7
  6
CONTINUOUS
  0
ENDTAB
  0
TABLE
  2
STYLE
 70
     1
  0
STYLE
  2
STANDARD
 70
     0
 40
0.000000
 41
1.000000
 50
0.000000
 71
     0
 42
0.200000
  3
txt
  4
BIGFONT
  0
ENDTAB
  0
TABLE
  2
VIEW
 70
     0
  0
ENDTAB
  0
ENDSEC
  0
SECTION
  2
BLOCKS
  0
ENDSEC
  0
SECTION
  2
ENTITIES
  0
LINE
  8
0
 10
399.799988
 20
276.250000
 11
399.799988
 21
-276.750000
  0
LINE
  8
0
 10
-399.250000
 20
276.250000
 11
-399.250000
 21
-276.750000
  0
LINE
  8
0
 10
-399.250000
 20
276.250000
 11
399.799988
 21
276.250000
  0
LINE
  8
0
 10
-399.250000
 20
-276.750000
 11
399.799988
 21
-276.750000
  0
LINE
  8
0
 10
239.799988
 20
-251.750000
 11
399.799988
 21
-251.750000
  0
LINE
  8
0
 10
239.799988
 20
251.250000
 11
399.799988
 21
251.250000
  0
LINE
  8
0
 10
-399.250000
 20
251.250000
 11
-239.250000
 21
251.250000
  0
LINE
  8
0
 10
239.799988
 20
-251.750000
 11
239.799988
 21
-276.750000
  0
LINE
  8
0
 10
239.799988
 20
251.250000
 11
239.799988
 21
276.250000
  0
LINE
  8
0
 10
-239.250000
 20
276.250000
 11
-239.250000
 21
251.250000
  0
LINE
  8
0
 10
-399.250000
 20
-0.250000
 11
399.799988
 21
-0.250000
  0
LINE
  8
0
 10
0.274994
 20
276.250000
 11
0.274994
 21
-0.250000
  0
LINE
  8
0
  6
CENTER
 62
     1
 10
-239.065826
 20
60.000000
 11
-97.222893
 21
60.000000
  0
LINE
  8
0
 62
     4
 10
-129.633301
 20
37.000000
 11
-107.133293
 21
37.000000
  0
LINE
  8
0
 62
     4
 10
-129.633301
 20
82.999992
 11
-107.133293
 21
82.999992
  0
LINE
  8
0
 62
     4
 10
-205.133301
 20
33.000000
 11
-133.633301
 21
33.000000
  0
LINE
  8
0
 62
     4
 10
-205.133301
 20
86.999992
 11
-133.633301
 21
86.999992
  0
LINE
  8
0
 62
     4
 10
-129.633301
 20
82.999985
 11
-129.633301
 21
36.999985
  0
LINE
  8
0
 62
     4
 10
-105.133293
 20
80.999985
 11
-105.133293
 21
38.999985
  0
LINE
  8
0
 62
     4
 10
-129.633438
 20
37.000137
 11
-133.633438
 21
33.000141
  0
LINE
  8
0
 62
     4
 10
-133.633163
 20
87.000076
 11
-129.633148
 21
83.000076
  0
LINE
  8
0
 62
     4
 10
-107.133469
 20
83.000099
 11
-105.133461
 21
81.000092
  0
LINE
  8
0
 62
     4
 10
-107.133217
 20
36.999813
 11
-105.133209
 21
38.999832
  0
LINE
  8
0
 62
     4
 10
-107.133293
 20
82.999985
 11
-107.133293
 21
36.999985
  0
LINE
  8
0
  6
CENTER
 62
     1
 10
-205.133270
 20
91.437485
 11
-205.133270
 21
25.812485
  0
LINE
  8
0
 62
     4
 10
-375.133270
 20
86.999992
 11
-315.133270
 21
86.999992
  0
LINE
  8
0
 62
     4
 10
-378.983276
 20
72.999985
 11
-377.633270
 21
72.999985
  0
LINE
  8
0
 62
     4
 10
-381.633270
 20
72.499985
 11
-378.983276
 21
72.499985
  0
LINE
  8
0
 62
     4
 10
-381.633270
 20
47.499985
 11
-378.983276
 21
47.499985
  0
LINE
  8
0
 62
     4
 10
-378.983276
 20
46.999985
 11
-377.633270
 21
46.999985
  0
LINE
  8
0
 62
     4
 10
-375.133270
 20
33.000000
 11
-315.133270
 21
33.000000
  0
LINE
  8
0
  6
CENTER
 62
     1
 10
-388.045135
 20
60.000000
 11
-302.227081
 21
60.000000
  0
LINE
  8
0
 62
     4
 10
-381.633270
 20
72.499985
 11
-381.633270
 21
47.499985
  0
LINE
  8
0
 62
     4
 10
-378.983276
 20
72.999985
 11
-378.983276
 21
46.999985
  0
LINE
  8
0
 62
     4
 10
-377.633270
 20
72.999985
 11
-377.633270
 21
46.999985
  0
LINE
  8
0
 62
     4
 10
-363.133270
 20
86.999992
 11
-363.133270
 21
33.000000
  0
LINE
  8
0
  6
CENTER
 62
     1
 10
-345.133270
 20
93.665916
 11
-345.133270
 21
26.256775
  0
LINE
  8
0
 62
     4
 10
-361.133270
 20
84.999985
 11
-361.133270
 21
35.000000
  0
LINE
  8
0
 62
     4
 10
-363.133270
 20
86.999992
 11
-363.133270
 21
33.000000
  0
LINE
  8
0
 62
     4
 10
-375.133270
 20
86.999992
 11
-375.133270
 21
33.000000
  0
LINE
  8
0
 62
     4
 10
-377.133270
 20
84.999985
 11
-377.133270
 21
35.000000
  0
LINE
  8
0
 62
     4
 10
-375.132935
 20
86.999756
 11
-377.132935
 21
84.999756
  0
LINE
  8
0
 62
     4
 10
-363.133392
 20
86.999931
 11
-361.133392
 21
84.999924
  0
LINE
  8
0
 62
     4
 10
-377.133209
 20
35.000069
 11
-375.133209
 21
33.000069
  0
LINE
  8
0
 62
     4
 10
-361.133179
 20
34.999920
 11
-363.133179
 21
32.999916
  0
LINE
  8
0
 62
     4
 10
-377.633270
 20
72.499985
 11
-377.133270
 21
72.499985
  0
LINE
  8
0
 62
     4
 10
-377.633270
 20
47.499985
 11
-377.133270
 21
47.499985
  0
LINE
  8
0
 62
     4
 10
-311.283264
 20
72.999985
 11
-312.633270
 21
72.999985
  0
LINE
  8
0
 62
     4
 10
-308.633270
 20
72.499985
 11
-311.283264
 21
72.499985
  0
LINE
  8
0
 62
     4
 10
-308.633270
 20
47.499985
 11
-311.283264
 21
47.499985
  0
LINE
  8
0
 62
     4
 10
-311.283264
 20
46.999985
 11
-312.633270
 21
46.999985
  0
LINE
  8
0
 62
     4
 10
-308.633270
 20
72.499985
 11
-308.633270
 21
47.499985
  0
LINE
  8
0
 62
     4
 10
-311.283264
 20
72.999985
 11
-311.283264
 21
46.999985
  0
LINE
  8
0
 62
     4
 10
-312.633270
 20
72.999985
 11
-312.633270
 21
46.999985
  0
LINE
  8
0
 62
     4
 10
-327.133270
 20
86.999992
 11
-327.133270
 21
33.000000
  0
LINE
  8
0
 62
     4
 10
-329.133270
 20
84.999985
 11
-329.133270
 21
35.000000
  0
LINE
  8
0
 62
     4
 10
-327.133270
 20
86.999992
 11
-327.133270
 21
33.000000
  0
LINE
  8
0
 62
     4
 10
-315.133270
 20
86.999992
 11
-315.133270
 21
33.000000
  0
LINE
  8
0
 62
     4
 10
-313.133270
 20
84.999985
 11
-313.133270
 21
35.000000
  0
LINE
  8
0
 62
     4
 10
-315.133179
 20
87.000198
 11
-313.133179
 21
85.000198
  0
LINE
  8
0
 62
     4
 10
-327.133148
 20
86.999962
 11
-329.133148
 21
84.999947
  0
LINE
  8
0
 62
     4
 10
-313.133240
 20
34.999939
 11
-315.133240
 21
32.999939
  0
LINE
  8
0
 62
     4
 10
-329.133179
 20
35.000050
 11
-327.133179
 21
33.000034
  0
LINE
  8
0
 62
     4
 10
-312.633270
 20
72.499985
 11
-313.133270
 21
72.499985
  0
LINE
  8
0
 62
     4
 10
-312.633270
 20
47.499985
 11
-313.133270
 21
47.499985
  0
LINE
  8
0
 62
     4
 10
-361.133270
 20
47.000000
 11
-329.133270
 21
47.000000
  0
LINE
  8
0
 62
     4
 10
-361.133270
 20
73.000000
 11
-329.133270
 21
73.000000
  0
LINE
  8
0
 62
     4
 10
-105.133293
 20
224.655426
 11
-105.133293
 21
182.655426
  0
LINE
  8
0
  6
CENTER
 62
     1
 10
-241.814758
 20
203.655396
 11
-96.673126
 21
203.655396
  0
LINE
  8
0
 62
     4
 10
-232.133301
 20
233.655411
 11
-232.133301
 21
221.655411
  0
LINE
  8
0
 62
     4
 10
-230.133301
 20
187.655396
 11
-180.133301
 21
187.655396
  0
LINE
  8
0
 62
     4
 10
-230.133301
 20
219.655396
 11
-180.133301
 21
219.655396
  0
LINE
  8
0
 62
     4
 10
-230.133301
 20
171.655396
 11
-180.133240
 21
171.655396
  0
LINE
  8
0
 62
     4
 10
-230.133301
 20
235.655396
 11
-180.133270
 21
235.655396
  0
LINE
  8
0
 62
     4
 10
-129.633301
 20
226.655426
 11
-129.633301
 21
180.655426
  0
LINE
  8
0
  6
CENTER
 62
     1
 10
-205.133270
 20
258.293762
 11
-205.133270
 21
149.011887
  0
LINE
  8
0
 62
     4
 10
-129.633301
 20
226.655396
 11
-107.133301
 21
226.655396
  0
LINE
  8
0
 62
     4
 10
-129.633301
 20
180.655396
 11
-107.133301
 21
180.655396
  0
LINE
  8
0
 62
     4
 10
-178.133240
 20
174.655396
 11
-135.633301
 21
174.655396
  0
LINE
  8
0
 62
     4
 10
-178.133270
 20
232.655396
 11
-135.633301
 21
232.655396
  0
LINE
  8
0
 62
     4
 10
-232.133301
 20
185.655396
 11
-163.133301
 21
185.655396
  0
LINE
  8
0
 62
     4
 10
-232.133301
 20
221.655396
 11
-163.133301
 21
221.655396
  0
LINE
  8
0
 62
     4
 10
-163.133301
 20
221.655411
 11
-163.133301
 21
216.655411
  0
LINE
  8
0
 62
     4
 10
-232.133301
 20
185.655411
 11
-232.133301
 21
173.655411
  0
LINE
  8
0
 62
     4
 10
-203.133301
 20
177.017578
 11
-144.840454
 21
177.017578
  0
LINE
  8
0
 62
     4
 10
-203.133301
 20
183.293213
 11
-159.489075
 21
183.293213
  0
LINE
  8
0
 62
     4
 10
-203.133301
 20
224.017578
 11
-159.489075
 21
224.017578
  0
LINE
  8
0
 62
     4
 10
-203.133301
 20
230.293213
 11
-144.633301
 21
230.293213
  0
LINE
  8
0
 62
     4
 10
-129.633591
 20
180.655762
 11
-135.633606
 21
174.655762
  0
LINE
  8
0
 62
     4
 10
-135.633179
 20
232.655426
 11
-129.633224
 21
226.655472
  0
LINE
  8
0
  6
DASHED
 62
     1
 10
-150.133301
 20
218.655396
 11
-105.133301
 21
218.655396
  0
LINE
  8
0
  6
DASHED
 62
     1
 10
-150.133301
 20
188.655396
 11
-105.133301
 21
188.655396
  0
LINE
  8
0
  6
DASHED
 62
     1
 10
-163.133301
 20
190.655396
 11
-105.133301
 21
190.655396
  0
LINE
  8
0
  6
DASHED
 62
     1
 10
-163.133301
 20
216.655396
 11
-105.133301
 21
216.655396
  0
LINE
  8
0
 62
     4
 10
-163.133301
 20
190.655411
 11
-163.133301
 21
185.655411
  0
LINE
  8
0
 62
     4
 10
-144.633331
 20
230.293625
 11
-135.633331
 21
232.655838
  0
LINE
  8
0
 62
     4
 10
-144.633347
 20
177.017761
 11
-135.633331
 21
174.655579
  0
LINE
  8
0
  6
DASHED
 62
     1
 10
-192.633270
 20
235.655411
 11
-192.633270
 21
219.655411
  0
LINE
  8
0
  6
DASHED
 62
     1
 10
-217.633270
 20
235.655411
 11
-217.633270
 21
219.655411
  0
LINE
  8
0
  6
DASHED
 62
     1
 10
-217.633270
 20
187.655411
 11
-217.633270
 21
171.655411
  0
LINE
  8
0
  6
DASHED
 62
     1
 10
-192.633270
 20
187.655411
 11
-192.633270
 21
171.655411
  0
LINE
  8
0
 62
     4
 10
-232.133331
 20
221.655350
 11
-230.133286
 21
219.655304
  0
LINE
  8
0
 62
     4
 10
-232.133011
 20
185.655045
 11
-230.132996
 21
187.655060
  0
LINE
  8
0
 62
     4
 10
-180.133392
 20
187.655182
 11
-178.133438
 21
185.655228
  0
LINE
  8
0
 62
     4
 10
-180.132996
 20
219.655045
 11
-178.133011
 21
221.655029
  0
LINE
  8
0
 62
     4
 10
-107.133385
 20
226.655304
 11
-105.133339
 21
224.655258
  0
LINE
  8
0
 62
     4
 10
-107.132668
 20
180.654739
 11
-105.132690
 21
182.654694
  0
LINE
  8
0
 62
     4
 10
-107.133293
 20
226.655426
 11
-107.133293
 21
180.655426
  0
LINE
  8
0
  6
DASHED
 62
     1
 10
-150.133301
 20
218.655426
 11
-150.133301
 21
188.655426
  0
LINE
  8
0
  6
DASHED
 62
     1
 10
-153.597397
 20
190.655319
 11
-150.133301
 21
188.655319
  0
LINE
  8
0
  6
DASHED
 62
     1
 10
-150.133194
 20
218.655334
 11
-153.597290
 21
216.655334
  0
LINE
  8
0
  6
DASHED
 62
     1
 10
-153.597565
 20
216.655426
 11
-153.597565
 21
190.655426
  0
LINE
  8
0
 62
     4
 10
-155.898514
 20
203.655457
 11
-159.488922
 21
183.293289
  0
LINE
  8
0
 62
     4
 10
-159.489136
 20
224.017563
 11
-155.898727
 21
203.655380
  0
LINE
  8
0
 62
     4
 10
-159.488998
 20
224.017502
 11
-163.133209
 21
221.655319
  0
LINE
  8
0
 62
     4
 10
-163.133331
 20
185.655396
 11
-159.489105
 21
183.293213
  0
LINE
  8
0
 62
     4
 10
-217.633301
 20
240.155396
 11
-192.633301
 21
240.155396
  0
LINE
  8
0
 62
     4
 10
-218.133301
 20
236.155396
 11
-192.133301
 21
236.155396
  0
LINE
  8
0
 62
     4
 10
-218.133301
 20
237.505402
 11
-192.133301
 21
237.505402
  0
LINE
  8
0
 62
     4
 10
-192.133270
 20
237.505417
 11
-192.133270
 21
236.155411
  0
LINE
  8
0
 62
     4
 10
-218.133270
 20
237.505417
 11
-218.133270
 21
236.155411
  0
LINE
  8
0
 62
     4
 10
-217.633270
 20
240.155411
 11
-217.633270
 21
237.505417
  0
LINE
  8
0
 62
     4
 10
-192.633270
 20
240.155411
 11
-192.633270
 21
237.505417
  0
LINE
  8
0
 62
     4
 10
-217.633270
 20
236.155411
 11
-217.633270
 21
235.655411
  0
LINE
  8
0
 62
     4
 10
-192.633270
 20
236.155411
 11
-192.633270
 21
235.655411
  0
LINE
  8
0
 62
     4
 10
-218.133270
 20
219.655411
 11
-218.133270
 21
187.655411
  0
LINE
  8
0
 62
     4
 10
-192.133270
 20
219.655411
 11
-192.133270
 21
187.655411
  0
LINE
  8
0
 62
     4
 10
-192.633270
 20
171.155411
 11
-192.633270
 21
171.655411
  0
LINE
  8
0
 62
     4
 10
-217.633301
 20
167.155396
 11
-192.633301
 21
167.155396
  0
LINE
  8
0
 62
     4
 10
-218.133301
 20
171.155396
 11
-192.133301
 21
171.155396
  0
LINE
  8
0
 62
     4
 10
-218.133301
 20
169.805389
 11
-192.133301
 21
169.805389
  0
LINE
  8
0
 62
     4
 10
-192.133270
 20
169.805405
 11
-192.133270
 21
171.155411
  0
LINE
  8
0
 62
     4
 10
-218.133270
 20
169.805405
 11
-218.133270
 21
171.155411
  0
LINE
  8
0
 62
     4
 10
-217.633270
 20
167.155411
 11
-217.633270
 21
169.805405
  0
LINE
  8
0
 62
     4
 10
-192.633270
 20
167.155411
 11
-192.633270
 21
169.805405
  0
LINE
  8
0
 62
     4
 10
-217.633270
 20
171.155411
 11
-217.633270
 21
171.655411
  0
LINE
  8
0
 62
     4
 10
-230.133209
 20
235.655334
 11
-232.133209
 21
233.655334
  0
LINE
  8
0
 62
     4
 10
-232.133331
 20
173.655396
 11
-230.133331
 21
171.655396
  0
LINE
  8
0
 62
     4
 10
-232.133301
 20
173.655396
 11
-178.133240
 21
173.655396
  0
LINE
  8
0
 62
     4
 10
-232.133301
 20
233.655396
 11
-178.133270
 21
233.655396
  0
LINE
  8
0
 62
     4
 10
-180.133301
 20
235.655411
 11
-178.133286
 21
233.655411
  0
LINE
  8
0
 62
     4
 10
-178.133209
 20
173.655319
 11
-180.133194
 21
171.655350
  0
LINE
  8
0
 62
     4
 10
-178.133270
 20
233.655411
 11
-178.133270
 21
232.655411
  0
LINE
  8
0
 62
     4
 10
-178.133240
 20
173.655411
 11
-178.133240
 21
174.655411
  0
LINE
  8
0
 62
     4
 10
-178.133270
 20
232.655548
 11
-203.133347
 21
230.293365
  0
LINE
  8
0
 62
     4
 10
-178.132751
 20
221.655411
 11
-203.133316
 21
224.017593
  0
LINE
  8
0
 62
     4
 10
-178.133240
 20
174.655411
 11
-203.133301
 21
177.017593
  0
LINE
  8
0
 62
     4
 10
-178.133636
 20
185.655487
 11
-203.133331
 21
183.293304
  0
LINE
  8
0
  6
CENTER
 62
     1
 10
155.439545
 20
60.000076
 11
302.282501
 21
60.000076
  0
LINE
  8
0
  6
CENTER
 62
     1
 10
189.372101
 20
91.437546
 11
189.372101
 21
25.812561
  0
LINE
  8
0
 62
     4
 10
269.372070
 20
37.000076
 11
292.372070
 21
37.000076
  0
LINE
  8
0
 62
     4
 10
269.372070
 20
83.000076
 11
292.372070
 21
83.000076
  0
LINE
  8
0
 62
     4
 10
189.372070
 20
33.000076
 11
265.372070
 21
33.000076
  0
LINE
  8
0
 62
     4
 10
189.372070
 20
87.000076
 11
265.372070
 21
87.000076
  0
LINE
  8
0
 62
     4
 10
269.372101
 20
83.000061
 11
269.372101
 21
37.000061
  0
LINE
  8
0
 62
     4
 10
294.372101
 20
81.000061
 11
294.372101
 21
39.000061
  0
LINE
  8
0
 62
     4
 10
269.372009
 20
37.000160
 11
265.372009
 21
33.000130
  0
LINE
  8
0
 62
     4
 10
265.372070
 20
87.000084
 11
269.372040
 21
83.000092
  0
LINE
  8
0
 62
     4
 10
292.371948
 20
82.999954
 11
294.371948
 21
80.999954
  0
LINE
  8
0
 62
     4
 10
292.371979
 20
37.000111
 11
294.371979
 21
39.000111
  0
LINE
  8
0
 62
     4
 10
292.372101
 20
83.000061
 11
292.372101
 21
37.000061
  0
LINE
  8
0
 62
     4
 10
25.372429
 20
87.000084
 11
93.372429
 21
87.000084
  0
LINE
  8
0
 62
     4
 10
25.372429
 20
33.000084
 11
93.372414
 21
33.000084
  0
LINE
  8
0
  6
CENTER
 62
     1
 10
59.372429
 20
95.487061
 11
59.372429
 21
24.980988
  0
LINE
  8
0
  6
CENTER
 62
     1
 10
9.966072
 20
60.000084
 11
106.110725
 21
60.000084
  0
LINE
  8
0
 62
     4
 10
21.222435
 20
74.500069
 11
22.872429
 21
74.500069
  0
LINE
  8
0
 62
     4
 10
18.372414
 20
74.000069
 11
21.222435
 21
74.000069
  0
LINE
  8
0
 62
     4
 10
18.372414
 20
46.000069
 11
21.222435
 21
46.000069
  0
LINE
  8
0
 62
     4
 10
21.222435
 20
45.500069
 11
22.872429
 21
45.500069
  0
LINE
  8
0
 62
     4
 10
18.372414
 20
74.000069
 11
18.372414
 21
46.000069
  0
LINE
  8
0
 62
     4
 10
21.222435
 20
74.500069
 11
21.222435
 21
45.500069
  0
LINE
  8
0
 62
     4
 10
22.872429
 20
74.500069
 11
22.872429
 21
45.500069
  0
LINE
  8
0
 62
     4
 10
23.372429
 20
85.000092
 11
23.372429
 21
35.000092
  0
LINE
  8
0
 62
     4
 10
25.372429
 20
87.000084
 11
25.372429
 21
33.000084
  0
LINE
  8
0
 62
     4
 10
39.372429
 20
87.000084
 11
39.372429
 21
33.000084
  0
LINE
  8
0
 62
     4
 10
41.372429
 20
85.000084
 11
41.372429
 21
35.000069
  0
LINE
  8
0
 62
     4
 10
22.872429
 20
46.000069
 11
23.372429
 21
46.000069
  0
LINE
  8
0
 62
     4
 10
22.872429
 20
74.000069
 11
23.372429
 21
74.000069
  0
LINE
  8
0
 62
     4
 10
25.372421
 20
87.000069
 11
23.372419
 21
85.000069
  0
LINE
  8
0
 62
     4
 10
39.372433
 20
87.000092
 11
41.372433
 21
85.000084
  0
LINE
  8
0
 62
     4
 10
25.372431
 20
33.000092
 11
23.372435
 21
35.000092
  0
LINE
  8
0
 62
     4
 10
39.372433
 20
33.000080
 11
41.372429
 21
35.000088
  0
LINE
  8
0
 62
     4
 10
79.372406
 20
33.000088
 11
77.372406
 21
35.000080
  0
LINE
  8
0
 62
     4
 10
93.372398
 20
33.000103
 11
95.372398
 21
35.000088
  0
LINE
  8
0
 62
     4
 10
79.372398
 20
87.000084
 11
77.372398
 21
85.000076
  0
LINE
  8
0
 62
     4
 10
97.522423
 20
74.500069
 11
95.872429
 21
74.500069
  0
LINE
  8
0
 62
     4
 10
100.372444
 20
74.000069
 11
97.522423
 21
74.000069
  0
LINE
  8
0
 62
     4
 10
100.372444
 20
46.000069
 11
97.522423
 21
46.000069
  0
LINE
  8
0
 62
     4
 10
97.522423
 20
45.500069
 11
95.872429
 21
45.500069
  0
LINE
  8
0
 62
     4
 10
100.372444
 20
74.000069
 11
100.372444
 21
46.000069
  0
LINE
  8
0
 62
     4
 10
97.522423
 20
74.500069
 11
97.522423
 21
45.500069
  0
LINE
  8
0
 62
     4
 10
95.872429
 20
74.500069
 11
95.872429
 21
45.500069
  0
LINE
  8
0
 62
     4
 10
95.372429
 20
85.000092
 11
95.372429
 21
35.000092
  0
LINE
  8
0
 62
     4
 10
93.372429
 20
87.000084
 11
93.372429
 21
33.000084
  0
LINE
  8
0
 62
     4
 10
79.372429
 20
87.000084
 11
79.372429
 21
33.000084
  0
LINE
  8
0
 62
     4
 10
77.372429
 20
85.000084
 11
77.372429
 21
35.000069
  0
LINE
  8
0
 62
     4
 10
95.872429
 20
46.000069
 11
95.372429
 21
46.000069
  0
LINE
  8
0
 62
     4
 10
95.872429
 20
74.000069
 11
95.372429
 21
74.000069
  0
LINE
  8
0
 62
     4
 10
93.372429
 20
87.000076
 11
95.372429
 21
85.000076
  0
LINE
  8
0
 62
     4
 10
41.372429
 20
46.000084
 11
77.372429
 21
46.000084
  0
LINE
  8
0
 62
     4
 10
41.372429
 20
74.000084
 11
77.372429
 21
74.000084
  0
LINE
  8
0
  6
CENTER
 62
     1
 10
152.690613
 20
190.000122
 11
302.832214
 21
190.000122
  0
LINE
  8
0
  6
CENTER
 62
     1
 10
189.372070
 20
245.926285
 11
189.372070
 21
136.612289
  0
LINE
  8
0
  6
DASHED
 62
     1
 10
249.372040
 20
205.000122
 11
294.372040
 21
205.000122
  0
LINE
  8
0
  6
DASHED
 62
     1
 10
249.372040
 20
175.000122
 11
294.372040
 21
175.000122
  0
LINE
  8
0
  6
DASHED
 62
     1
 10
234.372040
 20
176.300110
 11
294.372040
 21
176.300110
  0
LINE
  8
0
  6
DASHED
 62
     1
 10
234.372040
 20
203.700104
 11
294.372040
 21
203.700104
  0
LINE
  8
0
  6
DASHED
 62
     1
 10
249.372040
 20
205.000107
 11
249.372040
 21
175.000107
  0
LINE
  8
0
  6
DASHED
 62
     1
 10
247.120483
 20
176.300171
 11
249.372101
 21
175.000198
  0
LINE
  8
0
  6
DASHED
 62
     1
 10
249.372009
 20
205.000076
 11
247.120361
 21
203.700089
  0
LINE
  8
0
  6
DASHED
 62
     1
 10
247.120422
 20
203.700119
 11
247.120422
 21
176.300125
  0
LINE
  8
0
 62
     4
 10
294.372070
 20
211.000107
 11
294.372070
 21
169.000076
  0
LINE
  8
0
 62
     4
 10
162.372055
 20
224.000107
 11
162.372055
 21
210.000107
  0
LINE
  8
0
 62
     4
 10
164.372040
 20
208.000122
 11
213.372437
 21
208.000122
  0
LINE
  8
0
 62
     4
 10
164.372040
 20
226.000107
 11
213.372040
 21
226.000107
  0
LINE
  8
0
 62
     4
 10
269.372070
 20
213.000107
 11
269.372070
 21
167.000107
  0
LINE
  8
0
 62
     4
 10
269.372040
 20
213.000122
 11
292.372040
 21
213.000122
  0
LINE
  8
0
 62
     4
 10
269.372040
 20
167.000122
 11
292.372040
 21
167.000122
  0
LINE
  8
0
 62
     4
 10
215.372437
 20
221.000122
 11
261.372192
 21
221.000122
  0
LINE
  8
0
 62
     4
 10
215.372437
 20
210.000122
 11
234.372040
 21
210.000122
  0
LINE
  8
0
 62
     4
 10
234.372040
 20
210.000107
 11
234.372040
 21
203.700119
  0
LINE
  8
0
 62
     4
 10
191.372040
 20
212.362305
 11
237.663605
 21
212.362305
  0
LINE
  8
0
 62
     4
 10
191.372040
 20
218.637909
 11
254.372040
 21
218.637909
  0
LINE
  8
0
 62
     4
 10
269.371887
 20
167.000244
 11
261.371796
 21
159.000153
  0
LINE
  8
0
 62
     4
 10
261.372284
 20
221.000168
 11
269.372192
 21
213.000244
  0
LINE
  8
0
 62
     4
 10
234.372040
 20
176.300125
 11
234.372040
 21
170.000107
  0
LINE
  8
0
 62
     4
 10
213.372177
 20
226.000259
 11
215.372360
 21
224.000061
  0
LINE
  8
0
 62
     4
 10
292.371887
 20
212.999985
 11
294.371887
 21
210.999985
  0
LINE
  8
0
 62
     4
 10
292.372314
 20
166.999908
 11
294.372314
 21
168.999863
  0
LINE
  8
0
 62
     4
 10
292.372070
 20
213.000107
 11
292.372070
 21
167.000107
  0
LINE
  8
0
 62
     4
 10
162.372101
 20
224.000076
 11
164.372101
 21
226.000076
  0
LINE
  8
0
 62
     4
 10
162.372040
 20
224.000122
 11
215.372437
 21
224.000122
  0
LINE
  8
0
 62
     4
 10
215.372467
 20
224.000107
 11
215.372467
 21
221.000107
  0
LINE
  8
0
 62
     4
 10
162.372025
 20
210.000092
 11
164.372009
 21
208.000107
  0
LINE
  8
0
 62
     4
 10
162.372040
 20
210.000122
 11
215.372437
 21
210.000122
  0
LINE
  8
0
 62
     4
 10
215.372467
 20
210.000107
 11
215.372467
 21
210.000107
  0
LINE
  8
0
 62
     4
 10
215.372421
 20
210.000107
 11
213.372421
 21
208.000107
  0
LINE
  8
0
 62
     4
 10
215.372437
 20
221.000092
 11
191.372025
 21
218.637878
  0
LINE
  8
0
 62
     4
 10
215.372375
 20
209.999893
 11
191.371994
 21
212.362076
  0
LINE
  8
0
 62
     4
 10
162.372055
 20
156.000107
 11
162.372055
 21
170.000107
  0
LINE
  8
0
 62
     4
 10
164.372040
 20
172.000122
 11
213.372437
 21
172.000122
  0
LINE
  8
0
 62
     4
 10
164.372040
 20
154.000137
 11
213.372040
 21
154.000137
  0
LINE
  8
0
 62
     4
 10
215.372437
 20
159.000122
 11
261.371826
 21
159.000122
  0
LINE
  8
0
 62
     4
 10
215.372437
 20
170.000122
 11
234.372040
 21
170.000122
  0
LINE
  8
0
 62
     4
 10
191.372040
 20
167.637939
 11
237.663605
 21
167.637939
  0
LINE
  8
0
 62
     4
 10
191.372040
 20
161.362335
 11
254.372040
 21
161.362335
  0
LINE
  8
0
 62
     4
 10
213.372223
 20
153.999893
 11
215.372406
 21
156.000061
  0
LINE
  8
0
 62
     4
 10
162.372192
 20
156.000305
 11
164.372208
 21
154.000290
  0
LINE
  8
0
 62
     4
 10
162.372040
 20
156.000137
 11
215.372437
 21
156.000137
  0
LINE
  8
0
 62
     4
 10
215.372467
 20
156.000107
 11
215.372467
 21
159.000107
  0
LINE
  8
0
 62
     4
 10
162.372086
 20
170.000107
 11
164.372086
 21
172.000107
  0
LINE
  8
0
 62
     4
 10
162.372040
 20
170.000122
 11
215.372437
 21
170.000122
  0
LINE
  8
0
 62
     4
 10
215.372437
 20
170.000137
 11
215.372437
 21
170.000137
  0
LINE
  8
0
 62
     4
 10
215.372269
 20
169.999954
 11
213.372269
 21
171.999954
  0
LINE
  8
0
 62
     4
 10
215.372406
 20
159.000046
 11
191.372009
 21
161.362259
  0
LINE
  8
0
 62
     4
 10
215.372437
 20
170.000046
 11
191.372070
 21
167.637863
  0
LINE
  8
0
  6
DASHED
 62
     1
 10
175.372070
 20
226.000107
 11
175.372070
 21
208.000107
  0
LINE
  8
0
  6
DASHED
 62
     1
 10
203.372040
 20
226.000107
 11
203.372040
 21
208.000107
  0
LINE
  8
0
  6
DASHED
 62
     1
 10
175.372070
 20
172.000107
 11
175.372070
 21
154.000107
  0
LINE
  8
0
  6
DASHED
 62
     1
 10
203.372040
 20
172.000107
 11
203.372040
 21
154.000107
  0
LINE
  8
0
 62
     4
 10
254.372086
 20
161.362442
 11
261.371887
 21
159.000229
  0
LINE
  8
0
 62
     4
 10
254.372025
 20
218.637939
 11
261.371826
 21
221.000168
  0
LINE
  8
0
 62
     4
 10
175.372040
 20
149.000137
 11
203.372040
 21
149.000137
  0
LINE
  8
0
 62
     4
 10
175.372040
 20
231.000107
 11
203.372040
 21
231.000107
  0
LINE
  8
0
 62
     4
 10
175.372070
 20
231.000107
 11
175.372070
 21
228.150101
  0
LINE
  8
0
 62
     4
 10
203.372040
 20
231.000107
 11
203.372040
 21
228.150101
  0
LINE
  8
0
 62
     4
 10
174.872040
 20
153.500137
 11
203.872040
 21
153.500137
  0
LINE
  8
0
 62
     4
 10
174.872040
 20
226.500107
 11
203.872040
 21
226.500107
  0
LINE
  8
0
 62
     4
 10
174.872040
 20
228.150131
 11
203.872040
 21
228.150131
  0
LINE
  8
0
 62
     4
 10
174.872040
 20
151.850143
 11
203.872040
 21
151.850143
  0
LINE
  8
0
 62
     4
 10
174.872070
 20
228.150101
 11
174.872070
 21
226.500107
  0
LINE
  8
0
 62
     4
 10
203.872040
 20
228.150101
 11
203.872040
 21
226.500107
  0
LINE
  8
0
 62
     4
 10
175.372070
 20
208.000107
 11
175.372070
 21
172.000107
  0
LINE
  8
0
 62
     4
 10
203.372040
 20
208.000107
 11
203.372040
 21
172.000107
  0
LINE
  8
0
 62
     4
 10
175.372070
 20
154.000107
 11
175.372070
 21
153.500107
  0
LINE
  8
0
 62
     4
 10
174.872070
 20
153.500107
 11
174.872070
 21
151.850113
  0
LINE
  8
0
 62
     4
 10
203.372040
 20
154.000107
 11
203.372040
 21
153.500107
  0
LINE
  8
0
 62
     4
 10
203.872040
 20
153.500107
 11
203.872040
 21
151.850113
  0
LINE
  8
0
 62
     4
 10
175.372070
 20
226.500107
 11
175.372070
 21
226.000107
  0
LINE
  8
0
 62
     4
 10
203.372040
 20
226.500107
 11
203.372040
 21
226.000107
  0
LINE
  8
0
 62
     4
 10
175.372070
 20
151.850113
 11
175.372070
 21
149.000107
  0
LINE
  8
0
 62
     4
 10
203.372040
 20
151.850113
 11
203.372040
 21
149.000107
  0
LINE
  8
0
 62
     4
 10
237.663574
 20
167.637955
 11
241.606644
 21
190.000137
  0
LINE
  8
0
 62
     4
 10
237.663681
 20
212.362320
 11
241.606735
 21
190.000137
  0
LINE
  8
0
 62
     4
 10
254.371933
 20
218.637878
 11
265.371948
 21
190.000076
  0
LINE
  8
0
 62
     4
 10
265.372070
 20
190.000076
 11
254.372086
 21
161.362320
  0
LINE
  8
0
 62
     4
 10
234.372009
 20
210.000092
 11
237.663574
 21
212.362259
  0
LINE
  8
0
 62
     4
 10
234.371948
 20
169.999969
 11
237.663528
 21
167.637787
  0
LINE
  8
0
  6
CENTER
 62
     1
 10
-143.159515
 20
-208.563812
 11
3.683411
 21
-208.563812
  0
LINE
  8
0
  6
CENTER
 62
     1
 10
-109.226990
 20
-177.126343
 11
-109.226990
 21
-242.751328
  0
LINE
  8
0
 62
     4
 10
0.773010
 20
-185.563828
 11
0.773010
 21
-231.563705
  0
LINE
  8
0
 62
     4
 10
-24.226990
 20
-183.563828
 11
-24.226990
 21
-233.563828
  0
LINE
  8
0
 62
     4
 10
-24.226990
 20
-183.563812
 11
-1.226990
 21
-183.563812
  0
LINE
  8
0
 62
     4
 10
-29.226837
 20
-178.563797
 11
-24.226908
 21
-183.563721
  0
LINE
  8
0
 62
     4
 10
-1.227073
 20
-183.563904
 11
0.772927
 21
-185.563904
  0
LINE
  8
0
 62
     4
 10
-1.226990
 20
-183.563828
 11
-1.226990
 21
-233.563828
  0
LINE
  8
0
 62
     4
 10
-109.226990
 20
-178.563812
 11
-29.226837
 21
-178.563812
  0
LINE
  8
0
 62
     4
 10
-109.226990
 20
-238.563812
 11
-29.226837
 21
-238.563812
  0
LINE
  8
0
 62
     4
 10
-29.226837
 20
-238.563797
 11
-24.226917
 21
-233.563889
  0
LINE
  8
0
 62
     4
 10
-1.227036
 20
-233.563812
 11
0.772970
 21
-231.563797
  0
LINE
  8
0
 62
     4
 10
-24.226990
 20
-233.563812
 11
-1.226990
 21
-233.563812
  0
LINE
  8
0
 62
     4
 10
-296.726990
 20
-178.563812
 11
-221.726990
 21
-178.563812
  0
LINE
  8
0
 62
     4
 10
-301.376984
 20
-192.063828
 11
-299.726990
 21
-192.063828
  0
LINE
  8
0
 62
     4
 10
-304.226990
 20
-192.563828
 11
-301.376984
 21
-192.563828
  0
LINE
  8
0
 62
     4
 10
-304.226990
 20
-224.563828
 11
-301.376984
 21
-224.563828
  0
LINE
  8
0
 62
     4
 10
-301.376984
 20
-225.063828
 11
-299.726990
 21
-225.063828
  0
LINE
  8
0
 62
     4
 10
-296.726990
 20
-238.563812
 11
-221.726990
 21
-238.563812
  0
LINE
  8
0
 62
     4
 10
-304.226990
 20
-192.563828
 11
-304.226990
 21
-224.563828
  0
LINE
  8
0
 62
     4
 10
-301.376984
 20
-192.063828
 11
-301.376984
 21
-225.063828
  0
LINE
  8
0
 62
     4
 10
-299.726990
 20
-192.063828
 11
-299.726990
 21
-225.063828
  0
LINE
  8
0
 62
     4
 10
-299.226990
 20
-181.063812
 11
-299.226990
 21
-236.063812
  0
LINE
  8
0
 62
     4
 10
-296.726990
 20
-178.563812
 11
-296.726990
 21
-238.563812
  0
LINE
  8
0
 62
     4
 10
-281.726990
 20
-178.563812
 11
-281.726990
 21
-238.563812
  0
LINE
  8
0
 62
     4
 10
-279.226990
 20
-181.063812
 11
-279.226990
 21
-236.063812
  0
LINE
  8
0
  6
CENTER
 62
     1
 10
-259.226990
 20
-164.290588
 11
-259.226990
 21
-252.333023
  0
LINE
  8
0
  6
CENTER
 62
     1
 10
-316.950012
 20
-208.563812
 11
-200.149719
 21
-208.563812
  0
LINE
  8
0
 62
     4
 10
-299.726990
 20
-192.563828
 11
-299.226990
 21
-192.563828
  0
LINE
  8
0
 62
     4
 10
-299.726990
 20
-224.563828
 11
-299.226990
 21
-224.563828
  0
LINE
  8
0
 62
     4
 10
-296.726990
 20
-178.563828
 11
-299.226959
 21
-181.063812
  0
LINE
  8
0
 62
     4
 10
-296.726929
 20
-238.563766
 11
-299.226929
 21
-236.063782
  0
LINE
  8
0
 62
     4
 10
-281.727051
 20
-178.563873
 11
-279.227051
 21
-181.063873
  0
LINE
  8
0
 62
     4
 10
-281.726959
 20
-238.563782
 11
-279.226959
 21
-236.063797
  0
LINE
  8
0
 62
     4
 10
-236.727066
 20
-238.563858
 11
-239.227066
 21
-236.063858
  0
LINE
  8
0
 62
     4
 10
-217.076996
 20
-192.063828
 11
-218.726990
 21
-192.063828
  0
LINE
  8
0
 62
     4
 10
-214.226990
 20
-192.563828
 11
-217.076996
 21
-192.563828
  0
LINE
  8
0
 62
     4
 10
-214.226990
 20
-224.563828
 11
-217.076996
 21
-224.563828
  0
LINE
  8
0
 62
     4
 10
-217.076996
 20
-225.063828
 11
-218.726990
 21
-225.063828
  0
LINE
  8
0
 62
     4
 10
-221.727020
 20
-238.563797
 11
-219.227020
 21
-236.063812
  0
LINE
  8
0
 62
     4
 10
-214.226990
 20
-192.563828
 11
-214.226990
 21
-224.563828
  0
LINE
  8
0
 62
     4
 10
-217.076996
 20
-192.063828
 11
-217.076996
 21
-225.063828
  0
LINE
  8
0
 62
     4
 10
-218.726990
 20
-192.063828
 11
-218.726990
 21
-225.063828
  0
LINE
  8
0
 62
     4
 10
-219.226990
 20
-181.063812
 11
-219.226990
 21
-236.063812
  0
LINE
  8
0
 62
     4
 10
-221.726990
 20
-178.563812
 11
-221.726990
 21
-238.563812
  0
LINE
  8
0
 62
     4
 10
-236.726990
 20
-178.563812
 11
-236.726990
 21
-238.563812
  0
LINE
  8
0
 62
     4
 10
-239.226990
 20
-181.063812
 11
-239.226990
 21
-236.063812
  0
LINE
  8
0
 62
     4
 10
-236.726944
 20
-178.563812
 11
-239.226974
 21
-181.063812
  0
LINE
  8
0
 62
     4
 10
-218.726990
 20
-192.563828
 11
-219.226990
 21
-192.563828
  0
LINE
  8
0
 62
     4
 10
-218.726990
 20
-224.563828
 11
-219.226990
 21
-224.563828
  0
LINE
  8
0
 62
     4
 10
-221.727036
 20
-178.563828
 11
-219.227020
 21
-181.063843
  0
LINE
  8
0
 62
     4
 10
-279.226990
 20
-224.563812
 11
-239.226990
 21
-224.563812
  0
LINE
  8
0
 62
     4
 10
-279.226990
 20
-192.563812
 11
-239.226990
 21
-192.563812
  0
LINE
  8
0
  6
CENTER
 62
     1
 10
-148.908447
 20
-78.563812
 11
4.595123
 21
-78.563812
  0
LINE
  8
0
  6
DASHED
 62
     1
 10
-47.227020
 20
-63.563797
 11
0.772980
 21
-63.563797
  0
LINE
  8
0
  6
DASHED
 62
     1
 10
-47.227020
 20
-93.563812
 11
0.772980
 21
-93.563812
  0
LINE
  8
0
  6
DASHED
 62
     1
 10
-62.227020
 20
-92.263809
 11
0.772980
 21
-92.263809
  0
LINE
  8
0
  6
DASHED
 62
     1
 10
-62.227020
 20
-64.863815
 11
0.772980
 21
-64.863815
  0
LINE
  8
0
  6
DASHED
 62
     1
 10
-47.226990
 20
-63.563828
 11
-47.226990
 21
-93.563828
  0
LINE
  8
0
  6
DASHED
 62
     1
 10
-49.478619
 20
-92.263817
 11
-47.227001
 21
-93.563789
  0
LINE
  8
0
  6
DASHED
 62
     1
 10
-47.227024
 20
-63.563839
 11
-49.478672
 21
-64.863823
  0
LINE
  8
0
  6
DASHED
 62
     1
 10
-49.478622
 20
-64.863831
 11
-49.478622
 21
-92.263824
  0
LINE
  8
0
 62
     4
 10
-139.226990
 20
-41.063828
 11
-139.226990
 21
-56.063828
  0
LINE
  8
0
 62
     4
 10
-136.727020
 20
-58.563797
 11
-81.727020
 21
-58.563797
  0
LINE
  8
0
 62
     4
 10
-136.727020
 20
-38.563797
 11
-81.727051
 21
-38.563797
  0
LINE
  8
0
 62
     4
 10
-62.226990
 20
-56.063828
 11
-62.226990
 21
-64.863831
  0
LINE
  8
0
 62
     4
 10
-107.227020
 20
-53.439133
 11
-60.920670
 21
-53.439133
  0
LINE
  8
0
 62
     4
 10
-107.227020
 20
-46.188461
 11
-39.227036
 21
-46.188461
  0
LINE
  8
0
 62
     4
 10
-62.226990
 20
-92.263824
 11
-62.226990
 21
-101.063843
  0
LINE
  8
0
 62
     4
 10
-125.227020
 20
-33.563797
 11
-93.227020
 21
-33.563797
  0
LINE
  8
0
 62
     4
 10
-125.727020
 20
-38.063797
 11
-92.727020
 21
-38.063797
  0
LINE
  8
0
 62
     4
 10
-125.727020
 20
-36.413803
 11
-92.727020
 21
-36.413803
  0
LINE
  8
0
 62
     4
 10
-136.726974
 20
-38.563866
 11
-139.226959
 21
-41.063858
  0
LINE
  8
0
 62
     4
 10
-139.226974
 20
-56.063831
 11
-136.726990
 21
-58.563816
  0
LINE
  8
0
 62
     4
 10
-139.227020
 20
-41.063797
 11
-79.227020
 21
-41.063797
  0
LINE
  8
0
 62
     4
 10
-139.227020
 20
-56.063797
 11
-79.227020
 21
-56.063797
  0
LINE
  8
0
 62
     4
 10
-79.227020
 20
-56.063797
 11
-62.227020
 21
-56.063797
  0
LINE
  8
0
 62
     4
 10
-79.227020
 20
-43.563797
 11
-34.226868
 21
-43.563797
  0
LINE
  8
0
 62
     4
 10
-93.226990
 20
-33.563828
 11
-93.226990
 21
-36.413834
  0
LINE
  8
0
 62
     4
 10
-125.226990
 20
-33.563828
 11
-125.226990
 21
-36.413834
  0
LINE
  8
0
 62
     4
 10
-125.726990
 20
-36.413834
 11
-125.726990
 21
-38.063828
  0
LINE
  8
0
 62
     4
 10
-92.726990
 20
-36.413834
 11
-92.726990
 21
-38.063828
  0
LINE
  8
0
 62
     4
 10
-125.226990
 20
-38.063828
 11
-125.226990
 21
-38.563828
  0
LINE
  8
0
 62
     4
 10
-93.226990
 20
-38.063828
 11
-93.226990
 21
-38.563828
  0
LINE
  8
0
  6
CENTER
 62
     1
 10
-109.226990
 20
-139.186707
 11
-109.226990
 21
-20.417038
  0
LINE
  8
0
 62
     4
 10
-139.226990
 20
-116.063843
 11
-139.226990
 21
-101.063843
  0
LINE
  8
0
 62
     4
 10
-136.727020
 20
-98.563812
 11
-81.727020
 21
-98.563812
  0
LINE
  8
0
 62
     4
 10
-136.727020
 20
-118.563828
 11
-81.727081
 21
-118.563828
  0
LINE
  8
0
 62
     4
 10
-107.227020
 20
-103.688492
 11
-60.920685
 21
-103.688492
  0
LINE
  8
0
 62
     4
 10
-107.227020
 20
-110.939163
 11
-39.227036
 21
-110.939163
  0
LINE
  8
0
 62
     4
 10
-125.227020
 20
-123.563828
 11
-93.227020
 21
-123.563828
  0
LINE
  8
0
 62
     4
 10
-125.727020
 20
-119.063828
 11
-92.727020
 21
-119.063828
  0
LINE
  8
0
 62
     4
 10
-125.727020
 20
-120.713821
 11
-92.727020
 21
-120.713821
  0
LINE
  8
0
 62
     4
 10
-136.726929
 20
-118.563774
 11
-139.226929
 21
-116.063759
  0
LINE
  8
0
 62
     4
 10
-139.227036
 20
-101.063789
 11
-136.727051
 21
-98.563805
  0
LINE
  8
0
 62
     4
 10
-139.227020
 20
-116.063828
 11
-79.227020
 21
-116.063828
  0
LINE
  8
0
 62
     4
 10
-139.227020
 20
-101.063828
 11
-79.227020
 21
-101.063828
  0
LINE
  8
0
 62
     4
 10
-79.227020
 20
-101.063828
 11
-62.227020
 21
-101.063828
  0
LINE
  8
0
 62
     4
 10
-79.227020
 20
-113.563828
 11
-34.226852
 21
-113.563828
  0
LINE
  8
0
 62
     4
 10
-93.226990
 20
-123.563843
 11
-93.226990
 21
-120.713837
  0
LINE
  8
0
 62
     4
 10
-125.226990
 20
-123.563843
 11
-125.226990
 21
-120.713837
  0
LINE
  8
0
 62
     4
 10
-125.726990
 20
-120.713837
 11
-125.726990
 21
-119.063843
  0
LINE
  8
0
 62
     4
 10
-92.726990
 20
-120.713837
 11
-92.726990
 21
-119.063843
  0
LINE
  8
0
 62
     4
 10
-125.226990
 20
-119.063843
 11
-125.226990
 21
-118.563843
  0
LINE
  8
0
 62
     4
 10
-93.226990
 20
-119.063843
 11
-93.226990
 21
-118.563843
  0
LINE
  8
0
 62
     4
 10
-79.226990
 20
-41.063828
 11
-79.226990
 21
-43.563828
  0
LINE
  8
0
 62
     4
 10
-79.227165
 20
-56.063725
 11
-81.727158
 21
-58.563717
  0
LINE
  8
0
 62
     4
 10
-81.727051
 20
-38.563900
 11
-79.227074
 21
-41.063869
  0
LINE
  8
0
 62
     4
 10
-79.227028
 20
-101.063812
 11
-81.727028
 21
-98.563828
  0
LINE
  8
0
 62
     4
 10
-79.226990
 20
-116.063843
 11
-79.226990
 21
-113.563843
  0
LINE
  8
0
 62
     4
 10
-81.727043
 20
-118.563820
 11
-79.227028
 21
-116.063812
  0
LINE
  8
0
 62
     4
 10
-79.227028
 20
-43.563740
 11
-107.227051
 21
-46.188404
  0
LINE
  8
0
 62
     4
 10
-79.227020
 20
-56.063744
 11
-107.227020
 21
-53.439079
  0
LINE
  8
0
 62
     4
 10
-79.226990
 20
-101.063789
 11
-107.226990
 21
-103.688446
  0
LINE
  8
0
 62
     4
 10
-79.227043
 20
-113.563835
 11
-107.227036
 21
-110.939178
  0
LINE
  8
0
 62
     4
 10
-34.226856
 20
-43.563801
 11
-39.227039
 21
-46.188469
  0
LINE
  8
0
 62
     4
 10
-39.227058
 20
-110.939178
 11
-34.226883
 21
-113.563828
  0
LINE
  8
0
 62
     4
 10
0.773010
 20
-55.563828
 11
0.773010
 21
-101.563721
  0
LINE
  8
0
 62
     4
 10
-24.227020
 20
-53.563797
 11
-1.227020
 21
-53.563797
  0
LINE
  8
0
 62
     4
 10
-1.227100
 20
-53.563927
 11
0.772904
 21
-55.563927
  0
LINE
  8
0
 62
     4
 10
-1.226990
 20
-53.563828
 11
-1.226990
 21
-103.563843
  0
LINE
  8
0
 62
     4
 10
-1.227059
 20
-103.563759
 11
0.772935
 21
-101.563744
  0
LINE
  8
0
 62
     4
 10
-24.227020
 20
-103.563828
 11
-1.227020
 21
-103.563828
  0
LINE
  8
0
 62
     4
 10
-24.226990
 20
-53.563828
 11
-24.226990
 21
-103.563843
  0
LINE
  8
0
 62
     4
 10
-34.226826
 20
-43.563820
 11
-24.226900
 21
-53.563740
  0
LINE
  8
0
 62
     4
 10
-34.226879
 20
-113.563812
 11
-24.226965
 21
-103.563896
  0
LINE
  8
0
 62
     4
 10
-93.226990
 20
-98.563828
 11
-93.226990
 21
-58.563828
  0
LINE
  8
0
 62
     4
 10
-125.226990
 20
-98.563828
 11
-125.226990
 21
-58.563828
  0
LINE
  8
0
 62
     4
 10
-54.170616
 20
-78.496826
 11
-60.920700
 21
-103.688484
  0
LINE
  8
0
 62
     4
 10
-54.170597
 20
-78.630836
 11
-60.920689
 21
-53.439178
  0
LINE
  8
0
 62
     4
 10
-62.226997
 20
-56.063839
 11
-60.920654
 21
-53.439175
  0
LINE
  8
0
 62
     4
 10
-62.227016
 20
-101.063850
 11
-60.920673
 21
-103.688522
  0
LINE
  8
0
 62
     4
 10
-39.227032
 20
-46.188511
 11
-29.226860
 21
-78.563850
  0
LINE
  8
0
 62
     4
 10
-29.226875
 20
-78.563812
 11
-39.227051
 21
-110.939163
  0
CIRCLE
  8
0
 62
     4
 10
-205.133301
 20
59.999985
 40
27.000000
  0
ARC
  8
0
 62
     4
 10
-179.724426
 20
60.087387
 40
44.222984
 50
322.228027
 51
37.485771
  0
CIRCLE
  8
0
 62
     4
 10
-205.133301
 20
59.999985
 40
12.500000
  0
CIRCLE
  8
0
 62
     4
 10
-205.133301
 20
59.999985
 40
13.000000
  0
CIRCLE
  8
0
 62
     4
 10
-205.133301
 20
59.999985
 40
25.000000
  0
ARC
  8
0
 62
     4
 10
-170.705841
 20
203.756363
 40
37.201881
 50
314.048737
 51
45.505623
  0
ARC
  8
0
 62
     4
 10
-203.133301
 20
232.293228
 40
2.000000
 50
180.000000
 51
270.000000
  0
ARC
  8
0
 62
     4
 10
-203.133301
 20
222.017593
 40
2.000000
 50
90.000000
 51
180.000000
  0
ARC
  8
0
 62
     4
 10
-203.133301
 20
185.293228
 40
2.000000
 50
180.000000
 51
270.000000
  0
ARC
  8
0
 62
     4
 10
-203.133301
 20
175.017593
 40
2.000000
 50
90.000000
 51
180.000000
  0
ARC
  8
0
 62
     4
 10
-185.649994
 20
203.655411
 40
26.000010
 50
329.999969
 51
29.999952
  0
CIRCLE
  8
0
 62
     4
 10
189.372070
 20
60.000061
 40
27.000000
  0
CIRCLE
  8
0
 62
     4
 10
189.372070
 20
60.000061
 40
14.000000
  0
CIRCLE
  8
0
 62
     4
 10
189.372070
 20
60.000061
 40
25.000000
  0
CIRCLE
  8
0
 62
     4
 10
189.372070
 20
60.000061
 40
14.500000
  0
ARC
  8
0
 62
     4
 10
205.799072
 20
60.000061
 40
55.572811
 50
330.931824
 51
29.068096
  0
ARC
  8
0
 62
     4
 10
191.372040
 20
220.637878
 40
2.000000
 50
180.000000
 51
270.000000
  0
ARC
  8
0
 62
     4
 10
191.372040
 20
210.362274
 40
2.000000
 50
90.000000
 51
180.000000
  0
ARC
  8
0
 62
     4
 10
191.372040
 20
169.637909
 40
2.000000
 50
180.000000
 51
270.000000
  0
ARC
  8
0
 62
     4
 10
191.372040
 20
159.362305
 40
2.000000
 50
90.000000
 51
180.000000
  0
ARC
  8
0
 62
     4
 10
210.642914
 20
190.000092
 40
27.400019
 50
330.000000
 51
29.999920
  0
CIRCLE
  8
0
 62
     4
 10
-109.226990
 20
-208.563828
 40
16.000000
  0
CIRCLE
  8
0
 62
     4
 10
-109.226990
 20
-208.563828
 40
16.500000
  0
CIRCLE
  8
0
 62
     4
 10
-109.226990
 20
-208.563828
 40
30.000000
  0
CIRCLE
  8
0
 62
     4
 10
-109.226990
 20
-208.563828
 40
27.500000
  0
ARC
  8
0
 62
     4
 10
-126.723907
 20
-208.563828
 40
92.497055
 50
341.074677
 51
18.925238
  0
ARC
  8
0
 62
     4
 10
-107.227020
 20
-44.188492
 40
2.000000
 50
180.000000
 51
270.000000
  0
ARC
  8
0
 62
     4
 10
-107.227020
 20
-55.439163
 40
2.000000
 50
90.000000
 51
180.000000
  0
ARC
  8
0
 62
     4
 10
-107.227005
 20
-101.688507
 40
2.000000
 50
180.000000
 51
270.000000
  0
ARC
  8
0
 62
     4
 10
-107.227005
 20
-112.939178
 40
2.000000
 50
90.000000
 51
180.000000
  0
ARC
  8
0
 62
     4
 10
-85.956131
 20
-78.563843
 40
27.400023
 50
330.000000
 51
29.999928
  0
TEXT
  8
0
 10
-387.785309
 20
256.649994
 40
9.000000
  1
SD Y-KNUCKLE,-Y
 50
0.000000
 41
1.052632
 51
0.000000
  7
STANDARD
  0
TEXT
  8
0
 10
242.014816
 20
-274.500000
 40
12.500000
  1
KOGANEI CORP.
 50
0.000000
 41
1.052632
 51
0.000000
  7
STANDARD
  0
TEXT
  8
0
 10
251.264664
 20
256.649994
 40
9.000000
  1
DATE: AUG ,1993
 50
0.000000
 41
1.052632
 51
0.000000
  7
STANDARD
  0
TEXT
  8
0
 10
-384.785309
 20
224.149994
 40
9.000000
  1
MODEL:Y-SD125
 50
0.000000
 41
1.052632
 51
0.000000
  7
STANDARD
  0
TEXT
  8
0
 10
-384.785309
 20
-27.350000
 40
9.000000
  1
MODEL:Y-SD160
 50
0.000000
 41
1.052632
 51
0.000000
  7
STANDARD
  0
TEXT
  8
0
 10
14.739680
 20
224.149994
 40
9.000000
  1
MODEL:Y-SD140
 50
0.000000
 41
1.052632
 51
0.000000
  7
STANDARD
  0
ENDSEC
  0
EOF
