  0
SECTION
  2
HEADER
  0
ENDSEC
  0
SECTION
  2
TABLES
  0
TABLE
  2
LTYPE
 70
     4
  0
LTYPE
  2
CONTINUOUS
 70
    64
  3
Solid line
 72
    65
 73
     0
 40
0.000000
  0
LTYPE
  2
DASHED
 70
    64
  3
__ __ __ __ __ __ __ __ __ __ __ __ __ __ __
 72
    65
 73
     2
 40
3.500000
 49
2.000000
 49
-1.500000
  0
LTYPE
  2
CENTER
 70
    64
  3
____ _ ____ _ ____ _ ____ _ ____ _ ____ _ ____
 72
    65
 73
     4
 40
17.500000
 49
13.000000
 49
-1.500000
 49
1.500000
 49
-1.500000
  0
LTYPE
  2
PHANTOM
 70
    64
  3
_____ _ _ _____ _ _ _____ _ _ _____ _ _ ____  
 72
    65
 73
     6
 40
15.500000
 49
8.000000
 49
-1.500000
 49
1.500000
 49
-1.500000
 49
1.500000
 49
-1.500000
  0
LTYPE
  2
DASHED1
 70
    64
  3
__ __ __ __ __ __ __ __ __ __ __ __ __ __ __
 72
    65
 73
     2
 40
1.500000
 49
1.000000
 49
-0.500000
  0
LTYPE
  2
DASHED2
 70
    64
  3
__ __ __ __ __ __ __ __ __ __ __ __ __ __ __
 72
    65
 73
     2
 40
3.500000
 49
2.500000
 49
-1.000000
  0
LTYPE
  2
DASHED3
 70
    64
  3
__ __ __ __ __ __ __ __ __ __ __ __ __ __ __
 72
    65
 73
     2
 40
6.000000
 49
4.000000
 49
-2.000000
  0
LTYPE
  2
DASHED4
 70
    64
  3
__ __ __ __ __ __ __ __ __ __ __ __ __ __ __
 72
    65
 73
     2
 40
12.000000
 49
10.000000
 49
-2.000000
  0
LTYPE
  2
DASHED5
 70
    64
  3
__ __ __ __ __ __ __ __ __ __ __ __ __ __ __
 72
    65
 73
     2
 40
17.000000
 49
15.000000
 49
-2.000000
  0
LTYPE
  2
DASHED6
 70
    64
  3
__ __ __ __ __ __ __ __ __ __ __ __ __ __ __
 72
    65
 73
     2
 40
29.000000
 49
27.000000
 49
-2.000000
  0
LTYPE
  2
PHANTOM1
 70
    64
  3
_____ _ _ _____ _ _ _____ _ _ _____ _ _ ____  
 72
    65
 73
     6
 40
31.000000
 49
25.000000
 49
-1.500000
 49
1.000000
 49
-1.000000
 49
1.000000
 49
-1.500000
  0
LTYPE
  2
PHANTOM2
 70
    64
  3
_____ _ _ _____ _ _ _____ _ _ _____ _ _ ____  
 72
    65
 73
     6
 40
36.000000
 49
27.000000
 49
-1.500000
 49
2.500000
 49
-1.000000
 49
2.500000
 49
-1.500000
  0
LTYPE
  2
PHANTOM3
 70
    64
  3
_____ _ _ _____ _ _ _____ _ _ _____ _ _ ____  
 72
    65
 73
     6
 40
78.000000
 49
64.000000
 49
-2.000000
 49
4.000000
 49
-2.000000
 49
4.000000
 49
-2.000000
  0
LTYPE
  2
CENTER1
 70
    64
  3
____ _ ____ _ ____ _ ____ _ ____ _ ____ _ ____
 72
    65
 73
     4
 40
19.000000
 49
14.000000
 49
-1.000000
 49
3.000000
 49
-1.000000
  0
LTYPE
  2
CENTER2
 70
    64
  3
____ _ ____ _ ____ _ ____ _ ____ _ ____ _ ____
 72
    65
 73
     4
 40
28.500000
 49
25.000000
 49
-1.000000
 49
1.500000
 49
-1.000000
  0
LTYPE
  2
CENTER3
 70
    64
  3
____ _ ____ _ ____ _ ____ _ ____ _ ____ _ ____
 72
    65
 73
     4
 40
31.500000
 49
27.000000
 49
-1.000000
 49
2.500000
 49
-1.000000
  0
LTYPE
  2
CENTER4
 70
    64
  3
____ _ ____ _ ____ _ ____ _ ____ _ ____ _ ____
 72
    65
 73
     4
 40
50.000000
 49
45.000000
 49
-1.000000
 49
3.000000
 49
-1.000000
  0
LTYPE
  2
CENTER5
 70
    64
  3
____ _ ____ _ ____ _ ____ _ ____ _ ____ _ ____
 72
    65
 73
     4
 40
100.000000
 49
92.000000
 49
-2.000000
 49
4.000000
 49
-2.000000
  0
LTYPE
  2
SBK1
 70
    64
  3
______ _ _ _ ______ _ _ _ ______ _ _ _ _____  
 72
    65
 73
     8
 40
60.500000
 49
45.000000
 49
-2.000000
 49
2.500000
 49
-2.000000
 49
2.500000
 49
-2.000000
 49
2.500000
 49
-2.000000
  0
LTYPE
  2
SBK2
 70
    64
  3
______ _ _ _ ______ _ _ _ ______ _ _ _ _____  
 72
    65
 73
     8
 40
84.000000
 49
64.000000
 49
-2.000000
 49
4.000000
 49
-2.000000
 49
4.000000
 49
-2.000000
 49
4.000000
 49
-2.000000
  0
LTYPE
  2
STCH
 70
    64
  3
__ __ __ __ __ __ __ __ __ __ __ __ __ __ __
 72
    65
 73
     2
 40
3.000000
 49
1.000000
 49
-2.000000
  0
LTYPE
  2
MTCH
 70
    64
  3
_____ _ _ _____ _ _ _____ _ _ _____ _ _ ____  
 72
    65
 73
     6
 40
80.000000
 49
66.000000
 49
-2.000000
 49
4.000000
 49
-2.000000
 49
4.000000
 49
-2.000000
  0
ENDTAB
  0
TABLE
  2
LAYER
 70
     1
  0
LAYER
  2
0
 70
     0
 62
     7
  6
CONTINUOUS
  0
ENDTAB
  0
TABLE
  2
STYLE
 70
     1
  0
STYLE
  2
STANDARD
 70
     0
 40
0.000000
 41
1.000000
 50
0.000000
 71
     0
 42
0.200000
  3
txt
  4
BIGFONT
  0
ENDTAB
  0
TABLE
  2
VIEW
 70
     0
  0
ENDTAB
  0
ENDSEC
  0
SECTION
  2
BLOCKS
  0
ENDSEC
  0
SECTION
  2
ENTITIES
  0
LINE
  8
0
 10
399.799988
 20
276.250000
 11
399.799988
 21
-276.750000
  0
LINE
  8
0
 10
-399.250000
 20
276.250000
 11
-399.250000
 21
-276.750000
  0
LINE
  8
0
 10
-399.250000
 20
276.250000
 11
399.799988
 21
276.250000
  0
LINE
  8
0
 10
-399.250000
 20
-276.750000
 11
399.799988
 21
-276.750000
  0
LINE
  8
0
 10
239.799988
 20
-251.750000
 11
399.799988
 21
-251.750000
  0
LINE
  8
0
 10
239.799988
 20
251.250000
 11
399.799988
 21
251.250000
  0
LINE
  8
0
 10
-399.250000
 20
251.250000
 11
-239.250000
 21
251.250000
  0
LINE
  8
0
 10
239.799988
 20
-251.750000
 11
239.799988
 21
-276.750000
  0
LINE
  8
0
 10
239.799988
 20
251.250000
 11
239.799988
 21
276.250000
  0
LINE
  8
0
 10
-239.250000
 20
276.250000
 11
-239.250000
 21
251.250000
  0
LINE
  8
0
 10
-399.250000
 20
-0.250000
 11
399.799988
 21
-0.250000
  0
LINE
  8
0
 10
0.274994
 20
276.250000
 11
0.274994
 21
-0.250000
  0
LINE
  8
0
  6
CENTER
 62
     1
 10
-253.832611
 20
66.000038
 11
-74.724838
 21
66.000038
  0
LINE
  8
0
  6
CENTER
 62
     1
 10
-213.133301
 20
106.000038
 11
-213.133301
 21
26.000038
  0
LINE
  8
0
 62
     4
 10
-88.133301
 20
93.999893
 11
-88.133301
 21
38.000145
  0
LINE
  8
0
 62
     4
 10
-118.133301
 20
96.000015
 11
-118.133301
 21
36.000023
  0
LINE
  8
0
 62
     4
 10
-118.133301
 20
96.000031
 11
-90.133301
 21
96.000031
  0
LINE
  8
0
 62
     4
 10
-123.133148
 20
101.000023
 11
-118.133209
 21
96.000076
  0
LINE
  8
0
 62
     4
 10
-90.133347
 20
95.999947
 11
-88.133331
 21
93.999939
  0
LINE
  8
0
 62
     4
 10
-90.133301
 20
96.000015
 11
-90.133301
 21
36.000023
  0
LINE
  8
0
 62
     4
 10
-123.133156
 20
31.000013
 11
-118.133224
 21
35.999939
  0
LINE
  8
0
 62
     4
 10
-90.133339
 20
36.000114
 11
-88.133347
 21
38.000126
  0
LINE
  8
0
 62
     4
 10
-118.133301
 20
36.000038
 11
-90.133301
 21
36.000038
  0
LINE
  8
0
 62
     4
 10
-213.133301
 20
101.000031
 11
-123.133148
 21
101.000031
  0
LINE
  8
0
 62
     4
 10
-213.133301
 20
31.000038
 11
-123.133148
 21
31.000038
  0
LINE
  8
0
 62
     4
 10
-375.133301
 20
101.000031
 11
-281.133301
 21
101.000031
  0
LINE
  8
0
 62
     4
 10
-375.133301
 20
31.000038
 11
-281.133301
 21
31.000038
  0
LINE
  8
0
  6
CENTER
 62
     1
 10
-328.133301
 20
106.000038
 11
-328.133301
 21
26.000038
  0
LINE
  8
0
 62
     4
 10
-383.133301
 20
86.000023
 11
-383.133301
 21
46.000023
  0
LINE
  8
0
 62
     4
 10
-378.633270
 20
86.500023
 11
-378.633270
 21
45.500023
  0
LINE
  8
0
 62
     4
 10
-380.283264
 20
86.500023
 11
-380.283264
 21
45.500023
  0
LINE
  8
0
 62
     4
 10
-378.133270
 20
98.000076
 11
-378.133270
 21
33.999992
  0
LINE
  8
0
 62
     4
 10
-375.133301
 20
101.000031
 11
-375.133301
 21
31.000038
  0
LINE
  8
0
 62
     4
 10
-356.133270
 20
101.000031
 11
-356.133270
 21
31.000038
  0
LINE
  8
0
 62
     4
 10
-353.133270
 20
98.000038
 11
-353.133270
 21
34.000019
  0
LINE
  8
0
  6
CENTER
 62
     1
 10
-388.145020
 20
66.000038
 11
-268.017120
 21
66.000038
  0
LINE
  8
0
 62
     4
 10
-380.283264
 20
86.500023
 11
-378.633270
 21
86.500023
  0
LINE
  8
0
 62
     4
 10
-383.133301
 20
86.000023
 11
-380.283264
 21
86.000023
  0
LINE
  8
0
 62
     4
 10
-383.133301
 20
46.000023
 11
-380.283264
 21
46.000023
  0
LINE
  8
0
 62
     4
 10
-380.283264
 20
45.500023
 11
-378.633270
 21
45.500023
  0
LINE
  8
0
 62
     4
 10
-378.633270
 20
86.000023
 11
-378.133270
 21
86.000023
  0
LINE
  8
0
 62
     4
 10
-378.633270
 20
46.000023
 11
-378.133270
 21
46.000023
  0
LINE
  8
0
 62
     4
 10
-375.133392
 20
101.000107
 11
-378.133362
 21
98.000153
  0
LINE
  8
0
 62
     4
 10
-375.133362
 20
30.999954
 11
-378.133331
 21
33.999908
  0
LINE
  8
0
 62
     4
 10
-353.133270
 20
86.000038
 11
-303.133270
 21
86.000038
  0
LINE
  8
0
 62
     4
 10
-353.133270
 20
46.000038
 11
-303.133270
 21
46.000038
  0
LINE
  8
0
 62
     4
 10
-356.133240
 20
101.000092
 11
-353.133209
 21
98.000069
  0
LINE
  8
0
 62
     4
 10
-356.133362
 20
31.000105
 11
-353.133392
 21
34.000080
  0
LINE
  8
0
 62
     4
 10
-300.133545
 20
30.999910
 11
-303.133545
 21
33.999882
  0
LINE
  8
0
 62
     4
 10
-281.133118
 20
30.999895
 11
-278.133148
 21
33.999847
  0
LINE
  8
0
 62
     4
 10
-273.133301
 20
86.000023
 11
-273.133301
 21
46.000023
  0
LINE
  8
0
 62
     4
 10
-277.633331
 20
86.500023
 11
-277.633331
 21
45.500023
  0
LINE
  8
0
 62
     4
 10
-275.983337
 20
86.500023
 11
-275.983337
 21
45.500023
  0
LINE
  8
0
 62
     4
 10
-278.133331
 20
98.000076
 11
-278.133331
 21
33.999992
  0
LINE
  8
0
 62
     4
 10
-281.133301
 20
101.000031
 11
-281.133301
 21
31.000038
  0
LINE
  8
0
 62
     4
 10
-300.133331
 20
101.000031
 11
-300.133331
 21
31.000038
  0
LINE
  8
0
 62
     4
 10
-303.133331
 20
98.000038
 11
-303.133331
 21
34.000019
  0
LINE
  8
0
 62
     4
 10
-300.133575
 20
101.000221
 11
-303.133575
 21
98.000221
  0
LINE
  8
0
 62
     4
 10
-275.983337
 20
86.500023
 11
-277.633331
 21
86.500023
  0
LINE
  8
0
 62
     4
 10
-273.133301
 20
86.000023
 11
-275.983337
 21
86.000023
  0
LINE
  8
0
 62
     4
 10
-273.133301
 20
46.000023
 11
-275.983337
 21
46.000023
  0
LINE
  8
0
 62
     4
 10
-275.983337
 20
45.500023
 11
-277.633331
 21
45.500023
  0
LINE
  8
0
 62
     4
 10
-277.633331
 20
86.000023
 11
-278.133331
 21
86.000023
  0
LINE
  8
0
 62
     4
 10
-277.633331
 20
46.000023
 11
-278.133331
 21
46.000023
  0
LINE
  8
0
 62
     4
 10
-281.133331
 20
100.999947
 11
-278.133392
 21
98.000015
  0
LINE
  8
0
  6
CENTER
 62
     1
 10
-252.814758
 20
189.655411
 11
-74.473061
 21
189.655411
  0
LINE
  8
0
 62
     4
 10
-248.133301
 20
236.655380
 11
-248.133301
 21
217.655380
  0
LINE
  8
0
 62
     4
 10
-245.133301
 20
214.655411
 11
-181.133316
 21
214.655411
  0
LINE
  8
0
 62
     4
 10
-245.133301
 20
239.655411
 11
-181.133316
 21
239.655411
  0
LINE
  8
0
 62
     4
 10
-211.133316
 20
220.717514
 11
-155.232178
 21
220.717514
  0
LINE
  8
0
 62
     4
 10
-211.133316
 20
230.593307
 11
-137.701065
 21
230.593307
  0
LINE
  8
0
 62
     4
 10
-233.133316
 20
244.655396
 11
-193.133316
 21
244.655396
  0
LINE
  8
0
 62
     4
 10
-233.633316
 20
240.155411
 11
-192.633316
 21
240.155411
  0
LINE
  8
0
 62
     4
 10
-233.633316
 20
241.805405
 11
-192.633316
 21
241.805405
  0
LINE
  8
0
 62
     4
 10
-193.133301
 20
244.655396
 11
-193.133301
 21
241.805374
  0
LINE
  8
0
 62
     4
 10
-233.133301
 20
244.655396
 11
-233.133301
 21
241.805374
  0
LINE
  8
0
 62
     4
 10
-233.633301
 20
241.805374
 11
-233.633301
 21
240.155380
  0
LINE
  8
0
 62
     4
 10
-192.633301
 20
241.805374
 11
-192.633301
 21
240.155380
  0
LINE
  8
0
 62
     4
 10
-193.133301
 20
240.155380
 11
-193.133301
 21
239.655380
  0
LINE
  8
0
  6
CENTER
 62
     1
 10
-213.133301
 20
123.036865
 11
-213.133301
 21
256.773041
  0
LINE
  8
0
 62
     4
 10
-178.133301
 20
236.655380
 11
-178.133301
 21
233.655380
  0
LINE
  8
0
 62
     4
 10
-88.133301
 20
217.655380
 11
-88.133301
 21
161.655533
  0
LINE
  8
0
 62
     4
 10
-118.133316
 20
219.655411
 11
-90.133316
 21
219.655411
  0
LINE
  8
0
 62
     4
 10
-90.133415
 20
219.655304
 11
-88.133415
 21
217.655304
  0
LINE
  8
0
 62
     4
 10
-90.133301
 20
219.655380
 11
-90.133301
 21
159.655380
  0
LINE
  8
0
 62
     4
 10
-90.133354
 20
159.655380
 11
-88.133331
 21
161.655411
  0
LINE
  8
0
 62
     4
 10
-118.133316
 20
159.655380
 11
-90.133316
 21
159.655380
  0
LINE
  8
0
 62
     4
 10
-118.133301
 20
219.655380
 11
-118.133301
 21
159.655380
  0
LINE
  8
0
 62
     4
 10
-132.133102
 20
233.655411
 11
-118.133217
 21
219.655548
  0
LINE
  8
0
 62
     4
 10
-233.133301
 20
164.655380
 11
-233.133301
 21
214.655380
  0
LINE
  8
0
 62
     4
 10
-193.133301
 20
164.655380
 11
-193.133301
 21
214.655380
  0
LINE
  8
0
 62
     4
 10
-178.133316
 20
233.655411
 11
-132.133133
 21
233.655411
  0
LINE
  8
0
 62
     4
 10
-178.133316
 20
217.655411
 11
-159.133316
 21
217.655411
  0
LINE
  8
0
 62
     4
 10
-245.133362
 20
239.655380
 11
-248.133347
 21
236.655380
  0
LINE
  8
0
 62
     4
 10
-248.133362
 20
217.655426
 11
-245.133392
 21
214.655441
  0
LINE
  8
0
 62
     4
 10
-181.133255
 20
239.655396
 11
-178.133240
 21
236.655380
  0
LINE
  8
0
 62
     4
 10
-178.133331
 20
236.655441
 11
-248.133301
 21
236.655441
  0
LINE
  8
0
 62
     4
 10
-248.133301
 20
217.655411
 11
-178.133331
 21
217.655411
  0
LINE
  8
0
 62
     4
 10
-178.133331
 20
233.655472
 11
-211.133347
 21
230.593353
  0
LINE
  8
0
 62
     4
 10
-178.133331
 20
217.655792
 11
-211.133316
 21
220.717896
  0
LINE
  8
0
 62
     4
 10
-178.133209
 20
217.655304
 11
-181.133224
 21
214.655289
  0
LINE
  8
0
 62
     4
 10
-248.133301
 20
142.655380
 11
-248.133301
 21
161.655380
  0
LINE
  8
0
 62
     4
 10
-245.133301
 20
164.655380
 11
-181.133316
 21
164.655380
  0
LINE
  8
0
 62
     4
 10
-245.133301
 20
139.655380
 11
-181.133316
 21
139.655380
  0
LINE
  8
0
 62
     4
 10
-211.133316
 20
158.593277
 11
-155.232178
 21
158.593277
  0
LINE
  8
0
 62
     4
 10
-211.133316
 20
148.717484
 11
-137.701065
 21
148.717484
  0
LINE
  8
0
 62
     4
 10
-233.133316
 20
134.655380
 11
-193.133316
 21
134.655380
  0
LINE
  8
0
 62
     4
 10
-233.633316
 20
139.155380
 11
-192.633316
 21
139.155380
  0
LINE
  8
0
 62
     4
 10
-233.633316
 20
137.505386
 11
-192.633316
 21
137.505386
  0
LINE
  8
0
 62
     4
 10
-193.133301
 20
134.655380
 11
-193.133301
 21
137.505386
  0
LINE
  8
0
 62
     4
 10
-233.133301
 20
134.655380
 11
-233.133301
 21
137.505386
  0
LINE
  8
0
 62
     4
 10
-233.633301
 20
137.505386
 11
-233.633301
 21
139.155380
  0
LINE
  8
0
 62
     4
 10
-192.633301
 20
137.505386
 11
-192.633301
 21
139.155380
  0
LINE
  8
0
 62
     4
 10
-193.133301
 20
139.155380
 11
-193.133301
 21
139.655380
  0
LINE
  8
0
 62
     4
 10
-178.133301
 20
142.655380
 11
-178.133301
 21
145.655380
  0
LINE
  8
0
 62
     4
 10
-178.133316
 20
145.655380
 11
-132.133087
 21
145.655380
  0
LINE
  8
0
 62
     4
 10
-233.133301
 20
139.155380
 11
-233.133301
 21
139.655380
  0
LINE
  8
0
 62
     4
 10
-178.133316
 20
161.655380
 11
-159.133316
 21
161.655380
  0
LINE
  8
0
 62
     4
 10
-245.133331
 20
139.655319
 11
-248.133316
 21
142.655304
  0
LINE
  8
0
 62
     4
 10
-248.133255
 20
161.655228
 11
-245.133255
 21
164.655228
  0
LINE
  8
0
 62
     4
 10
-181.133408
 20
139.655441
 11
-178.133392
 21
142.655441
  0
LINE
  8
0
 62
     4
 10
-178.133331
 20
142.655350
 11
-248.133301
 21
142.655350
  0
LINE
  8
0
 62
     4
 10
-248.133301
 20
161.655380
 11
-178.133331
 21
161.655380
  0
LINE
  8
0
 62
     4
 10
-178.133331
 20
145.655502
 11
-211.133347
 21
148.717606
  0
LINE
  8
0
 62
     4
 10
-178.133362
 20
161.655441
 11
-211.133362
 21
158.593353
  0
LINE
  8
0
 62
     4
 10
-178.133270
 20
161.655350
 11
-181.133301
 21
164.655380
  0
LINE
  8
0
 62
     4
 10
-132.133057
 20
145.655365
 11
-118.133194
 21
159.655243
  0
LINE
  8
0
 62
     4
 10
-159.133301
 20
161.655350
 11
-159.133301
 21
170.405411
  0
LINE
  8
0
 62
     4
 10
-159.133301
 20
208.905411
 11
-159.133301
 21
217.655380
  0
LINE
  8
0
 62
     4
 10
-149.754974
 20
189.655334
 11
-155.232056
 21
158.593262
  0
LINE
  8
0
 62
     4
 10
-149.755127
 20
189.655365
 11
-155.232208
 21
220.717438
  0
LINE
  8
0
 62
     4
 10
-159.133453
 20
217.655563
 11
-155.232330
 21
220.717651
  0
LINE
  8
0
 62
     4
 10
-159.133316
 20
161.655380
 11
-155.232193
 21
158.593307
  0
LINE
  8
0
  6
DASHED
 62
     1
 10
-143.133301
 20
209.655411
 11
-143.133301
 21
169.655411
  0
LINE
  8
0
  6
DASHED
 62
     1
 10
-143.133301
 20
169.655411
 11
-88.133301
 21
169.655411
  0
LINE
  8
0
  6
DASHED
 62
     1
 10
-159.133301
 20
170.405411
 11
-88.133301
 21
170.405411
  0
LINE
  8
0
  6
DASHED
 62
     1
 10
-159.133301
 20
208.905411
 11
-88.133301
 21
208.905411
  0
LINE
  8
0
  6
DASHED
 62
     1
 10
-143.133301
 20
209.655411
 11
-88.133301
 21
209.655411
  0
LINE
  8
0
  6
DASHED
 62
     1
 10
-143.133316
 20
209.655457
 11
-144.432358
 21
208.905457
  0
LINE
  8
0
  6
DASHED
 62
     1
 10
-143.133301
 20
169.655380
 11
-144.432312
 21
170.405380
  0
LINE
  8
0
  6
DASHED
 62
     1
 10
-144.432343
 20
208.905426
 11
-144.432343
 21
170.405411
  0
LINE
  8
0
 62
     4
 10
-123.133133
 20
189.655396
 11
-137.701050
 21
230.593292
  0
LINE
  8
0
 62
     4
 10
-132.133072
 20
233.655350
 11
-137.701035
 21
230.593246
  0
LINE
  8
0
 62
     4
 10
-137.701080
 20
148.717484
 11
-132.133087
 21
145.655380
  0
LINE
  8
0
 62
     4
 10
-123.133148
 20
189.655396
 11
-137.701065
 21
148.717468
  0
LINE
  8
0
 62
     4
 10
182.372437
 20
101.000084
 11
272.372437
 21
101.000084
  0
LINE
  8
0
 62
     4
 10
182.372437
 20
31.000084
 11
272.372437
 21
31.000084
  0
LINE
  8
0
 62
     4
 10
277.372437
 20
36.000084
 11
277.372437
 21
96.000084
  0
LINE
  8
0
 62
     4
 10
277.372437
 20
36.000084
 11
305.372437
 21
36.000084
  0
LINE
  8
0
 62
     4
 10
277.372437
 20
96.000084
 11
305.372406
 21
96.000084
  0
LINE
  8
0
 62
     4
 10
272.372253
 20
101.000008
 11
277.372284
 21
95.999992
  0
LINE
  8
0
 62
     4
 10
272.372437
 20
31.000044
 11
277.372406
 21
36.000027
  0
LINE
  8
0
 62
     4
 10
305.372437
 20
36.000084
 11
305.372437
 21
96.000084
  0
LINE
  8
0
 62
     4
 10
305.372406
 20
36.000168
 11
307.372406
 21
38.000172
  0
LINE
  8
0
 62
     4
 10
307.372559
 20
94.000153
 11
305.372498
 21
96.000191
  0
LINE
  8
0
 62
     4
 10
307.372498
 20
94.000160
 11
307.372498
 21
38.000160
  0
LINE
  8
0
  6
CENTER
 62
     1
 10
142.186935
 20
66.000084
 11
325.667267
 21
66.000084
  0
LINE
  8
0
  6
CENTER
 62
     1
 10
182.372437
 20
20.633492
 11
182.372437
 21
113.208672
  0
LINE
  8
0
 62
     4
 10
93.372429
 20
98.000084
 11
93.372429
 21
34.000053
  0
LINE
  8
0
 62
     4
 10
43.372429
 20
98.000084
 11
43.372429
 21
34.000053
  0
LINE
  8
0
 62
     4
 10
118.372429
 20
98.000160
 11
118.372429
 21
34.000084
  0
LINE
  8
0
 62
     4
 10
18.372429
 20
98.000084
 11
18.372429
 21
34.000084
  0
LINE
  8
0
 62
     4
 10
21.372429
 20
101.000084
 11
115.372429
 21
101.000084
  0
LINE
  8
0
 62
     4
 10
21.372429
 20
31.000084
 11
115.372429
 21
31.000084
  0
LINE
  8
0
 62
     4
 10
21.372429
 20
101.000084
 11
21.372429
 21
31.000084
  0
LINE
  8
0
 62
     4
 10
96.372429
 20
101.000084
 11
96.372429
 21
31.000084
  0
LINE
  8
0
 62
     4
 10
115.372429
 20
101.000084
 11
115.372429
 21
31.000084
  0
LINE
  8
0
 62
     4
 10
18.372356
 20
98.000114
 11
21.372339
 21
101.000099
  0
LINE
  8
0
 62
     4
 10
40.372223
 20
100.999802
 11
43.372204
 21
97.999817
  0
LINE
  8
0
 62
     4
 10
18.372747
 20
34.000237
 11
21.372747
 21
31.000238
  0
LINE
  8
0
 62
     4
 10
40.372478
 20
31.000080
 11
43.372513
 21
34.000095
  0
LINE
  8
0
 62
     4
 10
96.372223
 20
30.999763
 11
93.372208
 21
33.999779
  0
LINE
  8
0
 62
     4
 10
93.372375
 20
98.000198
 11
96.372375
 21
101.000198
  0
LINE
  8
0
 62
     4
 10
115.372231
 20
100.999870
 11
118.372208
 21
97.999893
  0
LINE
  8
0
 62
     4
 10
118.372353
 20
34.000134
 11
115.372360
 21
31.000141
  0
LINE
  8
0
 62
     4
 10
40.372429
 20
101.000084
 11
40.372429
 21
31.000084
  0
LINE
  8
0
 62
     4
 10
17.622429
 20
88.500084
 11
17.622429
 21
43.500084
  0
LINE
  8
0
 62
     4
 10
15.872429
 20
88.500084
 11
15.872429
 21
43.500084
  0
LINE
  8
0
 62
     4
 10
17.622429
 20
86.000084
 11
18.372429
 21
86.000084
  0
LINE
  8
0
 62
     4
 10
17.622429
 20
46.000084
 11
18.372429
 21
46.000084
  0
LINE
  8
0
 62
     4
 10
119.122429
 20
86.000084
 11
118.372429
 21
86.000084
  0
LINE
  8
0
 62
     4
 10
119.122429
 20
46.000084
 11
118.372429
 21
46.000084
  0
LINE
  8
0
 62
     4
 10
124.872429
 20
86.000084
 11
120.872429
 21
86.000084
  0
LINE
  8
0
 62
     4
 10
119.122429
 20
88.500084
 11
119.122429
 21
43.500084
  0
LINE
  8
0
 62
     4
 10
124.872429
 20
86.000084
 11
124.872429
 21
46.000084
  0
LINE
  8
0
 62
     4
 10
124.872429
 20
46.000084
 11
120.872429
 21
46.000084
  0
LINE
  8
0
 62
     4
 10
120.872429
 20
88.500084
 11
120.872429
 21
43.500084
  0
LINE
  8
0
 62
     4
 10
43.372429
 20
46.000084
 11
93.372429
 21
46.000084
  0
LINE
  8
0
 62
     4
 10
43.372429
 20
86.000084
 11
93.372429
 21
86.000084
  0
LINE
  8
0
 62
     4
 10
15.872429
 20
88.500084
 11
17.622429
 21
88.500084
  0
LINE
  8
0
 62
     4
 10
15.872429
 20
43.500084
 11
17.622429
 21
43.500084
  0
LINE
  8
0
 62
     4
 10
119.122429
 20
88.500084
 11
120.872429
 21
88.500084
  0
LINE
  8
0
 62
     4
 10
119.122429
 20
43.500084
 11
120.872429
 21
43.500084
  0
LINE
  8
0
  6
CENTER
 62
     1
 10
3.372429
 20
66.000084
 11
133.372437
 21
66.000084
  0
LINE
  8
0
  6
CENTER
 62
     1
 10
68.372429
 20
111.000084
 11
68.372429
 21
21.000084
  0
LINE
  8
0
 62
     4
 10
11.872429
 20
86.000084
 11
15.872429
 21
86.000084
  0
LINE
  8
0
 62
     4
 10
11.872429
 20
86.000084
 11
11.872429
 21
46.000084
  0
LINE
  8
0
 62
     4
 10
11.872429
 20
46.000084
 11
15.872429
 21
46.000084
  0
LINE
  8
0
 62
     4
 10
236.372437
 20
162.000092
 11
236.372437
 21
168.250092
  0
LINE
  8
0
 62
     4
 10
277.372437
 20
160.000092
 11
277.372437
 21
220.000092
  0
LINE
  8
0
 62
     4
 10
307.372437
 20
162.000092
 11
307.372437
 21
218.000092
  0
LINE
  8
0
 62
     4
 10
277.372437
 20
220.000092
 11
305.372437
 21
220.000092
  0
LINE
  8
0
 62
     4
 10
277.372437
 20
160.000092
 11
305.372437
 21
160.000092
  0
LINE
  8
0
 62
     4
 10
305.372437
 20
160.000092
 11
305.372437
 21
220.000092
  0
LINE
  8
0
 62
     4
 10
305.372375
 20
160.000076
 11
307.372375
 21
162.000076
  0
LINE
  8
0
 62
     4
 10
307.372314
 20
218.000031
 11
305.372345
 21
219.999985
  0
LINE
  8
0
 62
     4
 10
240.273575
 20
221.062210
 11
245.750656
 21
190.000092
  0
LINE
  8
0
 62
     4
 10
240.273514
 20
158.938004
 11
245.750595
 21
190.000107
  0
LINE
  8
0
 62
     4
 10
263.372406
 20
234.000061
 11
277.372406
 21
220.000076
  0
LINE
  8
0
 62
     4
 10
263.372406
 20
146.000122
 11
277.372375
 21
160.000107
  0
LINE
  8
0
 62
     4
 10
253.512253
 20
230.938065
 11
263.372437
 21
234.000168
  0
LINE
  8
0
 62
     4
 10
253.512222
 20
149.062103
 11
263.372375
 21
146.000015
  0
LINE
  8
0
 62
     4
 10
236.372528
 20
162.000137
 11
240.273621
 21
158.938034
  0
LINE
  8
0
 62
     4
 10
217.372406
 20
162.000183
 11
182.372406
 21
158.938080
  0
LINE
  8
0
 62
     4
 10
217.372482
 20
146.000259
 11
182.372482
 21
149.062378
  0
LINE
  8
0
 62
     4
 10
150.372437
 20
215.000092
 11
214.372437
 21
215.000092
  0
LINE
  8
0
 62
     4
 10
150.372437
 20
165.000092
 11
214.372437
 21
165.000092
  0
LINE
  8
0
 62
     4
 10
150.372437
 20
240.000092
 11
214.372437
 21
240.000092
  0
LINE
  8
0
 62
     4
 10
150.372437
 20
140.000092
 11
214.372437
 21
140.000092
  0
LINE
  8
0
 62
     4
 10
147.372437
 20
143.000092
 11
147.372437
 21
162.000092
  0
LINE
  8
0
 62
     4
 10
147.372437
 20
218.000092
 11
147.372437
 21
237.000092
  0
LINE
  8
0
 62
     4
 10
217.372437
 20
143.000092
 11
217.372437
 21
146.000092
  0
LINE
  8
0
 62
     4
 10
217.372437
 20
234.000092
 11
217.372437
 21
237.000092
  0
LINE
  8
0
 62
     4
 10
147.372437
 20
143.000092
 11
217.372437
 21
143.000092
  0
LINE
  8
0
 62
     4
 10
147.372437
 20
162.000092
 11
236.372437
 21
162.000092
  0
LINE
  8
0
 62
     4
 10
147.372437
 20
218.000092
 11
236.372437
 21
218.000092
  0
LINE
  8
0
 62
     4
 10
147.372437
 20
237.000092
 11
217.372437
 21
237.000092
  0
LINE
  8
0
 62
     4
 10
150.372375
 20
140.000076
 11
147.372375
 21
143.000092
  0
LINE
  8
0
 62
     4
 10
147.372238
 20
162.000198
 11
150.372269
 21
165.000229
  0
LINE
  8
0
 62
     4
 10
214.372437
 20
140.000000
 11
217.372467
 21
143.000000
  0
LINE
  8
0
 62
     4
 10
217.372330
 20
161.999985
 11
214.372345
 21
164.999985
  0
LINE
  8
0
 62
     4
 10
217.372360
 20
218.000290
 11
214.372330
 21
215.000259
  0
LINE
  8
0
 62
     4
 10
150.372498
 20
215.000168
 11
147.372498
 21
218.000168
  0
LINE
  8
0
 62
     4
 10
147.372177
 20
237.000458
 11
150.372162
 21
240.000443
  0
LINE
  8
0
 62
     4
 10
214.372375
 20
240.000137
 11
217.372375
 21
237.000137
  0
LINE
  8
0
 62
     4
 10
217.372437
 20
146.000092
 11
263.372437
 21
146.000092
  0
LINE
  8
0
 62
     4
 10
217.372437
 20
234.000092
 11
263.372467
 21
234.000092
  0
LINE
  8
0
 62
     4
 10
182.372437
 20
149.062195
 11
253.512299
 21
149.062195
  0
LINE
  8
0
 62
     4
 10
182.372437
 20
158.937988
 11
240.273560
 21
158.937988
  0
LINE
  8
0
 62
     4
 10
182.372437
 20
221.062225
 11
240.273560
 21
221.062225
  0
LINE
  8
0
 62
     4
 10
182.372437
 20
230.937988
 11
253.512299
 21
230.937988
  0
LINE
  8
0
 62
     4
 10
217.372360
 20
234.000275
 11
182.372360
 21
230.938171
  0
LINE
  8
0
 62
     4
 10
217.372726
 20
217.999863
 11
182.372437
 21
221.061966
  0
LINE
  8
0
 62
     4
 10
236.372513
 20
217.999954
 11
240.273621
 21
221.062057
  0
LINE
  8
0
 62
     4
 10
202.372437
 20
165.000092
 11
202.372437
 21
215.000092
  0
LINE
  8
0
 62
     4
 10
162.372437
 20
165.000092
 11
162.372437
 21
215.000092
  0
LINE
  8
0
 62
     4
 10
162.372437
 20
133.500092
 11
162.372437
 21
137.500092
  0
LINE
  8
0
 62
     4
 10
159.872437
 20
139.250092
 11
204.872437
 21
139.250092
  0
LINE
  8
0
 62
     4
 10
162.372437
 20
133.500092
 11
202.372437
 21
133.500092
  0
LINE
  8
0
 62
     4
 10
202.372437
 20
133.500092
 11
202.372437
 21
137.500092
  0
LINE
  8
0
 62
     4
 10
159.872437
 20
137.500092
 11
159.872437
 21
139.250092
  0
LINE
  8
0
 62
     4
 10
204.872437
 20
137.500092
 11
204.872437
 21
139.250092
  0
LINE
  8
0
 62
     4
 10
159.872437
 20
137.500092
 11
204.872437
 21
137.500092
  0
LINE
  8
0
 62
     4
 10
162.372437
 20
139.250092
 11
162.372437
 21
140.000092
  0
LINE
  8
0
 62
     4
 10
202.372437
 20
139.250092
 11
202.372437
 21
140.000092
  0
LINE
  8
0
 62
     4
 10
159.872437
 20
242.500092
 11
204.872437
 21
242.500092
  0
LINE
  8
0
 62
     4
 10
162.372437
 20
240.750092
 11
162.372437
 21
240.000092
  0
LINE
  8
0
 62
     4
 10
202.372437
 20
240.750092
 11
202.372437
 21
240.000092
  0
LINE
  8
0
 62
     4
 10
162.372437
 20
246.500092
 11
162.372437
 21
242.500092
  0
LINE
  8
0
 62
     4
 10
159.872437
 20
240.750092
 11
204.872437
 21
240.750092
  0
LINE
  8
0
 62
     4
 10
162.372437
 20
246.500092
 11
202.372437
 21
246.500092
  0
LINE
  8
0
 62
     4
 10
202.372437
 20
246.500092
 11
202.372437
 21
242.500092
  0
LINE
  8
0
 62
     4
 10
236.372437
 20
211.750092
 11
236.372437
 21
218.000092
  0
LINE
  8
0
  6
CENTER
 62
     1
 10
182.372437
 20
125.893250
 11
182.372437
 21
253.753540
  0
LINE
  8
0
  6
DASHED
 62
     1
 10
252.372437
 20
212.500092
 11
307.372437
 21
212.500092
  0
LINE
  8
0
  6
DASHED
 62
     1
 10
252.372437
 20
167.500092
 11
307.372437
 21
167.500092
  0
LINE
  8
0
  6
DASHED
 62
     1
 10
252.372437
 20
167.500092
 11
252.372437
 21
212.500092
  0
LINE
  8
0
  6
DASHED
 62
     1
 10
251.073547
 20
168.250244
 11
252.372467
 21
167.500305
  0
LINE
  8
0
  6
CENTER
 62
     1
 10
142.186935
 20
190.000092
 11
323.339813
 21
190.000092
  0
LINE
  8
0
  6
DASHED
 62
     1
 10
236.372437
 20
168.250092
 11
307.372437
 21
168.250092
  0
LINE
  8
0
  6
DASHED
 62
     1
 10
251.073456
 20
211.750046
 11
252.372391
 21
212.499985
  0
LINE
  8
0
  6
DASHED
 62
     1
 10
236.372437
 20
211.750092
 11
307.372437
 21
211.750092
  0
LINE
  8
0
 62
     4
 10
159.872437
 20
242.500092
 11
159.872437
 21
240.750092
  0
LINE
  8
0
 62
     4
 10
204.872437
 20
242.500092
 11
204.872437
 21
240.750092
  0
LINE
  8
0
 62
     4
 10
253.512085
 20
149.062210
 11
272.372345
 21
190.000092
  0
LINE
  8
0
 62
     4
 10
272.372375
 20
190.000122
 11
253.512161
 21
230.938019
  0
LINE
  8
0
 62
     4
 10
30.772991
 20
-165.350128
 11
30.772991
 21
-251.350128
  0
LINE
  8
0
  6
CENTER
 62
     1
 10
-149.227005
 20
-208.350128
 11
40.772991
 21
-208.350128
  0
LINE
  8
0
 62
     4
 10
-94.227005
 20
-253.350128
 11
28.772976
 21
-253.350128
  0
LINE
  8
0
 62
     4
 10
-94.227005
 20
-163.350128
 11
28.772991
 21
-163.350128
  0
LINE
  8
0
 62
     4
 10
28.773001
 20
-163.350067
 11
30.773005
 21
-165.350082
  0
LINE
  8
0
 62
     4
 10
30.772932
 20
-251.350113
 11
28.772921
 21
-253.350098
  0
LINE
  8
0
 62
     4
 10
28.772976
 20
-253.350128
 11
28.772976
 21
-163.350128
  0
LINE
  8
0
  6
CENTER
 62
     1
 10
-94.227005
 20
-148.350128
 11
-94.227005
 21
-268.350128
  0
LINE
  8
0
 62
     4
 10
-343.667480
 20
-163.350128
 11
-243.667480
 21
-163.350128
  0
LINE
  8
0
 62
     4
 10
-343.667480
 20
-253.350128
 11
-243.667480
 21
-253.350128
  0
LINE
  8
0
 62
     4
 10
-346.317444
 20
-185.850128
 11
-344.417450
 21
-185.850128
  0
LINE
  8
0
 62
     4
 10
-350.167450
 20
-188.350128
 11
-346.317444
 21
-188.350128
  0
LINE
  8
0
 62
     4
 10
-350.167450
 20
-228.350128
 11
-346.317444
 21
-228.350128
  0
LINE
  8
0
 62
     4
 10
-346.317444
 20
-230.850128
 11
-344.417450
 21
-230.850128
  0
LINE
  8
0
  6
CENTER
 62
     1
 10
-293.667480
 20
-148.350128
 11
-293.667480
 21
-268.350128
  0
LINE
  8
0
  6
CENTER
 62
     1
 10
-353.667480
 20
-208.350128
 11
-233.667480
 21
-208.350128
  0
LINE
  8
0
 62
     4
 10
-350.167450
 20
-188.350128
 11
-350.167450
 21
-228.350128
  0
LINE
  8
0
 62
     4
 10
-346.317444
 20
-185.850128
 11
-346.317444
 21
-230.850128
  0
LINE
  8
0
 62
     4
 10
-344.417450
 20
-185.850128
 11
-344.417450
 21
-230.850128
  0
LINE
  8
0
 62
     4
 10
-343.667480
 20
-163.350128
 11
-343.667480
 21
-253.350128
  0
LINE
  8
0
 62
     4
 10
-318.667480
 20
-163.350128
 11
-318.667480
 21
-253.350128
  0
LINE
  8
0
 62
     4
 10
-344.417450
 20
-188.350128
 11
-343.667480
 21
-188.350128
  0
LINE
  8
0
 62
     4
 10
-344.417450
 20
-228.350128
 11
-343.667480
 21
-228.350128
  0
LINE
  8
0
 62
     4
 10
-241.017517
 20
-185.850128
 11
-242.917511
 21
-185.850128
  0
LINE
  8
0
 62
     4
 10
-237.167511
 20
-188.350128
 11
-241.017517
 21
-188.350128
  0
LINE
  8
0
 62
     4
 10
-237.167511
 20
-228.350128
 11
-241.017517
 21
-228.350128
  0
LINE
  8
0
 62
     4
 10
-241.017517
 20
-230.850128
 11
-242.917511
 21
-230.850128
  0
LINE
  8
0
 62
     4
 10
-242.917511
 20
-228.350128
 11
-243.667480
 21
-228.350128
  0
LINE
  8
0
 62
     4
 10
-237.167511
 20
-188.350128
 11
-237.167511
 21
-228.350128
  0
LINE
  8
0
 62
     4
 10
-241.017517
 20
-185.850128
 11
-241.017517
 21
-230.850128
  0
LINE
  8
0
 62
     4
 10
-242.917511
 20
-185.850128
 11
-242.917511
 21
-230.850128
  0
LINE
  8
0
 62
     4
 10
-243.667480
 20
-163.350128
 11
-243.667480
 21
-253.350128
  0
LINE
  8
0
 62
     4
 10
-268.667480
 20
-163.350128
 11
-268.667480
 21
-253.350128
  0
LINE
  8
0
 62
     4
 10
-242.917511
 20
-188.350128
 11
-243.667480
 21
-188.350128
  0
LINE
  8
0
 62
     4
 10
-318.667480
 20
-188.350128
 11
-268.667480
 21
-188.350128
  0
LINE
  8
0
 62
     4
 10
-318.667480
 20
-228.350128
 11
-268.667480
 21
-228.350128
  0
LINE
  8
0
  6
CENTER
 62
     1
 10
-94.227005
 20
-8.563843
 11
-94.227005
 21
-128.563843
  0
LINE
  8
0
  6
CENTER
 62
     1
 10
-149.227005
 20
-68.563843
 11
40.772991
 21
-68.563843
  0
LINE
  8
0
 62
     4
 10
-139.227005
 20
-118.563843
 11
28.772991
 21
-118.563843
  0
LINE
  8
0
 62
     4
 10
-139.227005
 20
-18.563843
 11
28.772991
 21
-18.563843
  0
LINE
  8
0
 62
     4
 10
-139.227005
 20
-43.563843
 11
-44.227009
 21
-43.563843
  0
LINE
  8
0
  6
DASHED
 62
     1
 10
-42.227009
 20
-96.563843
 11
30.772991
 21
-96.563843
  0
LINE
  8
0
  6
DASHED
 62
     1
 10
-42.227009
 20
-40.563843
 11
30.772991
 21
-40.563843
  0
LINE
  8
0
 62
     4
 10
30.772991
 20
-20.563843
 11
30.772991
 21
-116.563843
  0
LINE
  8
0
  6
DASHED
 62
     1
 10
-42.227009
 20
-40.563843
 11
-42.227009
 21
-96.563843
  0
LINE
  8
0
 62
     4
 10
-139.227005
 20
-18.563843
 11
-139.227005
 21
-43.563843
  0
LINE
  8
0
 62
     4
 10
-139.227005
 20
-93.563843
 11
-139.227005
 21
-118.563843
  0
LINE
  8
0
 62
     4
 10
-74.227005
 20
-43.563843
 11
-74.227005
 21
-93.563843
  0
LINE
  8
0
 62
     4
 10
-114.227005
 20
-43.563843
 11
-114.227005
 21
-93.563843
  0
LINE
  8
0
 62
     4
 10
-139.227005
 20
-93.563843
 11
-44.227009
 21
-93.563843
  0
LINE
  8
0
 62
     4
 10
-44.227009
 20
-43.563843
 11
-44.227009
 21
-93.563843
  0
LINE
  8
0
  6
DASHED
 62
     1
 10
-47.227009
 20
-95.563843
 11
30.772991
 21
-95.563843
  0
LINE
  8
0
  6
DASHED
 62
     1
 10
-47.227009
 20
-41.563843
 11
30.772991
 21
-41.563843
  0
LINE
  8
0
  6
DASHED
 62
     1
 10
-42.227020
 20
-40.563839
 11
-43.959072
 21
-41.563839
  0
LINE
  8
0
  6
DASHED
 62
     1
 10
-42.226952
 20
-96.563766
 11
-43.958996
 21
-95.563766
  0
LINE
  8
0
  6
DASHED
 62
     1
 10
-43.959049
 20
-41.563843
 11
-43.959049
 21
-95.563843
  0
LINE
  8
0
 62
     4
 10
-114.227005
 20
-12.063843
 11
-74.227005
 21
-12.063843
  0
LINE
  8
0
 62
     4
 10
-116.727005
 20
-17.813843
 11
-71.727005
 21
-17.813843
  0
LINE
  8
0
 62
     4
 10
-116.727005
 20
-15.913849
 11
-71.727005
 21
-15.913849
  0
LINE
  8
0
 62
     4
 10
-114.227005
 20
-12.063843
 11
-114.227005
 21
-15.913849
  0
LINE
  8
0
 62
     4
 10
-74.227005
 20
-12.063843
 11
-74.227005
 21
-15.913849
  0
LINE
  8
0
 62
     4
 10
-114.227005
 20
-17.813843
 11
-114.227005
 21
-18.563843
  0
LINE
  8
0
 62
     4
 10
-74.227005
 20
-17.813843
 11
-74.227005
 21
-18.563843
  0
LINE
  8
0
 62
     4
 10
-114.227005
 20
-125.063843
 11
-74.227005
 21
-125.063843
  0
LINE
  8
0
 62
     4
 10
-116.727005
 20
-119.313843
 11
-71.727005
 21
-119.313843
  0
LINE
  8
0
 62
     4
 10
-116.727005
 20
-121.213837
 11
-71.727005
 21
-121.213837
  0
LINE
  8
0
 62
     4
 10
-114.227005
 20
-125.063843
 11
-114.227005
 21
-121.213837
  0
LINE
  8
0
 62
     4
 10
-74.227005
 20
-125.063843
 11
-74.227005
 21
-121.213837
  0
LINE
  8
0
 62
     4
 10
-114.227005
 20
-119.313843
 11
-114.227005
 21
-118.563843
  0
LINE
  8
0
 62
     4
 10
-74.227005
 20
-119.313843
 11
-74.227005
 21
-118.563843
  0
LINE
  8
0
 62
     4
 10
-116.727005
 20
-15.913849
 11
-116.727005
 21
-17.813843
  0
LINE
  8
0
 62
     4
 10
-71.727005
 20
-15.913849
 11
-71.727005
 21
-17.813843
  0
LINE
  8
0
 62
     4
 10
-116.727005
 20
-121.213837
 11
-116.727005
 21
-119.313843
  0
LINE
  8
0
 62
     4
 10
-71.727005
 20
-121.213837
 11
-71.727005
 21
-119.313843
  0
LINE
  8
0
 62
     4
 10
28.773001
 20
-18.563835
 11
30.773005
 21
-20.563837
  0
LINE
  8
0
 62
     4
 10
28.772980
 20
-118.563797
 11
30.772982
 21
-116.563797
  0
LINE
  8
0
 62
     4
 10
28.772991
 20
-18.563843
 11
28.772991
 21
-118.563843
  0
LINE
  8
0
  6
DASHED
 62
     1
 10
-47.227009
 20
-41.563843
 11
-47.227009
 21
-43.563843
  0
LINE
  8
0
  6
DASHED
 62
     1
 10
-47.226986
 20
-41.563843
 11
-48.381687
 21
-43.563847
  0
LINE
  8
0
  6
DASHED
 62
     1
 10
-47.226994
 20
-95.563820
 11
-48.381695
 21
-93.563820
  0
LINE
  8
0
  6
DASHED
 62
     1
 10
-47.227009
 20
-93.563843
 11
-47.227009
 21
-95.563843
  0
CIRCLE
  8
0
 62
     4
 10
-213.133301
 20
66.000023
 40
35.000000
  0
CIRCLE
  8
0
 62
     4
 10
-213.133301
 20
66.000023
 40
32.000000
  0
CIRCLE
  8
0
 62
     4
 10
-213.133301
 20
66.000023
 40
20.000000
  0
CIRCLE
  8
0
 62
     4
 10
-213.133301
 20
66.000023
 40
20.500000
  0
ARC
  8
0
 62
     4
 10
-244.920700
 20
66.000008
 40
112.787613
 50
341.921570
 51
18.078348
  0
ARC
  8
0
 62
     4
 10
-211.133316
 20
232.593277
 40
2.000000
 50
180.000000
 51
270.000000
  0
ARC
  8
0
 62
     4
 10
-211.133316
 20
218.717484
 40
2.000000
 50
90.000000
 51
180.000000
  0
ARC
  8
0
 62
     4
 10
-211.133301
 20
160.593277
 40
2.000000
 50
180.000000
 51
270.000000
  0
ARC
  8
0
 62
     4
 10
-211.133301
 20
146.717484
 40
2.000000
 50
90.000000
 51
180.000000
  0
ARC
  8
0
 62
     4
 10
-192.475296
 20
189.655411
 40
38.500008
 50
330.000031
 51
29.999987
  0
CIRCLE
  8
0
 62
     4
 10
182.372437
 20
66.000084
 40
35.000000
  0
CIRCLE
  8
0
 62
     4
 10
182.372437
 20
66.000084
 40
32.000000
  0
CIRCLE
  8
0
 62
     4
 10
182.372437
 20
66.000084
 40
20.000000
  0
CIRCLE
  8
0
 62
     4
 10
182.372437
 20
66.000084
 40
22.500000
  0
ARC
  8
0
 62
     4
 10
68.372429
 20
66.000084
 40
21.750004
 50
66.858940
 51
113.141075
  0
ARC
  8
0
 62
     4
 10
68.372429
 20
66.000084
 40
21.750002
 50
246.858932
 51
293.141052
  0
ARC
  8
0
 62
     4
 10
198.699982
 20
190.000092
 40
43.500290
 50
330.000214
 51
29.999781
  0
ARC
  8
0
 62
     4
 10
-94.227005
 20
-208.350128
 40
45.000000
 50
90.000000
 51
270.000000
  0
CIRCLE
  8
0
 62
     4
 10
-94.227005
 20
-208.350128
 40
20.000000
  0
CIRCLE
  8
0
 62
     4
 10
-94.227005
 20
-208.350128
 40
22.500000
  0
ARC
  8
0
 62
     1
 10
-293.667480
 20
-208.350128
 40
28.000000
 50
45.584694
 51
134.415314
  0
ARC
  8
0
 62
     4
 10
-293.667480
 20
-208.350128
 40
27.000006
 50
47.794540
 51
132.205490
  0
ARC
  8
0
 62
     4
 10
-293.667480
 20
-208.350128
 40
26.999994
 50
227.794510
 51
312.205475
  0
ARC
  8
0
 62
     1
 10
-293.667480
 20
-208.350128
 40
28.000000
 50
225.584686
 51
314.415314
  0
POLYLINE
  8
0
 62
     4
 66
     1
  0
VERTEX
  8
0
 10
253.512299
 20
31.000084
  0
VERTEX
  8
0
 10
253.918365
 20
31.643324
  0
VERTEX
  8
0
 10
254.222153
 20
32.097939
  0
VERTEX
  8
0
 10
254.478653
 20
32.480766
  0
VERTEX
  8
0
 10
254.742905
 20
32.908646
  0
VERTEX
  8
0
 10
255.069885
 20
33.498417
  0
VERTEX
  8
0
 10
255.514633
 20
34.366924
  0
VERTEX
  8
0
 10
256.132141
 20
35.631004
  0
VERTEX
  8
0
 10
256.977417
 20
37.407494
  0
VERTEX
  8
0
 10
257.388428
 20
38.295742
  0
VERTEX
  8
0
 10
257.786316
 20
39.190586
  0
VERTEX
  8
0
 10
258.171082
 20
40.091797
  0
VERTEX
  8
0
 10
258.542603
 20
40.999146
  0
VERTEX
  8
0
 10
258.900879
 20
41.912403
  0
VERTEX
  8
0
 10
259.245819
 20
42.831348
  0
VERTEX
  8
0
 10
259.577362
 20
43.755749
  0
VERTEX
  8
0
 10
259.895447
 20
44.685379
  0
VERTEX
  8
0
 10
260.200043
 20
45.620010
  0
VERTEX
  8
0
 10
260.491089
 20
46.559418
  0
VERTEX
  8
0
 10
260.768463
 20
47.503372
  0
VERTEX
  8
0
 10
261.032196
 20
48.451645
  0
VERTEX
  8
0
 10
261.282166
 20
49.404011
  0
VERTEX
  8
0
 10
261.518341
 20
50.360241
  0
VERTEX
  8
0
 10
261.740662
 20
51.320110
  0
VERTEX
  8
0
 10
261.949066
 20
52.283390
  0
VERTEX
  8
0
 10
262.143494
 20
53.249855
  0
VERTEX
  8
0
 10
262.323883
 20
54.219273
  0
VERTEX
  8
0
 10
262.490173
 20
55.191422
  0
VERTEX
  8
0
 10
262.642334
 20
56.166069
  0
VERTEX
  8
0
 10
262.780273
 20
57.142990
  0
VERTEX
  8
0
 10
262.903931
 20
58.121960
  0
VERTEX
  8
0
 10
263.013275
 20
59.102745
  0
VERTEX
  8
0
 10
263.108215
 20
60.085125
  0
VERTEX
  8
0
 10
263.188721
 20
61.068867
  0
VERTEX
  8
0
 10
263.254700
 20
62.053745
  0
VERTEX
  8
0
 10
263.306152
 20
63.039536
  0
VERTEX
  8
0
 10
263.342957
 20
64.026009
  0
VERTEX
  8
0
 10
263.365082
 20
65.012932
  0
VERTEX
  8
0
 10
263.372467
 20
66.000084
  0
VERTEX
  8
0
 10
263.360016
 20
66.997948
  0
VERTEX
  8
0
 10
263.323425
 20
68.015533
  0
VERTEX
  8
0
 10
263.263794
 20
69.050392
  0
VERTEX
  8
0
 10
263.182190
 20
70.100082
  0
VERTEX
  8
0
 10
263.079773
 20
71.162163
  0
VERTEX
  8
0
 10
262.957611
 20
72.234184
  0
VERTEX
  8
0
 10
262.816833
 20
73.313713
  0
VERTEX
  8
0
 10
262.658539
 20
74.398293
  0
VERTEX
  8
0
 10
262.483795
 20
75.485489
  0
VERTEX
  8
0
 10
262.293762
 20
76.572853
  0
VERTEX
  8
0
 10
262.089508
 20
77.657944
  0
VERTEX
  8
0
 10
261.872131
 20
78.738319
  0
VERTEX
  8
0
 10
261.642761
 20
79.811531
  0
VERTEX
  8
0
 10
261.402496
 20
80.875137
  0
VERTEX
  8
0
 10
261.152435
 20
81.926704
  0
VERTEX
  8
0
 10
260.893707
 20
82.963768
  0
VERTEX
  8
0
 10
260.627380
 20
83.983902
  0
VERTEX
  8
0
 10
260.354553
 20
84.984657
  0
VERTEX
  8
0
 10
260.076385
 20
85.963593
  0
VERTEX
  8
0
 10
259.793915
 20
86.918259
  0
VERTEX
  8
0
 10
259.508301
 20
87.846214
  0
VERTEX
  8
0
 10
259.220612
 20
88.745018
  0
VERTEX
  8
0
 10
258.931976
 20
89.612221
  0
VERTEX
  8
0
 10
258.643463
 20
90.445389
  0
VERTEX
  8
0
 10
258.356232
 20
91.242065
  0
VERTEX
  8
0
 10
258.071320
 20
91.999817
  0
VERTEX
  8
0
 10
257.789886
 20
92.716202
  0
VERTEX
  8
0
 10
257.513031
 20
93.388763
  0
VERTEX
  8
0
 10
257.241852
 20
94.015068
  0
VERTEX
  8
0
 10
256.977417
 20
94.592674
  0
VERTEX
  8
0
 10
256.582489
 20
95.414703
  0
VERTEX
  8
0
 10
256.176392
 20
96.230766
  0
VERTEX
  8
0
 10
255.759216
 20
97.040840
  0
VERTEX
  8
0
 10
255.331131
 20
97.844879
  0
VERTEX
  8
0
 10
254.892258
 20
98.642853
  0
VERTEX
  8
0
 10
254.442734
 20
99.434738
  0
VERTEX
  8
0
 10
253.982697
 20
100.220490
  0
VERTEX
  8
0
 10
253.512299
 20
101.000084
  0
SEQEND
  0
TEXT
  8
0
 10
-387.785309
 20
256.649994
 40
9.000000
  1
SD Y-KNUCKLE,-Y
 50
0.000000
 41
1.052632
 51
0.000000
  7
STANDARD
  0
TEXT
  8
0
 10
242.014816
 20
-274.500000
 40
12.500000
  1
KOGANEI CORP.
 50
0.000000
 41
1.052632
 51
0.000000
  7
STANDARD
  0
TEXT
  8
0
 10
251.264664
 20
256.649994
 40
9.000000
  1
DATE: AUG ,1993
 50
0.000000
 41
1.052632
 51
0.000000
  7
STANDARD
  0
TEXT
  8
0
 10
-384.785309
 20
224.149994
 40
9.000000
  1
MODEL:Y-SD180
 50
0.000000
 41
1.052632
 51
0.000000
  7
STANDARD
  0
TEXT
  8
0
 10
-384.785309
 20
-27.350000
 40
9.000000
  1
MODEL:Y-SDZ200
 50
0.000000
 41
1.052632
 51
0.000000
  7
STANDARD
  0
TEXT
  8
0
 10
14.739680
 20
224.149994
 40
9.000000
  1
MODEL:Y-SD200
 50
0.000000
 41
1.052632
 51
0.000000
  7
STANDARD
  0
ENDSEC
  0
EOF
