  0
SECTION
  2
HEADER
  0
ENDSEC
  0
SECTION
  2
TABLES
  0
TABLE
  2
LTYPE
 70
     4
  0
LTYPE
  2
CONTINUOUS
 70
    64
  3
Solid line
 72
    65
 73
     0
 40
0.000000
  0
LTYPE
  2
DASHED
 70
    64
  3
__ __ __ __ __ __ __ __ __ __ __ __ __ __ __
 72
    65
 73
     2
 40
3.500000
 49
2.000000
 49
-1.500000
  0
LTYPE
  2
CENTER
 70
    64
  3
____ _ ____ _ ____ _ ____ _ ____ _ ____ _ ____
 72
    65
 73
     4
 40
17.500000
 49
13.000000
 49
-1.500000
 49
1.500000
 49
-1.500000
  0
LTYPE
  2
PHANTOM
 70
    64
  3
_____ _ _ _____ _ _ _____ _ _ _____ _ _ ____  
 72
    65
 73
     6
 40
15.500000
 49
8.000000
 49
-1.500000
 49
1.500000
 49
-1.500000
 49
1.500000
 49
-1.500000
  0
LTYPE
  2
DASHED1
 70
    64
  3
__ __ __ __ __ __ __ __ __ __ __ __ __ __ __
 72
    65
 73
     2
 40
1.500000
 49
1.000000
 49
-0.500000
  0
LTYPE
  2
DASHED2
 70
    64
  3
__ __ __ __ __ __ __ __ __ __ __ __ __ __ __
 72
    65
 73
     2
 40
3.500000
 49
2.500000
 49
-1.000000
  0
LTYPE
  2
DASHED3
 70
    64
  3
__ __ __ __ __ __ __ __ __ __ __ __ __ __ __
 72
    65
 73
     2
 40
6.000000
 49
4.000000
 49
-2.000000
  0
LTYPE
  2
DASHED4
 70
    64
  3
__ __ __ __ __ __ __ __ __ __ __ __ __ __ __
 72
    65
 73
     2
 40
12.000000
 49
10.000000
 49
-2.000000
  0
LTYPE
  2
DASHED5
 70
    64
  3
__ __ __ __ __ __ __ __ __ __ __ __ __ __ __
 72
    65
 73
     2
 40
17.000000
 49
15.000000
 49
-2.000000
  0
LTYPE
  2
DASHED6
 70
    64
  3
__ __ __ __ __ __ __ __ __ __ __ __ __ __ __
 72
    65
 73
     2
 40
29.000000
 49
27.000000
 49
-2.000000
  0
LTYPE
  2
PHANTOM1
 70
    64
  3
_____ _ _ _____ _ _ _____ _ _ _____ _ _ ____  
 72
    65
 73
     6
 40
31.000000
 49
25.000000
 49
-1.500000
 49
1.000000
 49
-1.000000
 49
1.000000
 49
-1.500000
  0
LTYPE
  2
PHANTOM2
 70
    64
  3
_____ _ _ _____ _ _ _____ _ _ _____ _ _ ____  
 72
    65
 73
     6
 40
36.000000
 49
27.000000
 49
-1.500000
 49
2.500000
 49
-1.000000
 49
2.500000
 49
-1.500000
  0
LTYPE
  2
PHANTOM3
 70
    64
  3
_____ _ _ _____ _ _ _____ _ _ _____ _ _ ____  
 72
    65
 73
     6
 40
78.000000
 49
64.000000
 49
-2.000000
 49
4.000000
 49
-2.000000
 49
4.000000
 49
-2.000000
  0
LTYPE
  2
CENTER1
 70
    64
  3
____ _ ____ _ ____ _ ____ _ ____ _ ____ _ ____
 72
    65
 73
     4
 40
19.000000
 49
14.000000
 49
-1.000000
 49
3.000000
 49
-1.000000
  0
LTYPE
  2
CENTER2
 70
    64
  3
____ _ ____ _ ____ _ ____ _ ____ _ ____ _ ____
 72
    65
 73
     4
 40
28.500000
 49
25.000000
 49
-1.000000
 49
1.500000
 49
-1.000000
  0
LTYPE
  2
CENTER3
 70
    64
  3
____ _ ____ _ ____ _ ____ _ ____ _ ____ _ ____
 72
    65
 73
     4
 40
31.500000
 49
27.000000
 49
-1.000000
 49
2.500000
 49
-1.000000
  0
LTYPE
  2
CENTER4
 70
    64
  3
____ _ ____ _ ____ _ ____ _ ____ _ ____ _ ____
 72
    65
 73
     4
 40
50.000000
 49
45.000000
 49
-1.000000
 49
3.000000
 49
-1.000000
  0
LTYPE
  2
CENTER5
 70
    64
  3
____ _ ____ _ ____ _ ____ _ ____ _ ____ _ ____
 72
    65
 73
     4
 40
100.000000
 49
92.000000
 49
-2.000000
 49
4.000000
 49
-2.000000
  0
LTYPE
  2
SBK1
 70
    64
  3
______ _ _ _ ______ _ _ _ ______ _ _ _ _____  
 72
    65
 73
     8
 40
60.500000
 49
45.000000
 49
-2.000000
 49
2.500000
 49
-2.000000
 49
2.500000
 49
-2.000000
 49
2.500000
 49
-2.000000
  0
LTYPE
  2
SBK2
 70
    64
  3
______ _ _ _ ______ _ _ _ ______ _ _ _ _____  
 72
    65
 73
     8
 40
84.000000
 49
64.000000
 49
-2.000000
 49
4.000000
 49
-2.000000
 49
4.000000
 49
-2.000000
 49
4.000000
 49
-2.000000
  0
LTYPE
  2
STCH
 70
    64
  3
__ __ __ __ __ __ __ __ __ __ __ __ __ __ __
 72
    65
 73
     2
 40
3.000000
 49
1.000000
 49
-2.000000
  0
LTYPE
  2
MTCH
 70
    64
  3
_____ _ _ _____ _ _ _____ _ _ _____ _ _ ____  
 72
    65
 73
     6
 40
80.000000
 49
66.000000
 49
-2.000000
 49
4.000000
 49
-2.000000
 49
4.000000
 49
-2.000000
  0
ENDTAB
  0
TABLE
  2
LAYER
 70
     1
  0
LAYER
  2
0
 70
     0
 62
     7
  6
CONTINUOUS
  0
ENDTAB
  0
TABLE
  2
STYLE
 70
     1
  0
STYLE
  2
STANDARD
 70
     0
 40
0.000000
 41
1.000000
 50
0.000000
 71
     0
 42
0.200000
  3
txt
  4
BIGFONT
  0
ENDTAB
  0
TABLE
  2
VIEW
 70
     0
  0
ENDTAB
  0
ENDSEC
  0
SECTION
  2
BLOCKS
  0
ENDSEC
  0
SECTION
  2
ENTITIES
  0
LINE
  8
0
 10
399.799988
 20
276.250000
 11
399.799988
 21
-276.750000
  0
LINE
  8
0
 10
-399.250000
 20
276.250000
 11
-399.250000
 21
-276.750000
  0
LINE
  8
0
 10
-399.250000
 20
276.250000
 11
399.799988
 21
276.250000
  0
LINE
  8
0
 10
-399.250000
 20
-276.750000
 11
399.799988
 21
-276.750000
  0
LINE
  8
0
 10
239.799988
 20
-251.750000
 11
399.799988
 21
-251.750000
  0
LINE
  8
0
 10
239.799988
 20
251.250000
 11
399.799988
 21
251.250000
  0
LINE
  8
0
 10
-399.250000
 20
251.250000
 11
-239.250000
 21
251.250000
  0
LINE
  8
0
 10
239.799988
 20
-251.750000
 11
239.799988
 21
-276.750000
  0
LINE
  8
0
 10
239.799988
 20
251.250000
 11
239.799988
 21
276.250000
  0
LINE
  8
0
 10
-239.250000
 20
276.250000
 11
-239.250000
 21
251.250000
  0
LINE
  8
0
  6
CENTER
 62
     2
 10
-30.672852
 20
-121.167656
 11
285.227173
 21
-121.167656
  0
LINE
  8
0
 10
-25.422852
 20
-106.167656
 11
26.827148
 21
-106.167656
  0
LINE
  8
0
 10
23.827148
 20
-106.167656
 11
23.827148
 21
-136.167664
  0
LINE
  8
0
 10
26.827148
 20
-106.167656
 11
26.827148
 21
-136.167664
  0
LINE
  8
0
 10
26.827120
 20
-136.167587
 11
32.023300
 21
-139.167603
  0
LINE
  8
0
 10
26.827168
 20
-106.167664
 11
32.023315
 21
-103.167656
  0
LINE
  8
0
 10
32.023315
 20
-103.167656
 11
45.827148
 21
-103.167656
  0
LINE
  8
0
 10
32.023315
 20
-139.167664
 11
45.827148
 21
-139.167664
  0
LINE
  8
0
 10
32.023315
 20
-112.921448
 11
38.827148
 21
-112.921448
  0
LINE
  8
0
 10
32.023315
 20
-129.413864
 11
38.827148
 21
-129.413864
  0
LINE
  8
0
 10
38.827148
 20
-112.921448
 11
38.827148
 21
-129.413864
  0
LINE
  8
0
 10
32.023315
 20
-103.167656
 11
32.023315
 21
-112.921448
  0
LINE
  8
0
 10
32.023315
 20
-129.413864
 11
32.023315
 21
-139.167664
  0
LINE
  8
0
 62
     2
 10
38.827084
 20
-112.921417
 11
32.023251
 21
-129.413818
  0
LINE
  8
0
 62
     2
 10
32.023293
 20
-112.921432
 11
38.827148
 21
-129.413834
  0
LINE
  8
0
 10
45.827148
 20
-93.167656
 11
45.827148
 21
-149.167664
  0
LINE
  8
0
 10
46.827148
 20
-92.167656
 11
46.827148
 21
-150.167664
  0
LINE
  8
0
 10
45.827129
 20
-93.167641
 11
46.827137
 21
-92.167641
  0
LINE
  8
0
 10
45.827202
 20
-149.167603
 11
46.827202
 21
-150.167603
  0
LINE
  8
0
 10
83.827148
 20
-48.667656
 11
83.827148
 21
-193.667664
  0
LINE
  8
0
 10
78.627136
 20
-77.167656
 11
78.627136
 21
-165.167664
  0
LINE
  8
0
 10
79.627136
 20
-76.369362
 11
79.627136
 21
-165.965942
  0
LINE
  8
0
 10
78.627205
 20
-77.167641
 11
79.425453
 21
-76.369377
  0
LINE
  8
0
 10
70.627136
 20
-88.951157
 11
70.627136
 21
-100.351151
  0
LINE
  8
0
 10
70.627136
 20
-141.984161
 11
70.627136
 21
-153.384155
  0
LINE
  8
0
 10
46.827110
 20
-92.167702
 11
70.627106
 21
-91.215706
  0
LINE
  8
0
 10
46.827202
 20
-150.167709
 11
70.627159
 21
-151.119705
  0
LINE
  8
0
 10
71.827148
 20
-84.667656
 11
71.827148
 21
-88.151154
  0
LINE
  8
0
 10
118.827148
 20
-48.667656
 11
118.827148
 21
-193.667664
  0
LINE
  8
0
 10
83.827148
 20
-48.667656
 11
118.827148
 21
-48.667656
  0
LINE
  8
0
 10
83.827148
 20
-193.667664
 11
118.827148
 21
-193.667664
  0
LINE
  8
0
  6
CENTER
 62
     2
 10
51.992737
 20
-63.667656
 11
312.027161
 21
-63.667656
  0
LINE
  8
0
 10
295.344666
 20
-191.369171
 11
285.327148
 21
-191.369171
  0
LINE
  8
0
 10
295.344666
 20
-185.018494
 11
285.327148
 21
-185.018494
  0
LINE
  8
0
 10
295.344666
 20
-172.316803
 11
285.327148
 21
-172.316803
  0
LINE
  8
0
 10
295.344666
 20
-165.965942
 11
285.327148
 21
-165.965942
  0
LINE
  8
0
 10
285.327148
 20
-191.369354
 11
285.327148
 21
-165.965942
  0
LINE
  8
0
 10
296.327148
 20
-189.667664
 11
296.327148
 21
-167.667664
  0
LINE
  8
0
 10
296.327332
 20
-189.667862
 11
295.344788
 21
-191.369553
  0
LINE
  8
0
 10
296.326935
 20
-167.667831
 11
295.344452
 21
-165.966156
  0
LINE
  8
0
 10
308.827148
 20
-184.668030
 11
308.827148
 21
-172.668030
  0
LINE
  8
0
 10
307.827148
 20
-185.668030
 11
307.827148
 21
-171.668030
  0
LINE
  8
0
 10
307.827148
 20
-185.667664
 11
296.327148
 21
-185.667664
  0
LINE
  8
0
 10
307.827148
 20
-171.667664
 11
296.327148
 21
-171.667664
  0
LINE
  8
0
 10
308.826965
 20
-184.667938
 11
307.826935
 21
-185.667969
  0
LINE
  8
0
 10
308.826660
 20
-172.668350
 11
307.826691
 21
-171.668381
  0
LINE
  8
0
  6
CENTER
 62
     2
 10
51.327148
 20
-178.667664
 11
313.627136
 21
-178.667664
  0
LINE
  8
0
 10
57.827148
 20
-185.667664
 11
69.327148
 21
-185.667664
  0
LINE
  8
0
 10
56.827129
 20
-172.667648
 11
57.827133
 21
-171.667648
  0
LINE
  8
0
 10
56.827217
 20
-184.667618
 11
57.827217
 21
-185.667618
  0
LINE
  8
0
 10
70.309631
 20
-165.965942
 11
80.327148
 21
-165.965942
  0
LINE
  8
0
 10
70.309631
 20
-172.316803
 11
80.327148
 21
-172.316803
  0
LINE
  8
0
 10
70.309631
 20
-185.018524
 11
80.327148
 21
-185.018524
  0
LINE
  8
0
 10
70.309631
 20
-191.369354
 11
80.327148
 21
-191.369354
  0
LINE
  8
0
 10
80.327148
 20
-165.965942
 11
80.327148
 21
-191.369354
  0
LINE
  8
0
 10
69.327148
 20
-167.667664
 11
69.327148
 21
-189.667664
  0
LINE
  8
0
 10
69.327103
 20
-167.667648
 11
70.309586
 21
-165.965958
  0
LINE
  8
0
 10
69.327141
 20
-189.667679
 11
70.309616
 21
-191.369370
  0
LINE
  8
0
 10
56.827148
 20
-172.667664
 11
56.827148
 21
-184.667664
  0
LINE
  8
0
 10
57.827148
 20
-171.667664
 11
57.827148
 21
-185.667664
  0
LINE
  8
0
 10
57.827148
 20
-171.667664
 11
69.327148
 21
-171.667664
  0
LINE
  8
0
 10
78.627106
 20
-165.167633
 11
79.425407
 21
-165.965927
  0
LINE
  8
0
  6
CENTER
 62
     2
 10
99.827148
 20
-44.572227
 11
99.827148
 21
-132.467651
  0
LINE
  8
0
 10
260.732056
 20
-120.417656
 11
270.922241
 21
-120.417656
  0
LINE
  8
0
 10
260.732056
 20
-121.917656
 11
270.922241
 21
-121.917656
  0
LINE
  8
0
 10
118.827148
 20
-56.667656
 11
124.327148
 21
-56.667656
  0
LINE
  8
0
 10
118.827148
 20
-185.667664
 11
213.327148
 21
-185.667664
  0
LINE
  8
0
 10
118.827148
 20
-70.667656
 11
124.327148
 21
-70.667656
  0
LINE
  8
0
 10
118.827148
 20
-171.667664
 11
213.327148
 21
-171.667664
  0
LINE
  8
0
  6
CENTER
 62
     2
 10
265.827148
 20
-44.715279
 11
265.827148
 21
-134.167664
  0
LINE
  8
0
 10
281.827148
 20
-48.667656
 11
281.827148
 21
-193.667664
  0
LINE
  8
0
 10
246.827148
 20
-48.667656
 11
246.827148
 21
-193.667664
  0
LINE
  8
0
 10
246.827148
 20
-48.667656
 11
281.827148
 21
-48.667656
  0
LINE
  8
0
 10
246.827148
 20
-193.667664
 11
281.827148
 21
-193.667664
  0
LINE
  8
0
 10
94.732056
 20
-120.417656
 11
104.922241
 21
-120.417656
  0
LINE
  8
0
 10
94.732056
 20
-121.917656
 11
104.922241
 21
-121.917656
  0
LINE
  8
0
 10
56.827183
 20
-69.667641
 11
57.827175
 21
-70.667648
  0
LINE
  8
0
 10
56.827179
 20
-57.667690
 11
57.827190
 21
-56.667702
  0
LINE
  8
0
 10
57.827148
 20
-70.667656
 11
69.327148
 21
-70.667656
  0
LINE
  8
0
 10
70.309631
 20
-50.965950
 11
80.327148
 21
-50.965950
  0
LINE
  8
0
 10
70.309631
 20
-57.316811
 11
80.327148
 21
-57.316811
  0
LINE
  8
0
 10
70.309631
 20
-70.018517
 11
80.327148
 21
-70.018517
  0
LINE
  8
0
 10
70.309631
 20
-76.369362
 11
80.327148
 21
-76.369362
  0
LINE
  8
0
 10
80.327148
 20
-50.965950
 11
80.327148
 21
-76.369362
  0
LINE
  8
0
 10
69.327148
 20
-52.667656
 11
69.327148
 21
-74.667656
  0
LINE
  8
0
 10
69.327164
 20
-52.667629
 11
70.309631
 21
-50.965946
  0
LINE
  8
0
 10
69.327209
 20
-74.667641
 11
70.309692
 21
-76.369347
  0
LINE
  8
0
 10
56.827148
 20
-57.667656
 11
56.827148
 21
-69.667656
  0
LINE
  8
0
 10
57.827148
 20
-56.667656
 11
57.827148
 21
-70.667656
  0
LINE
  8
0
 10
57.827148
 20
-56.667656
 11
69.327148
 21
-56.667656
  0
LINE
  8
0
 10
308.826904
 20
-57.668205
 11
307.826935
 21
-56.668228
  0
LINE
  8
0
 10
308.826782
 20
-69.667618
 11
307.826813
 21
-70.667603
  0
LINE
  8
0
 10
307.827148
 20
-56.667656
 11
296.327148
 21
-56.667656
  0
LINE
  8
0
 10
295.344666
 20
-76.369179
 11
285.327148
 21
-76.369179
  0
LINE
  8
0
 10
295.344666
 20
-70.018501
 11
285.327148
 21
-70.018501
  0
LINE
  8
0
 10
295.344666
 20
-57.316795
 11
285.327148
 21
-57.316795
  0
LINE
  8
0
 10
295.344666
 20
-50.965950
 11
285.327148
 21
-50.965950
  0
LINE
  8
0
 10
285.327148
 20
-76.369362
 11
285.327148
 21
-50.965950
  0
LINE
  8
0
 10
296.327148
 20
-74.667664
 11
296.327148
 21
-52.667656
  0
LINE
  8
0
 10
296.327576
 20
-74.667870
 11
295.345001
 21
-76.369591
  0
LINE
  8
0
 10
296.327148
 20
-52.667664
 11
295.344666
 21
-50.965969
  0
LINE
  8
0
 10
308.827148
 20
-69.668030
 11
308.827148
 21
-57.668030
  0
LINE
  8
0
 10
307.827148
 20
-70.668030
 11
307.827148
 21
-56.668030
  0
LINE
  8
0
 10
307.827148
 20
-70.667656
 11
296.327148
 21
-70.667656
  0
LINE
  8
0
 10
72.827148
 20
-83.667656
 11
78.627136
 21
-83.667656
  0
LINE
  8
0
 10
72.827148
 20
-158.667664
 11
78.627136
 21
-158.667664
  0
LINE
  8
0
 10
71.827148
 20
-101.151154
 11
71.827148
 21
-141.184158
  0
LINE
  8
0
 10
71.827148
 20
-154.184158
 11
71.827148
 21
-157.667664
  0
LINE
  8
0
 10
71.427124
 20
-154.184158
 11
78.627136
 21
-154.184158
  0
LINE
  8
0
 10
71.427124
 20
-141.184158
 11
78.627136
 21
-141.184158
  0
LINE
  8
0
 10
71.427124
 20
-88.151154
 11
78.627136
 21
-88.151154
  0
LINE
  8
0
 10
71.427124
 20
-101.151154
 11
78.627136
 21
-101.151154
  0
LINE
  8
0
 10
70.627075
 20
-88.951157
 11
71.427078
 21
-88.151154
  0
LINE
  8
0
 10
70.627159
 20
-100.351151
 11
71.427177
 21
-101.151169
  0
LINE
  8
0
 10
71.427109
 20
-141.184128
 11
70.627098
 21
-141.984131
  0
LINE
  8
0
 10
70.627129
 20
-153.384171
 11
71.427139
 21
-154.184174
  0
LINE
  8
0
 10
71.427124
 20
-88.151154
 11
71.427124
 21
-101.151154
  0
LINE
  8
0
 10
71.427124
 20
-141.184158
 11
71.427124
 21
-154.184158
  0
LINE
  8
0
 10
281.827148
 20
-166.667664
 11
285.327148
 21
-166.667664
  0
LINE
  8
0
 10
281.827148
 20
-190.667664
 11
285.327148
 21
-190.667664
  0
LINE
  8
0
 10
80.327148
 20
-166.667664
 11
83.827148
 21
-166.667664
  0
LINE
  8
0
 10
80.327148
 20
-190.667664
 11
83.827148
 21
-190.667664
  0
LINE
  8
0
 10
80.327148
 20
-51.667656
 11
83.827148
 21
-51.667656
  0
LINE
  8
0
 10
80.327148
 20
-75.667656
 11
83.827148
 21
-75.667656
  0
LINE
  8
0
 10
281.827148
 20
-51.667656
 11
285.327148
 21
-51.667656
  0
LINE
  8
0
 10
281.827148
 20
-75.667656
 11
285.327148
 21
-75.667656
  0
LINE
  8
0
 10
80.327148
 20
-166.167664
 11
83.827148
 21
-166.167664
  0
LINE
  8
0
 10
80.327148
 20
-76.167656
 11
83.827148
 21
-76.167656
  0
LINE
  8
0
  6
DASHED
 62
     2
 10
89.327110
 20
-48.667694
 11
90.827103
 21
-50.167686
  0
LINE
  8
0
  6
DASHED
 62
     2
 10
90.827118
 20
-50.167702
 11
108.827148
 21
-50.167702
  0
LINE
  8
0
  6
DASHED
 62
     2
 10
110.327156
 20
-48.667652
 11
108.827171
 21
-50.167648
  0
LINE
  8
0
  6
DASHED
 62
     2
 10
110.326988
 20
-48.667641
 11
109.927315
 21
-60.114090
  0
LINE
  8
0
  6
DASHED
 62
     2
 10
108.827148
 20
-60.017662
 11
108.827148
 21
-50.167656
  0
LINE
  8
0
  6
DASHED
 62
     2
 10
90.827698
 20
-50.167671
 11
90.827698
 21
-58.817665
  0
LINE
  8
0
  6
DASHED
 62
     2
 10
89.327080
 20
-48.667690
 11
89.702309
 21
-59.411514
  0
LINE
  8
0
  6
DASHED
 62
     2
 10
255.327316
 20
-48.667641
 11
256.827118
 21
-50.167698
  0
LINE
  8
0
  6
DASHED
 62
     2
 10
256.827148
 20
-50.168129
 11
274.827362
 21
-50.168129
  0
LINE
  8
0
  6
DASHED
 62
     2
 10
274.827179
 20
-50.167408
 11
276.327148
 21
-48.667412
  0
LINE
  8
0
  6
DASHED
 62
     2
 10
276.327484
 20
-48.667622
 11
275.927765
 21
-60.114105
  0
LINE
  8
0
  6
DASHED
 62
     2
 10
274.827148
 20
-60.017666
 11
274.827362
 21
-50.167633
  0
LINE
  8
0
  6
DASHED
 62
     2
 10
256.827148
 20
-50.167656
 11
256.827148
 21
-58.817665
  0
LINE
  8
0
  6
DASHED
 62
     2
 10
255.702835
 20
-59.411461
 11
255.327591
 21
-48.667591
  0
LINE
  8
0
 62
     2
 10
56.827148
 20
-69.267654
 11
69.327148
 21
-69.267654
  0
LINE
  8
0
 62
     2
 10
56.827148
 20
-58.067657
 11
69.327148
 21
-58.067657
  0
LINE
  8
0
 62
     2
 10
296.327148
 20
-58.067657
 11
308.827148
 21
-58.067657
  0
LINE
  8
0
 62
     2
 10
296.327148
 20
-69.267654
 11
308.827148
 21
-69.267654
  0
LINE
  8
0
 62
     2
 10
56.827148
 20
-173.067657
 11
69.327148
 21
-173.067657
  0
LINE
  8
0
 62
     2
 10
56.827148
 20
-184.267654
 11
69.327148
 21
-184.267654
  0
LINE
  8
0
 62
     2
 10
-26.172852
 20
-106.917656
 11
23.827148
 21
-106.917656
  0
LINE
  8
0
 62
     2
 10
25.434423
 20
-106.167641
 11
23.827219
 21
-106.917671
  0
LINE
  8
0
 62
     2
 10
308.827148
 20
-173.067657
 11
296.327148
 21
-173.067657
  0
LINE
  8
0
 62
     2
 10
308.827148
 20
-184.267654
 11
296.327148
 21
-184.267654
  0
LINE
  8
0
 10
-26.172844
 20
-106.917679
 11
-25.422848
 21
-106.167686
  0
LINE
  8
0
 10
-26.172852
 20
-135.417618
 11
-25.422844
 21
-136.167633
  0
LINE
  8
0
 62
     2
 10
-26.172852
 20
-135.417664
 11
23.827148
 21
-135.417664
  0
LINE
  8
0
 10
-25.422852
 20
-136.167664
 11
26.827148
 21
-136.167664
  0
LINE
  8
0
 62
     2
 10
25.434439
 20
-136.167664
 11
23.827234
 21
-135.417633
  0
LINE
  8
0
 10
-26.172852
 20
-135.417664
 11
-26.172852
 21
-106.917656
  0
LINE
  8
0
 10
-25.422852
 20
-106.167656
 11
-25.422852
 21
-136.167664
  0
LINE
  8
0
 10
118.827148
 20
-188.667648
 11
213.327148
 21
-188.667648
  0
LINE
  8
0
 10
118.827148
 20
-53.667648
 11
124.327148
 21
-53.667648
  0
LINE
  8
0
 10
152.327148
 20
-53.667648
 11
246.827148
 21
-53.667648
  0
LINE
  8
0
 10
241.327148
 20
-188.667648
 11
246.827148
 21
-188.667648
  0
LINE
  8
0
 62
     4
 10
124.327148
 20
-45.333710
 11
124.327148
 21
-90.339935
  0
LINE
  8
0
 62
     4
 10
152.327148
 20
-45.333710
 11
152.327148
 21
-88.414673
  0
LINE
  8
0
 62
     4
 10
152.327148
 20
-88.167648
 11
152.327148
 21
-88.167648
  0
LINE
  8
0
 62
     4
 10
124.327148
 20
-45.333710
 11
152.327148
 21
-45.333710
  0
LINE
  8
0
 62
     4
 10
124.327148
 20
-67.093132
 11
152.327148
 21
-67.093132
  0
LINE
  8
0
 62
     4
 10
124.327148
 20
-90.021576
 11
135.538422
 21
-90.021576
  0
LINE
  8
0
 62
     4
 10
134.177155
 20
-87.096832
 11
134.177155
 21
-88.576439
  0
LINE
  8
0
 62
     4
 10
142.477142
 20
-87.096832
 11
142.477142
 21
-88.576439
  0
LINE
  8
0
 62
     4
 10
141.113525
 20
-90.021576
 11
152.327148
 21
-90.021576
  0
LINE
  8
0
 62
     4
 10
124.327148
 20
-90.339935
 11
152.327148
 21
-90.339935
  0
LINE
  8
0
 62
     4
 10
122.827156
 20
-85.436493
 11
124.327164
 21
-84.570465
  0
LINE
  8
0
 62
     4
 10
122.827156
 20
-89.155563
 11
124.327148
 21
-90.021584
  0
LINE
  8
0
 62
     4
 10
122.827148
 20
-88.557190
 11
124.327156
 21
-88.688423
  0
LINE
  8
0
 62
     4
 10
147.827148
 20
-88.796005
 11
185.951187
 21
-88.796005
  0
LINE
  8
0
 62
     4
 10
152.327148
 20
-85.796005
 11
184.219131
 21
-85.796005
  0
LINE
  8
0
 62
     4
 10
136.565216
 20
-89.744743
 11
140.089096
 21
-88.800522
  0
LINE
  8
0
 62
     4
 10
136.565170
 20
-88.800529
 11
140.089081
 21
-89.744759
  0
LINE
  8
0
 62
     4
 10
147.827148
 20
-88.414673
 11
147.827148
 21
-90.021576
  0
LINE
  8
0
 62
     4
 10
152.327148
 20
-88.796005
 11
152.327148
 21
-90.339935
  0
LINE
  8
0
 62
     4
 10
124.327148
 20
-83.445709
 11
152.327148
 21
-83.445709
  0
LINE
  8
0
 62
     4
 10
122.827148
 20
-85.436470
 11
122.827148
 21
-89.155548
  0
LINE
  8
0
 62
     4
 10
184.219208
 20
-85.795959
 11
185.951263
 21
-88.795967
  0
LINE
  8
0
 62
     4
 10
124.327148
 20
-88.414673
 11
134.191467
 21
-88.414673
  0
LINE
  8
0
 62
     4
 10
124.327148
 20
-88.688416
 11
134.184082
 21
-88.688416
  0
LINE
  8
0
 62
     4
 10
142.462677
 20
-88.414673
 11
152.327148
 21
-88.414673
  0
LINE
  8
0
 62
     4
 10
142.470413
 20
-88.688416
 11
147.827148
 21
-88.688416
  0
LINE
  8
0
 62
     4
 10
241.327148
 20
-197.001587
 11
241.327148
 21
-151.995361
  0
LINE
  8
0
 62
     4
 10
213.327148
 20
-197.001587
 11
213.327148
 21
-154.283432
  0
LINE
  8
0
 62
     4
 10
213.327148
 20
-154.167648
 11
213.327148
 21
-154.167648
  0
LINE
  8
0
 62
     4
 10
241.327148
 20
-197.001587
 11
213.327148
 21
-197.001587
  0
LINE
  8
0
 62
     4
 10
241.327148
 20
-175.242172
 11
213.327148
 21
-175.242172
  0
LINE
  8
0
 62
     4
 10
241.327148
 20
-152.313721
 11
230.115875
 21
-152.313721
  0
LINE
  8
0
 62
     4
 10
241.327148
 20
-154.283432
 11
231.477142
 21
-154.283432
  0
LINE
  8
0
 62
     4
 10
231.477142
 20
-155.238464
 11
231.477142
 21
-153.758865
  0
LINE
  8
0
 62
     4
 10
223.177155
 20
-155.238464
 11
223.177155
 21
-153.758865
  0
LINE
  8
0
 62
     4
 10
223.177155
 20
-154.283432
 11
213.327148
 21
-154.283432
  0
LINE
  8
0
 62
     4
 10
224.540771
 20
-152.313721
 11
213.327148
 21
-152.313721
  0
LINE
  8
0
 62
     4
 10
241.327148
 20
-151.995361
 11
229.098190
 21
-151.995361
  0
LINE
  8
0
 62
     4
 10
242.827164
 20
-156.898865
 11
241.327164
 21
-157.764893
  0
LINE
  8
0
 62
     4
 10
242.827164
 20
-153.179779
 11
241.327148
 21
-152.313751
  0
LINE
  8
0
 62
     4
 10
242.827179
 20
-154.414764
 11
241.327179
 21
-154.283524
  0
LINE
  8
0
 62
     4
 10
217.827148
 20
-153.539291
 11
179.703110
 21
-153.539291
  0
LINE
  8
0
 62
     4
 10
213.327148
 20
-156.539291
 11
181.435165
 21
-156.539291
  0
LINE
  8
0
 62
     4
 10
229.089081
 20
-152.590515
 11
225.565186
 21
-153.534729
  0
LINE
  8
0
 62
     4
 10
229.089111
 20
-153.534683
 11
225.565201
 21
-152.590439
  0
LINE
  8
0
 62
     4
 10
217.827148
 20
-154.283432
 11
217.827148
 21
-152.313721
  0
LINE
  8
0
 62
     4
 10
213.327148
 20
-153.539291
 11
213.327148
 21
-151.995361
  0
LINE
  8
0
 62
     4
 10
241.327148
 20
-158.889587
 11
213.327148
 21
-158.889587
  0
LINE
  8
0
 62
     4
 10
242.827148
 20
-156.898819
 11
242.827148
 21
-153.179749
  0
LINE
  8
0
 62
     4
 10
181.435196
 20
-156.539307
 11
179.703156
 21
-153.539307
  0
LINE
  8
0
 62
     4
 10
144.462158
 20
-50.718979
 11
146.192139
 21
-50.718979
  0
LINE
  8
0
 62
     4
 10
144.462158
 20
-53.305618
 11
146.192139
 21
-53.305618
  0
LINE
  8
0
 62
     4
 10
144.462143
 20
-50.718971
 11
143.595093
 21
-52.012295
  0
LINE
  8
0
 62
     4
 10
143.595108
 20
-52.012295
 11
144.462158
 21
-53.305618
  0
LINE
  8
0
 62
     4
 10
146.192108
 20
-53.305603
 11
147.059158
 21
-52.012280
  0
LINE
  8
0
 62
     4
 10
147.059189
 20
-52.012314
 11
146.192123
 21
-50.718994
  0
LINE
  8
0
 62
     4
 10
130.462143
 20
-50.718979
 11
132.192154
 21
-50.718979
  0
LINE
  8
0
 62
     4
 10
130.462143
 20
-53.305618
 11
132.192154
 21
-53.305618
  0
LINE
  8
0
 62
     4
 10
130.462158
 20
-50.718971
 11
129.595108
 21
-52.012295
  0
LINE
  8
0
 62
     4
 10
129.595108
 20
-52.012306
 11
130.462158
 21
-53.305630
  0
LINE
  8
0
 62
     4
 10
132.192154
 20
-53.305622
 11
133.059204
 21
-52.012299
  0
LINE
  8
0
 62
     4
 10
133.059174
 20
-52.012295
 11
132.192123
 21
-50.718975
  0
LINE
  8
0
 62
     4
 10
233.462158
 20
-192.202408
 11
235.192139
 21
-192.202408
  0
LINE
  8
0
 62
     4
 10
233.462158
 20
-189.615768
 11
235.192139
 21
-189.615768
  0
LINE
  8
0
 62
     4
 10
233.462112
 20
-192.202408
 11
232.595062
 21
-190.909088
  0
LINE
  8
0
 62
     4
 10
232.595078
 20
-190.909088
 11
233.462128
 21
-189.615784
  0
LINE
  8
0
 62
     4
 10
235.192108
 20
-189.615738
 11
236.059174
 21
-190.909088
  0
LINE
  8
0
 62
     4
 10
236.059143
 20
-190.909073
 11
235.192093
 21
-192.202393
  0
LINE
  8
0
 62
     4
 10
219.462158
 20
-192.202408
 11
221.192139
 21
-192.202408
  0
LINE
  8
0
 62
     4
 10
219.462158
 20
-189.615768
 11
221.192139
 21
-189.615768
  0
LINE
  8
0
 62
     4
 10
219.462173
 20
-192.202423
 11
218.595108
 21
-190.909103
  0
LINE
  8
0
 62
     4
 10
218.595062
 20
-190.909103
 11
219.462112
 21
-189.615784
  0
LINE
  8
0
 62
     4
 10
221.192154
 20
-189.615753
 11
222.059204
 21
-190.909073
  0
LINE
  8
0
 62
     4
 10
222.059235
 20
-190.909103
 11
221.192169
 21
-192.202423
  0
LINE
  8
0
 62
     4
 10
225.555893
 20
-151.995361
 11
213.327148
 21
-151.995361
  0
LINE
  8
0
 10
152.327148
 20
-56.667656
 11
246.827148
 21
-56.667656
  0
LINE
  8
0
 10
152.327148
 20
-70.667656
 11
246.827148
 21
-70.667656
  0
LINE
  8
0
 10
241.327148
 20
-171.667664
 11
246.827148
 21
-171.667664
  0
LINE
  8
0
 10
241.327148
 20
-185.667664
 11
246.827148
 21
-185.667664
  0
LINE
  8
0
 10
-190.172852
 20
-112.921448
 11
-190.172852
 21
-129.413864
  0
LINE
  8
0
 10
-222.172852
 20
-112.921448
 11
-222.172852
 21
-129.413864
  0
LINE
  8
0
  6
CENTER
 62
     2
 10
-282.672852
 20
-121.167656
 11
-128.422852
 21
-121.167656
  0
LINE
  8
0
  6
CENTER
 62
     2
 10
-206.172852
 20
-44.667656
 11
-206.172852
 21
-197.417664
  0
LINE
  8
0
 10
-133.672852
 20
-48.667656
 11
-133.672852
 21
-193.667664
  0
LINE
  8
0
 10
-278.672852
 20
-48.667656
 11
-278.672852
 21
-193.667664
  0
LINE
  8
0
 10
-278.672852
 20
-48.667656
 11
-133.672852
 21
-48.667656
  0
LINE
  8
0
 10
-278.672852
 20
-193.667664
 11
-133.672852
 21
-193.667664
  0
LINE
  8
0
  6
CENTER
 62
     2
 10
-148.672852
 20
-49.167656
 11
-148.672852
 21
-78.167656
  0
LINE
  8
0
  6
CENTER
 62
     2
 10
-263.672852
 20
-48.667656
 11
-263.672852
 21
-77.167656
  0
LINE
  8
0
  6
CENTER
 62
     2
 10
-276.922852
 20
-63.667656
 11
-249.922852
 21
-63.667656
  0
LINE
  8
0
  6
CENTER
 62
     2
 10
-277.172852
 20
-178.667664
 11
-250.172852
 21
-178.667664
  0
LINE
  8
0
 10
-252.672852
 20
-172.316803
 11
-252.672852
 21
-185.018524
  0
LINE
  8
0
 10
-274.672852
 20
-172.316803
 11
-274.672852
 21
-185.018524
  0
LINE
  8
0
 10
-274.672607
 20
-172.317001
 11
-263.672638
 21
-165.966202
  0
LINE
  8
0
 10
-263.672577
 20
-191.369690
 11
-252.672562
 21
-185.018814
  0
LINE
  8
0
 10
-263.672516
 20
-165.965515
 11
-252.672607
 21
-172.316330
  0
LINE
  8
0
 10
-274.672760
 20
-185.018463
 11
-263.672791
 21
-191.369278
  0
LINE
  8
0
  6
CENTER
 62
     2
 10
-263.672852
 20
-163.667664
 11
-263.672852
 21
-193.417664
  0
LINE
  8
0
  6
CENTER
 62
     2
 10
-160.922852
 20
-178.667664
 11
-134.672852
 21
-178.667664
  0
LINE
  8
0
  6
CENTER
 62
     2
 10
-148.672852
 20
-162.917664
 11
-148.672852
 21
-192.167664
  0
LINE
  8
0
  6
CENTER
 62
     2
 10
-161.922852
 20
-63.667656
 11
-135.672852
 21
-63.667656
  0
LINE
  8
0
 10
-233.585968
 20
-144.338226
 11
-230.239883
 21
-145.234802
  0
LINE
  8
0
 10
-235.138962
 20
-150.133850
 11
-231.792892
 21
-151.030441
  0
LINE
  8
0
 10
-236.035309
 20
-146.787506
 11
-235.138733
 21
-150.133575
  0
LINE
  8
0
 10
-230.239700
 20
-145.234650
 11
-229.343140
 21
-148.580658
  0
LINE
  8
0
 10
-231.792709
 20
-151.030304
 11
-229.343231
 21
-148.580826
  0
LINE
  8
0
 10
-236.035416
 20
-146.787674
 11
-233.585922
 21
-144.338165
  0
LINE
  8
0
 10
-231.792694
 20
-91.304985
 11
-229.343201
 21
-93.754486
  0
LINE
  8
0
 10
-229.343414
 20
-93.754539
 11
-230.239990
 21
-97.100601
  0
LINE
  8
0
 10
-235.139206
 20
-92.201614
 11
-236.035782
 21
-95.547668
  0
LINE
  8
0
 10
-231.792801
 20
-91.305061
 11
-235.138870
 21
-92.201637
  0
LINE
  8
0
 10
-230.239899
 20
-97.100616
 11
-233.585907
 21
-97.997177
  0
LINE
  8
0
 10
-236.035324
 20
-95.547615
 11
-233.585846
 21
-97.997093
  0
LINE
  8
0
 10
-178.759659
 20
-144.337997
 11
-176.310150
 21
-146.787491
  0
LINE
  8
0
 10
-176.310410
 20
-146.787552
 11
-177.206985
 21
-150.133636
  0
LINE
  8
0
 10
-182.106064
 20
-145.234650
 11
-183.002640
 21
-148.580719
  0
LINE
  8
0
 10
-178.759750
 20
-144.338074
 11
-182.105835
 21
-145.234650
  0
LINE
  8
0
 10
-177.206924
 20
-150.133636
 11
-180.552933
 21
-151.030197
  0
LINE
  8
0
 10
-183.002365
 20
-148.580627
 11
-180.552887
 21
-151.030106
  0
LINE
  8
0
 10
-183.002335
 20
-93.754646
 11
-180.552841
 21
-91.305153
  0
LINE
  8
0
 10
-180.552917
 20
-91.305115
 11
-177.206848
 21
-92.201698
  0
LINE
  8
0
 10
-182.105865
 20
-97.100746
 11
-178.759796
 21
-97.997322
  0
LINE
  8
0
 10
-183.002289
 20
-93.754524
 11
-182.105698
 21
-97.100609
  0
LINE
  8
0
 10
-177.206757
 20
-92.201660
 11
-176.310196
 21
-95.547676
  0
LINE
  8
0
 10
-178.759598
 20
-97.997253
 11
-176.310135
 21
-95.547791
  0
LINE
  8
0
 10
-137.672852
 20
-172.316803
 11
-137.672852
 21
-185.018524
  0
LINE
  8
0
 10
-159.672852
 20
-172.316803
 11
-159.672852
 21
-185.018524
  0
LINE
  8
0
 10
-159.672745
 20
-172.316833
 11
-148.672760
 21
-165.966003
  0
LINE
  8
0
 10
-148.672806
 20
-191.369370
 11
-137.672791
 21
-185.018494
  0
LINE
  8
0
 10
-148.672653
 20
-165.965683
 11
-137.672729
 21
-172.316513
  0
LINE
  8
0
 10
-159.672821
 20
-185.018494
 11
-148.672821
 21
-191.369339
  0
LINE
  8
0
 10
-137.672852
 20
-57.316811
 11
-137.672852
 21
-70.018517
  0
LINE
  8
0
 10
-159.672852
 20
-57.316811
 11
-159.672852
 21
-70.018517
  0
LINE
  8
0
 10
-159.672623
 20
-57.317120
 11
-148.672607
 21
-50.966282
  0
LINE
  8
0
 10
-148.672546
 20
-76.369820
 11
-137.672516
 21
-70.018951
  0
LINE
  8
0
 10
-148.672821
 20
-50.965885
 11
-137.672867
 21
-57.316730
  0
LINE
  8
0
 10
-159.672806
 20
-70.018486
 11
-148.672836
 21
-76.369308
  0
LINE
  8
0
 10
-252.672852
 20
-57.316811
 11
-252.672852
 21
-70.018517
  0
LINE
  8
0
 10
-274.672852
 20
-57.316811
 11
-274.672852
 21
-70.018517
  0
LINE
  8
0
 10
-274.672455
 20
-57.317307
 11
-263.672424
 21
-50.966461
  0
LINE
  8
0
 10
-263.672424
 20
-76.370056
 11
-252.672394
 21
-70.019188
  0
LINE
  8
0
 10
-263.672668
 20
-50.965775
 11
-252.672745
 21
-57.316605
  0
LINE
  8
0
 10
-274.672791
 20
-70.018486
 11
-263.672791
 21
-76.369324
  0
LINE
  8
0
  6
DASHED
 62
     1
 10
-160.786484
 20
-56.866165
 11
-151.163147
 21
-73.248802
  0
LINE
  8
0
  6
DASHED
 62
     1
 10
-138.229446
 20
-65.651428
 11
-151.163116
 21
-73.248802
  0
LINE
  8
0
  6
DASHED
 62
     1
 10
-164.666595
 20
-59.145355
 11
-145.926392
 21
-91.048416
  0
LINE
  8
0
  6
DASHED
 62
     1
 10
-146.829453
 20
-48.667637
 11
-147.852798
 21
-49.268753
  0
LINE
  8
0
  6
DASHED
 62
     1
 10
-133.854935
 20
-83.957542
 11
-141.442703
 21
-88.414673
  0
LINE
  8
0
  6
DASHED
 62
     1
 10
-147.852829
 20
-49.268791
 11
-138.229477
 21
-65.651451
  0
LINE
  8
0
  6
DASHED
 62
     1
 10
-133.672943
 20
-83.257065
 11
-133.854996
 21
-83.957535
  0
LINE
  8
0
  6
DASHED
 62
     1
 10
-160.786469
 20
-56.866135
 11
-164.666565
 21
-59.145348
  0
LINE
  8
0
  6
DASHED
 62
     1
 10
-146.988815
 20
-87.265419
 11
-144.962860
 21
-90.714394
  0
LINE
  8
0
  6
DASHED
 62
     1
 10
-143.367386
 20
-85.138153
 11
-146.988800
 21
-87.265411
  0
LINE
  8
0
  6
DASHED
 62
     1
 10
-145.064117
 20
-90.541931
 11
-145.926361
 21
-91.048424
  0
LINE
  8
0
  6
DASHED
 62
     1
 10
-164.666595
 20
-59.145355
 11
-145.926392
 21
-91.048416
  0
LINE
  8
0
  6
DASHED
 62
     1
 10
-135.391907
 20
-85.092331
 11
-144.962830
 21
-90.714401
  0
LINE
  8
0
  6
DASHED
 62
     1
 10
-143.367355
 20
-85.138130
 11
-141.442688
 21
-88.414658
  0
LINE
  8
0
  6
CENTER
 62
     1
 10
-138.204636
 20
-51.719669
 11
-150.972900
 21
-59.219879
  0
LINE
  8
0
  6
DASHED
 62
     1
 10
-146.980759
 20
-56.874886
 11
-142.874542
 21
-57.942146
  0
LINE
  8
0
  6
DASHED
 62
     1
 10
-145.913620
 20
-52.768684
 11
-146.980865
 21
-56.874886
  0
LINE
  8
0
 62
     1
 10
-145.522934
 20
-53.235085
 11
-146.126953
 21
-53.589897
  0
LINE
  8
0
 62
     1
 10
-143.091766
 20
-57.373890
 11
-143.695801
 21
-57.728710
  0
LINE
  8
0
  6
DASHED
 62
     1
 10
-140.667450
 20
-48.667645
 11
-133.672852
 21
-60.575142
  0
LINE
  8
0
  6
DASHED
 62
     1
 10
-145.826843
 20
-52.717758
 11
-145.913528
 21
-52.768673
  0
LINE
  8
0
  6
DASHED
 62
     1
 10
-142.787872
 20
-57.891239
 11
-142.874557
 21
-57.942162
  0
LINE
  8
0
  6
DASHED
 62
     1
 10
-146.304459
 20
-87.443291
 11
-144.784973
 21
-90.030029
  0
LINE
  8
0
  6
DASHED
 62
     1
 10
-143.717712
 20
-85.923798
 11
-142.198227
 21
-88.510536
  0
LINE
  8
0
  6
DASHED
 62
     1
 10
-142.198212
 20
-88.510536
 11
-144.784958
 21
-90.030006
  0
LINE
  8
0
  6
DASHED
 62
     1
 10
-143.717697
 20
-85.923820
 11
-146.304428
 21
-87.443298
  0
LINE
  8
0
  6
DASHED
 62
     1
 10
-146.304443
 20
-87.443283
 11
-146.988815
 21
-87.265404
  0
LINE
  8
0
  6
DASHED
 62
     1
 10
-144.784927
 20
-90.030006
 11
-144.962799
 21
-90.714371
  0
LINE
  8
0
  6
DASHED
 62
     1
 10
-143.539795
 20
-85.239418
 11
-143.717667
 21
-85.923790
  0
LINE
  8
0
  6
CENTER
 62
     1
 10
-152.654083
 20
-56.890053
 11
-144.735580
 21
-70.370399
  0
LINE
  8
0
  6
CENTER
 62
     1
 10
-142.086777
 20
-59.798920
 11
-155.269775
 21
-67.542747
  0
LINE
  8
0
  6
DASHED
 62
     1
 10
-134.312103
 20
-87.125504
 11
-141.212250
 21
-91.178719
  0
LINE
  8
0
  6
DASHED
 62
     1
 10
-142.198242
 20
-88.510536
 11
-141.513870
 21
-88.688416
  0
LINE
  8
0
  6
DASHED
 62
     1
 10
-143.539825
 20
-85.239464
 11
-141.513870
 21
-88.688446
  0
LINE
  8
0
  6
DASHED
 62
     1
 10
-142.462296
 20
-89.245567
 11
-142.158401
 21
-89.762917
  0
LINE
  8
0
  6
DASHED
 62
     1
 10
-135.391907
 20
-85.092308
 11
-135.088013
 21
-85.609665
  0
LINE
  8
0
  6
DASHED
 62
     1
 10
-135.088013
 20
-85.609680
 11
-142.158417
 21
-89.762901
  0
LINE
  8
0
  6
DASHED
 62
     1
 10
-142.201599
 20
-89.788277
 11
-141.212326
 21
-91.178764
  0
LINE
  8
0
  6
DASHED
 62
     1
 10
-135.044998
 20
-85.584389
 11
-134.312210
 21
-87.125534
  0
LINE
  8
0
  6
DASHED
 62
     1
 10
-160.786453
 20
-185.469116
 11
-151.163116
 21
-169.086456
  0
LINE
  8
0
  6
DASHED
 62
     1
 10
-138.229492
 20
-176.683868
 11
-151.163162
 21
-169.086502
  0
LINE
  8
0
  6
DASHED
 62
     1
 10
-164.666580
 20
-183.189941
 11
-145.926376
 21
-151.286880
  0
LINE
  8
0
  6
DASHED
 62
     1
 10
-146.829361
 20
-193.667480
 11
-147.852722
 21
-193.066360
  0
LINE
  8
0
  6
DASHED
 62
     1
 10
-133.854858
 20
-158.377609
 11
-141.442612
 21
-153.920471
  0
LINE
  8
0
  6
DASHED
 62
     1
 10
-147.852783
 20
-193.066528
 11
-138.229462
 21
-176.683868
  0
LINE
  8
0
  6
DASHED
 62
     1
 10
-133.672867
 20
-159.078217
 11
-133.854935
 21
-158.377747
  0
LINE
  8
0
  6
DASHED
 62
     1
 10
-160.786499
 20
-185.469147
 11
-164.666595
 21
-183.189926
  0
LINE
  8
0
  6
DASHED
 62
     1
 10
-146.988815
 20
-155.069901
 11
-144.962845
 21
-151.620926
  0
LINE
  8
0
  6
DASHED
 62
     1
 10
-143.367447
 20
-157.197266
 11
-146.988876
 21
-155.069992
  0
LINE
  8
0
  6
DASHED
 62
     1
 10
-145.064087
 20
-151.793320
 11
-145.926331
 21
-151.286835
  0
LINE
  8
0
  6
DASHED
 62
     1
 10
-164.666580
 20
-183.189941
 11
-145.926376
 21
-151.286880
  0
LINE
  8
0
  6
DASHED
 62
     1
 10
-135.391846
 20
-157.242859
 11
-144.962769
 21
-151.620804
  0
LINE
  8
0
  6
DASHED
 62
     1
 10
-143.367371
 20
-157.197144
 11
-141.442703
 21
-153.920624
  0
LINE
  8
0
  6
CENTER
 62
     1
 10
-138.204575
 20
-190.615494
 11
-150.972824
 21
-183.115280
  0
LINE
  8
0
  6
DASHED
 62
     1
 10
-146.980774
 20
-185.460373
 11
-142.874557
 21
-184.393112
  0
LINE
  8
0
  6
DASHED
 62
     1
 10
-145.913605
 20
-189.566605
 11
-146.980850
 21
-185.460419
  0
LINE
  8
0
 62
     1
 10
-145.522903
 20
-189.100159
 11
-146.126923
 21
-188.745346
  0
LINE
  8
0
 62
     1
 10
-143.091827
 20
-184.961533
 11
-143.695862
 21
-184.606705
  0
LINE
  8
0
  6
DASHED
 62
     1
 10
-140.667435
 20
-193.667648
 11
-133.672836
 21
-181.760132
  0
LINE
  8
0
  6
DASHED
 62
     1
 10
-145.826874
 20
-189.617508
 11
-145.913544
 21
-189.566605
  0
LINE
  8
0
  6
DASHED
 62
     1
 10
-142.787918
 20
-184.444122
 11
-142.874603
 21
-184.393204
  0
LINE
  8
0
  6
DASHED
 62
     1
 10
-146.304413
 20
-154.892014
 11
-144.784943
 21
-152.305283
  0
LINE
  8
0
  6
DASHED
 62
     1
 10
-143.717667
 20
-156.411484
 11
-142.198196
 21
-153.824753
  0
LINE
  8
0
  6
DASHED
 62
     1
 10
-142.198166
 20
-153.824677
 11
-144.784897
 21
-152.305206
  0
LINE
  8
0
  6
DASHED
 62
     1
 10
-143.717667
 20
-156.411438
 11
-146.304398
 21
-154.891968
  0
LINE
  8
0
  6
DASHED
 62
     1
 10
-146.304428
 20
-154.891998
 11
-146.988785
 21
-155.069855
  0
LINE
  8
0
  6
DASHED
 62
     1
 10
-144.784927
 20
-152.305283
 11
-144.962814
 21
-151.620926
  0
LINE
  8
0
  6
DASHED
 62
     1
 10
-143.539673
 20
-157.095825
 11
-143.717545
 21
-156.411453
  0
LINE
  8
0
  6
CENTER
 62
     1
 10
-152.654129
 20
-185.445251
 11
-144.735626
 21
-171.964890
  0
LINE
  8
0
  6
CENTER
 62
     1
 10
-142.086823
 20
-182.536423
 11
-155.269821
 21
-174.792587
  0
LINE
  8
0
  6
DASHED
 62
     1
 10
-134.312134
 20
-155.209763
 11
-141.212265
 21
-151.156555
  0
LINE
  8
0
  6
DASHED
 62
     1
 10
-142.198242
 20
-153.824722
 11
-141.513901
 21
-153.646835
  0
LINE
  8
0
  6
DASHED
 62
     1
 10
-143.539795
 20
-157.095840
 11
-141.513809
 21
-153.646851
  0
LINE
  8
0
  6
DASHED
 62
     1
 10
-142.462311
 20
-153.089737
 11
-142.158417
 21
-152.572372
  0
LINE
  8
0
  6
DASHED
 62
     1
 10
-135.391937
 20
-157.242981
 11
-135.088043
 21
-156.725632
  0
LINE
  8
0
  6
DASHED
 62
     1
 10
-135.088089
 20
-156.725708
 11
-142.158493
 21
-152.572495
  0
LINE
  8
0
  6
DASHED
 62
     1
 10
-142.201553
 20
-152.547058
 11
-141.212296
 21
-151.156586
  0
LINE
  8
0
  6
DASHED
 62
     1
 10
-135.044937
 20
-156.750961
 11
-134.312149
 21
-155.209793
  0
LINE
  8
0
 62
     4
 10
-142.248199
 20
-45.976559
 11
-146.829437
 21
-48.667629
  0
LINE
  8
0
 62
     4
 10
-129.585922
 20
-67.532684
 11
-133.672928
 21
-83.257133
  0
LINE
  8
0
 62
     4
 10
-142.248215
 20
-45.976578
 11
-140.667450
 21
-48.667645
  0
LINE
  8
0
 62
     4
 10
-142.247925
 20
-196.358536
 11
-146.829208
 21
-193.667526
  0
LINE
  8
0
 62
     4
 10
-129.585892
 20
-174.802399
 11
-133.672867
 21
-159.078781
  0
LINE
  8
0
 62
     4
 10
-142.247971
 20
-196.358627
 11
-140.667297
 21
-193.667633
  0
LINE
  8
0
 62
     4
 10
-133.672852
 20
-181.760071
 11
-129.585922
 21
-174.802383
  0
LINE
  8
0
 62
     4
 10
-133.672852
 20
-60.575142
 11
-129.585907
 21
-67.532692
  0
LINE
  8
0
  6
CENTER
 62
     2
 10
-30.672852
 20
108.832344
 11
285.227173
 21
108.832344
  0
LINE
  8
0
 10
-25.422852
 20
123.832336
 11
26.827148
 21
123.832336
  0
LINE
  8
0
 10
23.827148
 20
123.832336
 11
23.827148
 21
93.832344
  0
LINE
  8
0
 10
26.827148
 20
123.832336
 11
26.827148
 21
93.832344
  0
LINE
  8
0
 10
26.827177
 20
123.832291
 11
28.559294
 21
124.832336
  0
LINE
  8
0
 10
39.981842
 20
126.832336
 11
45.827148
 21
126.832336
  0
LINE
  8
0
 10
32.023315
 20
124.832344
 11
32.023315
 21
92.832344
  0
LINE
  8
0
 10
45.827148
 20
136.832336
 11
45.827148
 21
80.832336
  0
LINE
  8
0
 10
46.827148
 20
137.832336
 11
46.827148
 21
79.832336
  0
LINE
  8
0
 10
45.827114
 20
136.832397
 11
46.827122
 21
137.832397
  0
LINE
  8
0
 10
45.827156
 20
80.832314
 11
46.827156
 21
79.832314
  0
LINE
  8
0
 10
83.827148
 20
181.332336
 11
83.827148
 21
36.332336
  0
LINE
  8
0
 10
78.627136
 20
152.832336
 11
78.627136
 21
64.832336
  0
LINE
  8
0
 10
79.627136
 20
153.630646
 11
79.627136
 21
64.034058
  0
LINE
  8
0
 10
78.627235
 20
152.832306
 11
79.425484
 21
153.630569
  0
LINE
  8
0
 10
70.627136
 20
141.048843
 11
70.627136
 21
129.648849
  0
LINE
  8
0
 10
70.627136
 20
88.015839
 11
70.627136
 21
76.615845
  0
LINE
  8
0
 10
46.827110
 20
137.832260
 11
70.627098
 21
138.784256
  0
LINE
  8
0
 10
46.827198
 20
79.832375
 11
70.627151
 21
78.880379
  0
LINE
  8
0
 10
71.827148
 20
145.332336
 11
71.827148
 21
141.848846
  0
LINE
  8
0
 10
118.827148
 20
181.332336
 11
118.827148
 21
36.332336
  0
LINE
  8
0
 10
83.827148
 20
181.332336
 11
118.827148
 21
181.332336
  0
LINE
  8
0
 10
83.827148
 20
36.332336
 11
118.827148
 21
36.332336
  0
LINE
  8
0
  6
CENTER
 62
     2
 10
51.992737
 20
166.332336
 11
312.027161
 21
166.332336
  0
LINE
  8
0
 10
308.827148
 20
45.331970
 11
308.827148
 21
57.331970
  0
LINE
  8
0
 10
307.827148
 20
44.331970
 11
307.827148
 21
58.331970
  0
LINE
  8
0
 10
307.827148
 20
44.332336
 11
296.327148
 21
44.332336
  0
LINE
  8
0
 10
307.827148
 20
58.332336
 11
296.327148
 21
58.332336
  0
LINE
  8
0
 10
308.826935
 20
45.332066
 11
307.826935
 21
44.332043
  0
LINE
  8
0
 10
308.826569
 20
57.331474
 11
307.826599
 21
58.331455
  0
LINE
  8
0
  6
CENTER
 62
     2
 10
51.327148
 20
51.332336
 11
313.627136
 21
51.332336
  0
LINE
  8
0
 10
57.827148
 20
44.332336
 11
69.327148
 21
44.332336
  0
LINE
  8
0
 10
56.827126
 20
57.332314
 11
57.827126
 21
58.332314
  0
LINE
  8
0
 10
56.827198
 20
45.332359
 11
57.827202
 21
44.332359
  0
LINE
  8
0
 10
56.827148
 20
57.332336
 11
56.827148
 21
45.332336
  0
LINE
  8
0
 10
57.827148
 20
58.332336
 11
57.827148
 21
44.332336
  0
LINE
  8
0
 10
57.827148
 20
58.332336
 11
69.327148
 21
58.332336
  0
LINE
  8
0
 10
78.627090
 20
64.832359
 11
79.425400
 21
64.034065
  0
LINE
  8
0
  6
CENTER
 62
     2
 10
265.827148
 20
123.832344
 11
265.827148
 21
93.832344
  0
LINE
  8
0
 10
118.827148
 20
173.332336
 11
246.827148
 21
173.332336
  0
LINE
  8
0
 10
118.827148
 20
44.332336
 11
124.327148
 21
44.332336
  0
LINE
  8
0
 10
118.827148
 20
159.332336
 11
246.827148
 21
159.332336
  0
LINE
  8
0
 10
118.827148
 20
58.332336
 11
246.827148
 21
58.332336
  0
LINE
  8
0
 10
281.827148
 20
181.332336
 11
281.827148
 21
36.332336
  0
LINE
  8
0
 10
246.827148
 20
181.332336
 11
246.827148
 21
36.332336
  0
LINE
  8
0
 10
246.827148
 20
181.332336
 11
281.827148
 21
181.332336
  0
LINE
  8
0
 10
246.827148
 20
36.332336
 11
281.827148
 21
36.332336
  0
LINE
  8
0
 10
56.827194
 20
160.332367
 11
57.827190
 21
159.332352
  0
LINE
  8
0
 10
56.827175
 20
172.332291
 11
57.827187
 21
173.332291
  0
LINE
  8
0
 10
57.827148
 20
159.332336
 11
69.327148
 21
159.332336
  0
LINE
  8
0
 10
56.827148
 20
172.332336
 11
56.827148
 21
160.332336
  0
LINE
  8
0
 10
57.827148
 20
173.332336
 11
57.827148
 21
159.332336
  0
LINE
  8
0
 10
57.827148
 20
173.332336
 11
69.327148
 21
173.332336
  0
LINE
  8
0
 10
308.826813
 20
172.331757
 11
307.826843
 21
173.331726
  0
LINE
  8
0
 10
308.826782
 20
160.332336
 11
307.826813
 21
159.332352
  0
LINE
  8
0
 10
307.827148
 20
173.332336
 11
296.327148
 21
173.332336
  0
LINE
  8
0
 10
308.827148
 20
160.331970
 11
308.827148
 21
172.331970
  0
LINE
  8
0
 10
307.827148
 20
159.331970
 11
307.827148
 21
173.331970
  0
LINE
  8
0
 10
307.827148
 20
159.332336
 11
296.327148
 21
159.332336
  0
LINE
  8
0
 10
72.827148
 20
146.332336
 11
78.627136
 21
146.332336
  0
LINE
  8
0
 10
72.827148
 20
71.332336
 11
78.627136
 21
71.332336
  0
LINE
  8
0
 10
71.827148
 20
128.848846
 11
71.827148
 21
88.815842
  0
LINE
  8
0
 10
71.827148
 20
75.815842
 11
71.827148
 21
72.332336
  0
LINE
  8
0
 10
71.427124
 20
75.815842
 11
78.627136
 21
75.815842
  0
LINE
  8
0
 10
71.427124
 20
88.815842
 11
78.627136
 21
88.815842
  0
LINE
  8
0
 10
71.427124
 20
141.848846
 11
78.627136
 21
141.848846
  0
LINE
  8
0
 10
71.427124
 20
128.848846
 11
78.627136
 21
128.848846
  0
LINE
  8
0
 10
70.627068
 20
141.048874
 11
71.427071
 21
141.848877
  0
LINE
  8
0
 10
70.627144
 20
129.648849
 11
71.427162
 21
128.848831
  0
LINE
  8
0
 10
71.427101
 20
88.815872
 11
70.627090
 21
88.015869
  0
LINE
  8
0
 10
70.627144
 20
76.615852
 11
71.427147
 21
75.815849
  0
LINE
  8
0
 10
71.427124
 20
141.848846
 11
71.427124
 21
128.848846
  0
LINE
  8
0
 10
71.427124
 20
88.815842
 11
71.427124
 21
75.815842
  0
LINE
  8
0
 10
281.827148
 20
63.332336
 11
285.327148
 21
63.332336
  0
LINE
  8
0
 10
281.827148
 20
39.332336
 11
285.327148
 21
39.332336
  0
LINE
  8
0
 10
80.327148
 20
63.332336
 11
83.827148
 21
63.332336
  0
LINE
  8
0
 10
80.327148
 20
39.332336
 11
83.827148
 21
39.332336
  0
LINE
  8
0
 10
80.327148
 20
178.332336
 11
83.827148
 21
178.332336
  0
LINE
  8
0
 10
80.327148
 20
154.332336
 11
83.827148
 21
154.332336
  0
LINE
  8
0
 10
281.827148
 20
178.332336
 11
285.327148
 21
178.332336
  0
LINE
  8
0
 10
281.827148
 20
154.332336
 11
285.327148
 21
154.332336
  0
LINE
  8
0
 10
80.327148
 20
63.832336
 11
83.827148
 21
63.832336
  0
LINE
  8
0
 10
80.327148
 20
153.832336
 11
83.827148
 21
153.832336
  0
LINE
  8
0
 62
     2
 10
56.827148
 20
160.732346
 11
69.327148
 21
160.732346
  0
LINE
  8
0
 62
     2
 10
56.827148
 20
171.932343
 11
69.327148
 21
171.932343
  0
LINE
  8
0
 62
     2
 10
296.327148
 20
171.932343
 11
308.827148
 21
171.932343
  0
LINE
  8
0
 62
     2
 10
296.327148
 20
160.732346
 11
308.827148
 21
160.732346
  0
LINE
  8
0
 62
     2
 10
56.827148
 20
56.932343
 11
69.327148
 21
56.932343
  0
LINE
  8
0
 62
     2
 10
56.827148
 20
45.732346
 11
69.327148
 21
45.732346
  0
LINE
  8
0
 62
     2
 10
-26.172852
 20
123.082336
 11
23.827148
 21
123.082336
  0
LINE
  8
0
 62
     2
 10
25.434439
 20
123.832321
 11
23.827234
 21
123.082291
  0
LINE
  8
0
 62
     2
 10
308.827148
 20
56.932343
 11
296.327148
 21
56.932343
  0
LINE
  8
0
 62
     2
 10
308.827148
 20
45.732346
 11
296.327148
 21
45.732346
  0
LINE
  8
0
 10
-26.172911
 20
123.082413
 11
-25.422911
 21
123.832413
  0
LINE
  8
0
 10
-26.172861
 20
94.582367
 11
-25.422855
 21
93.832359
  0
LINE
  8
0
 62
     2
 10
-26.172852
 20
94.582344
 11
23.827148
 21
94.582344
  0
LINE
  8
0
 10
-25.422852
 20
93.832344
 11
26.827148
 21
93.832344
  0
LINE
  8
0
 62
     2
 10
25.434431
 20
93.832336
 11
23.827227
 21
94.582367
  0
LINE
  8
0
 10
-26.172852
 20
94.582344
 11
-26.172852
 21
123.082336
  0
LINE
  8
0
 10
-25.422852
 20
123.832336
 11
-25.422852
 21
93.832344
  0
LINE
  8
0
 10
28.559288
 20
124.832344
 11
38.827148
 21
124.832344
  0
LINE
  8
0
 10
38.827156
 20
124.832336
 11
39.981853
 21
126.832336
  0
LINE
  8
0
 10
26.827181
 20
93.832405
 11
28.559294
 21
92.832359
  0
LINE
  8
0
 10
28.559288
 20
92.832344
 11
38.827148
 21
92.832344
  0
LINE
  8
0
 10
38.827145
 20
92.832344
 11
39.981842
 21
90.832352
  0
LINE
  8
0
 10
39.981842
 20
90.832352
 11
45.827148
 21
90.832352
  0
LINE
  8
0
 10
69.327148
 20
177.332336
 11
80.327148
 21
177.332336
  0
LINE
  8
0
 10
70.309631
 20
166.332336
 11
80.327148
 21
166.332336
  0
LINE
  8
0
 10
69.327148
 20
177.332336
 11
69.327148
 21
155.332336
  0
LINE
  8
0
 10
69.327148
 20
155.332336
 11
80.327148
 21
155.332336
  0
LINE
  8
0
 10
80.327148
 20
178.332336
 11
80.327148
 21
154.332336
  0
LINE
  8
0
 10
296.327148
 20
177.332336
 11
285.327148
 21
177.332336
  0
LINE
  8
0
 10
295.344666
 20
166.332336
 11
285.327148
 21
166.332336
  0
LINE
  8
0
 10
296.327148
 20
177.332336
 11
296.327148
 21
155.332336
  0
LINE
  8
0
 10
296.327148
 20
155.332336
 11
285.327148
 21
155.332336
  0
LINE
  8
0
 10
285.327148
 20
178.332336
 11
285.327148
 21
154.332336
  0
LINE
  8
0
 10
69.327148
 20
40.332352
 11
80.327148
 21
40.332352
  0
LINE
  8
0
 10
70.309631
 20
51.332352
 11
80.327148
 21
51.332352
  0
LINE
  8
0
 10
69.327148
 20
40.332352
 11
69.327148
 21
62.332352
  0
LINE
  8
0
 10
69.327148
 20
62.332352
 11
80.327148
 21
62.332352
  0
LINE
  8
0
 10
80.327148
 20
39.332352
 11
80.327148
 21
63.332352
  0
LINE
  8
0
 10
296.327148
 20
40.332352
 11
285.327148
 21
40.332352
  0
LINE
  8
0
 10
295.344666
 20
51.332352
 11
285.327148
 21
51.332352
  0
LINE
  8
0
 10
296.327148
 20
40.332352
 11
296.327148
 21
62.332352
  0
LINE
  8
0
 10
296.327148
 20
62.332352
 11
285.327148
 21
62.332352
  0
LINE
  8
0
 10
285.327148
 20
39.332352
 11
285.327148
 21
63.332352
  0
LINE
  8
0
  6
CENTER
 62
     2
 10
99.827148
 20
123.832344
 11
99.827148
 21
93.832344
  0
LINE
  8
0
 10
118.827148
 20
41.332336
 11
124.327148
 21
41.332336
  0
LINE
  8
0
 10
152.327148
 20
41.332336
 11
246.827148
 21
41.332336
  0
LINE
  8
0
 62
     4
 10
152.327148
 20
67.326057
 11
124.327148
 21
67.326057
  0
LINE
  8
0
 62
     4
 10
152.327148
 20
63.445946
 11
124.327148
 21
63.445946
  0
LINE
  8
0
 62
     4
 10
152.327148
 20
50.512283
 11
124.327148
 21
50.512283
  0
LINE
  8
0
 62
     4
 10
152.327148
 20
44.907700
 11
124.327148
 21
44.907700
  0
LINE
  8
0
 62
     4
 10
152.327148
 20
32.245392
 11
124.327148
 21
32.245392
  0
LINE
  8
0
 62
     4
 10
124.327148
 20
32.245392
 11
124.327148
 21
50.512283
  0
LINE
  8
0
 62
     4
 10
152.327148
 20
32.245392
 11
152.327148
 21
50.512283
  0
LINE
  8
0
 62
     4
 10
124.327148
 20
58.332336
 11
124.327148
 21
67.326057
  0
LINE
  8
0
 62
     4
 10
152.327148
 20
58.332336
 11
152.327148
 21
67.326057
  0
LINE
  8
0
 62
     4
 10
146.193146
 20
42.121979
 11
144.461151
 21
42.121979
  0
LINE
  8
0
 62
     4
 10
146.193146
 20
40.602493
 11
144.461151
 21
40.602493
  0
LINE
  8
0
 62
     4
 10
143.595108
 20
41.362225
 11
144.461166
 21
42.121967
  0
LINE
  8
0
 62
     4
 10
143.595047
 20
41.362209
 11
144.461090
 21
40.602459
  0
LINE
  8
0
 62
     4
 10
146.193161
 20
42.121986
 11
147.059219
 21
41.362247
  0
LINE
  8
0
 62
     4
 10
147.059158
 20
41.362247
 11
146.193115
 21
40.602497
  0
LINE
  8
0
 62
     4
 10
132.193146
 20
42.121979
 11
130.461151
 21
42.121979
  0
LINE
  8
0
 62
     4
 10
132.193146
 20
40.602493
 11
130.461151
 21
40.602493
  0
LINE
  8
0
 62
     4
 10
129.595093
 20
41.362213
 11
130.461151
 21
42.121952
  0
LINE
  8
0
 62
     4
 10
129.595062
 20
41.362198
 11
130.461105
 21
40.602448
  0
LINE
  8
0
 62
     4
 10
132.193161
 20
42.121971
 11
133.059219
 21
41.362228
  0
LINE
  8
0
 62
     4
 10
133.059204
 20
41.362263
 11
132.193146
 21
40.602512
  0
LINE
  8
0
 62
     4
 10
241.327148
 20
32.245331
 11
213.327148
 21
32.245331
  0
LINE
  8
0
 62
     4
 10
241.327148
 20
41.332336
 11
241.327148
 21
32.245331
  0
LINE
  8
0
 62
     4
 10
213.327148
 20
41.332336
 11
213.327148
 21
32.245331
  0
LINE
  8
0
 62
     4
 10
225.508514
 20
38.561363
 11
229.145813
 21
40.661362
  0
LINE
  8
0
 62
     4
 10
225.508545
 20
40.661381
 11
229.145828
 21
38.561390
  0
LINE
  8
0
 62
     4
 10
223.327148
 20
40.016479
 11
223.327148
 21
41.332336
  0
LINE
  8
0
 62
     4
 10
231.327148
 20
40.016479
 11
231.327148
 21
41.332336
  0
LINE
  8
0
 10
118.827148
 20
176.332336
 11
246.827148
 21
176.332336
  0
LINE
  8
0
 10
152.327148
 20
44.332336
 11
246.827148
 21
44.332336
  0
ARC
  8
0
 10
40.106262
 20
-121.167656
 40
11.547039
 50
134.427200
 51
225.572800
  0
ARC
  8
0
 10
72.827148
 20
-84.667656
 40
1.000000
 50
90.000000
 51
180.000000
  0
ARC
  8
0
 10
72.827148
 20
-157.667664
 40
1.000000
 50
180.000000
 51
270.000000
  0
CIRCLE
  8
0
 10
99.827148
 20
-121.167656
 40
7.950000
  0
CIRCLE
  8
0
 10
265.827148
 20
-121.167656
 40
7.950000
  0
CIRCLE
  8
0
 10
99.827148
 20
-121.167656
 40
5.150000
  0
CIRCLE
  8
0
 10
265.827148
 20
-121.167656
 40
5.150000
  0
ARC
  8
0
 10
-236.893494
 20
-101.457428
 40
0.999999
 50
58.297192
 51
147.315781
  0
CIRCLE
  8
0
 10
-206.172852
 20
-121.167656
 40
15.000000
  0
CIRCLE
  8
0
 10
-206.172852
 20
-121.167656
 40
18.000000
  0
CIRCLE
  8
0
 10
-206.172852
 20
-121.167656
 40
30.000000
  0
ARC
  8
0
 10
-206.172852
 20
-121.167656
 40
37.500000
 50
0.000000
 51
32.684067
  0
ARC
  8
0
 10
-232.689362
 20
-147.684158
 40
7.000000
 50
0.000000
 51
121.703087
  0
ARC
  8
0
 10
-232.689362
 20
-94.651154
 40
7.000000
 50
0.000000
 51
31.702862
  0
ARC
  8
0
 10
-179.656342
 20
-94.651154
 40
7.000000
 50
148.297089
 51
301.702911
  0
ARC
  8
0
 10
-206.172852
 20
-121.167656
 40
37.499996
 50
57.315914
 51
122.684113
  0
ARC
  8
0
 10
-186.462616
 20
-90.447037
 40
0.999999
 50
328.297180
 51
57.315781
  0
ARC
  8
0
 10
-175.452209
 20
-101.457428
 40
1.000000
 50
32.684219
 51
121.702805
  0
ARC
  8
0
 10
-206.172852
 20
-121.167656
 40
37.500000
 50
327.315918
 51
0.000000
  0
ARC
  8
0
 10
-179.656342
 20
-147.684158
 40
7.000000
 50
58.297085
 51
211.702911
  0
ARC
  8
0
 10
-175.452209
 20
-140.877884
 40
0.999999
 50
238.297195
 51
327.315765
  0
ARC
  8
0
 10
-186.462616
 20
-151.888275
 40
1.000000
 50
302.684235
 51
31.702808
  0
ARC
  8
0
 10
-206.172852
 20
-121.167656
 40
37.500008
 50
237.315903
 51
302.684082
  0
ARC
  8
0
 10
-232.689362
 20
-147.684158
 40
7.000000
 50
328.297089
 51
0.000000
  0
ARC
  8
0
 10
-225.883087
 20
-151.888275
 40
0.999999
 50
148.297195
 51
237.315781
  0
ARC
  8
0
 10
-236.893494
 20
-140.877884
 40
1.000000
 50
212.684219
 51
301.702820
  0
ARC
  8
0
 10
-206.172852
 20
-121.167656
 40
37.499996
 50
147.315948
 51
212.684021
  0
ARC
  8
0
 10
-232.689362
 20
-94.651154
 40
7.000001
 50
238.296951
 51
0.000000
  0
ARC
  8
0
 10
-225.883087
 20
-90.447037
 40
1.000000
 50
122.684219
 51
211.703186
  0
CIRCLE
  8
0
 10
-206.172852
 20
-121.167656
 40
45.000000
  0
CIRCLE
  8
0
 10
-263.672852
 20
-178.667664
 40
7.000000
  0
CIRCLE
  8
0
 10
-232.689362
 20
-147.684158
 40
6.500000
  0
CIRCLE
  8
0
 10
-179.656342
 20
-147.684158
 40
6.500000
  0
CIRCLE
  8
0
 10
-179.656342
 20
-94.651154
 40
6.500000
  0
CIRCLE
  8
0
 10
-232.689362
 20
-94.651154
 40
6.500000
  0
CIRCLE
  8
0
 10
-263.672852
 20
-178.667664
 40
10.500000
  0
CIRCLE
  8
0
 10
-148.672852
 20
-178.667664
 40
7.000000
  0
CIRCLE
  8
0
 10
-148.672852
 20
-178.667664
 40
10.500000
  0
CIRCLE
  8
0
 10
-148.672852
 20
-63.667656
 40
7.000000
  0
CIRCLE
  8
0
 10
-148.672852
 20
-63.667656
 40
10.500000
  0
CIRCLE
  8
0
 10
-263.672852
 20
-63.667656
 40
7.000000
  0
CIRCLE
  8
0
 10
-263.672852
 20
-63.667656
 40
10.500000
  0
CIRCLE
  8
0
 62
     2
 10
-148.672852
 20
-63.667656
 40
5.600000
  0
CIRCLE
  8
0
 62
     2
 10
-263.672852
 20
-63.667656
 40
5.600000
  0
CIRCLE
  8
0
 62
     2
 10
-148.672852
 20
-178.667664
 40
5.600000
  0
CIRCLE
  8
0
 62
     2
 10
-263.672852
 20
-178.667664
 40
5.600000
  0
CIRCLE
  8
0
 62
     2
 10
-206.172852
 20
-121.167656
 40
14.250000
  0
ARC
  8
0
  6
DASHED
 62
     1
 10
-142.627716
 20
-80.869080
 40
10.406346
 50
277.817566
 51
300.430481
  0
ARC
  8
0
  6
DASHED
 62
     1
 10
-142.627716
 20
-80.869080
 40
10.406349
 50
300.430481
 51
323.043335
  0
CIRCLE
  8
0
  6
DASHED
 62
     1
 10
-144.251312
 20
-154.358383
 40
1.500000
  0
ARC
  8
0
  6
DASHED
 62
     1
 10
-142.627716
 20
-161.466217
 40
10.406347
 50
36.956665
 51
59.569508
  0
ARC
  8
0
  6
DASHED
 62
     1
 10
-142.627716
 20
-161.466217
 40
10.406343
 50
59.569508
 51
82.182419
  0
ARC
  8
0
 10
72.827148
 20
145.332336
 40
1.000000
 50
90.000000
 51
180.000000
  0
ARC
  8
0
 10
72.827148
 20
72.332336
 40
1.000000
 50
180.000000
 51
270.000000
  0
ARC
  8
0
 10
85.213097
 20
171.832336
 40
15.885953
 50
159.743851
 51
200.256104
  0
ARC
  8
0
 10
85.213097
 20
160.832336
 40
15.885951
 50
159.743790
 51
200.256058
  0
ARC
  8
0
 10
280.441193
 20
171.832336
 40
15.885953
 50
339.743835
 51
20.256102
  0
ARC
  8
0
 10
280.441193
 20
160.832336
 40
15.885948
 50
339.743896
 51
20.256153
  0
ARC
  8
0
 10
85.213097
 20
45.832352
 40
15.885948
 50
159.743805
 51
200.256058
  0
ARC
  8
0
 10
85.213097
 20
56.832352
 40
15.885950
 50
159.743866
 51
200.256119
  0
ARC
  8
0
 10
280.441193
 20
45.832352
 40
15.885953
 50
339.743835
 51
20.256102
  0
ARC
  8
0
 10
280.441193
 20
56.832352
 40
15.885957
 50
339.743805
 51
20.256050
  0
CIRCLE
  8
0
 62
     2
 10
265.827148
 20
108.832344
 40
10.477500
  0
CIRCLE
  8
0
 10
265.827148
 20
108.832344
 40
9.315500
  0
CIRCLE
  8
0
 62
     2
 10
99.827148
 20
108.832344
 40
10.477500
  0
CIRCLE
  8
0
 10
99.827148
 20
108.832344
 40
9.315500
  0
POLYLINE
  8
0
 66
     1
  0
VERTEX
  8
0
 10
38.827148
 20
-112.921448
  0
VERTEX
  8
0
 10
39.033329
 20
-113.821495
  0
VERTEX
  8
0
 10
39.216549
 20
-114.727264
  0
VERTEX
  8
0
 10
39.376465
 20
-115.638031
  0
VERTEX
  8
0
 10
39.512730
 20
-116.553085
  0
VERTEX
  8
0
 10
39.624996
 20
-117.471710
  0
VERTEX
  8
0
 10
39.712917
 20
-118.393196
  0
VERTEX
  8
0
 10
39.776150
 20
-119.316826
  0
VERTEX
  8
0
 10
39.814342
 20
-120.241882
  0
VERTEX
  8
0
 10
39.827148
 20
-121.167656
  0
VERTEX
  8
0
 10
39.814342
 20
-122.093430
  0
VERTEX
  8
0
 10
39.776150
 20
-123.018486
  0
VERTEX
  8
0
 10
39.712917
 20
-123.942116
  0
VERTEX
  8
0
 10
39.624996
 20
-124.863602
  0
VERTEX
  8
0
 10
39.512730
 20
-125.782227
  0
VERTEX
  8
0
 10
39.376465
 20
-126.697281
  0
VERTEX
  8
0
 10
39.216549
 20
-127.608047
  0
VERTEX
  8
0
 10
39.033329
 20
-128.513809
  0
VERTEX
  8
0
 10
38.827148
 20
-129.413864
  0
SEQEND
  0
POLYLINE
  8
0
 66
     1
  0
VERTEX
  8
0
 10
295.344666
 20
-191.369370
  0
VERTEX
  8
0
 10
295.744141
 20
-190.632751
  0
VERTEX
  8
0
 10
296.054535
 20
-189.847076
  0
VERTEX
  8
0
 10
296.255615
 20
-189.028687
  0
VERTEX
  8
0
 10
296.327148
 20
-188.193939
  0
VERTEX
  8
0
 10
296.255615
 20
-187.359192
  0
VERTEX
  8
0
 10
296.054535
 20
-186.540802
  0
VERTEX
  8
0
 10
295.744141
 20
-185.755112
  0
VERTEX
  8
0
 10
295.344666
 20
-185.018494
  0
SEQEND
  0
POLYLINE
  8
0
 66
     1
  0
VERTEX
  8
0
 10
295.344666
 20
-185.018494
  0
VERTEX
  8
0
 10
295.598450
 20
-184.135284
  0
VERTEX
  8
0
 10
295.816345
 20
-183.240982
  0
VERTEX
  8
0
 10
295.997162
 20
-182.337418
  0
VERTEX
  8
0
 10
296.139832
 20
-181.426468
  0
VERTEX
  8
0
 10
296.243134
 20
-180.509949
  0
VERTEX
  8
0
 10
296.305939
 20
-179.589737
  0
VERTEX
  8
0
 10
296.327148
 20
-178.667664
  0
VERTEX
  8
0
 10
296.305939
 20
-177.745590
  0
VERTEX
  8
0
 10
296.243134
 20
-176.825378
  0
VERTEX
  8
0
 10
296.139832
 20
-175.908859
  0
VERTEX
  8
0
 10
295.997162
 20
-174.997879
  0
VERTEX
  8
0
 10
295.816345
 20
-174.094315
  0
VERTEX
  8
0
 10
295.598450
 20
-173.200012
  0
VERTEX
  8
0
 10
295.344666
 20
-172.316803
  0
SEQEND
  0
POLYLINE
  8
0
 66
     1
  0
VERTEX
  8
0
 10
295.344666
 20
-172.316803
  0
VERTEX
  8
0
 10
295.744141
 20
-171.580185
  0
VERTEX
  8
0
 10
296.054535
 20
-170.794510
  0
VERTEX
  8
0
 10
296.255615
 20
-169.976120
  0
VERTEX
  8
0
 10
296.327148
 20
-169.141388
  0
VERTEX
  8
0
 10
296.255615
 20
-168.306641
  0
VERTEX
  8
0
 10
296.054535
 20
-167.488251
  0
VERTEX
  8
0
 10
295.744141
 20
-166.702560
  0
VERTEX
  8
0
 10
295.344666
 20
-165.965942
  0
SEQEND
  0
POLYLINE
  8
0
 66
     1
  0
VERTEX
  8
0
 10
70.309631
 20
-165.965942
  0
VERTEX
  8
0
 10
69.910156
 20
-166.702560
  0
VERTEX
  8
0
 10
69.599754
 20
-167.488251
  0
VERTEX
  8
0
 10
69.398674
 20
-168.306641
  0
VERTEX
  8
0
 10
69.327148
 20
-169.141388
  0
VERTEX
  8
0
 10
69.398674
 20
-169.976135
  0
VERTEX
  8
0
 10
69.599754
 20
-170.794510
  0
VERTEX
  8
0
 10
69.910156
 20
-171.580185
  0
VERTEX
  8
0
 10
70.309631
 20
-172.316803
  0
SEQEND
  0
POLYLINE
  8
0
 66
     1
  0
VERTEX
  8
0
 10
70.309631
 20
-185.018524
  0
VERTEX
  8
0
 10
69.910156
 20
-185.755142
  0
VERTEX
  8
0
 10
69.599754
 20
-186.540817
  0
VERTEX
  8
0
 10
69.398674
 20
-187.359207
  0
VERTEX
  8
0
 10
69.327148
 20
-188.193939
  0
VERTEX
  8
0
 10
69.398674
 20
-189.028671
  0
VERTEX
  8
0
 10
69.599754
 20
-189.847061
  0
VERTEX
  8
0
 10
69.910156
 20
-190.632736
  0
VERTEX
  8
0
 10
70.309631
 20
-191.369354
  0
SEQEND
  0
POLYLINE
  8
0
 66
     1
  0
VERTEX
  8
0
 10
70.309631
 20
-172.316803
  0
VERTEX
  8
0
 10
70.055847
 20
-173.200012
  0
VERTEX
  8
0
 10
69.837959
 20
-174.094315
  0
VERTEX
  8
0
 10
69.657120
 20
-174.997879
  0
VERTEX
  8
0
 10
69.514473
 20
-175.908844
  0
VERTEX
  8
0
 10
69.411171
 20
-176.825378
  0
VERTEX
  8
0
 10
69.348343
 20
-177.745590
  0
VERTEX
  8
0
 10
69.327148
 20
-178.667664
  0
VERTEX
  8
0
 10
69.348343
 20
-179.589737
  0
VERTEX
  8
0
 10
69.411171
 20
-180.509949
  0
VERTEX
  8
0
 10
69.514473
 20
-181.426468
  0
VERTEX
  8
0
 10
69.657120
 20
-182.337448
  0
VERTEX
  8
0
 10
69.837959
 20
-183.241013
  0
VERTEX
  8
0
 10
70.055847
 20
-184.135315
  0
VERTEX
  8
0
 10
70.309631
 20
-185.018524
  0
SEQEND
  0
POLYLINE
  8
0
 66
     1
  0
VERTEX
  8
0
 10
70.309631
 20
-50.965950
  0
VERTEX
  8
0
 10
69.910156
 20
-51.702568
  0
VERTEX
  8
0
 10
69.599754
 20
-52.488251
  0
VERTEX
  8
0
 10
69.398674
 20
-53.306637
  0
VERTEX
  8
0
 10
69.327148
 20
-54.141380
  0
VERTEX
  8
0
 10
69.398674
 20
-54.976124
  0
VERTEX
  8
0
 10
69.599754
 20
-55.794510
  0
VERTEX
  8
0
 10
69.910156
 20
-56.580193
  0
VERTEX
  8
0
 10
70.309631
 20
-57.316811
  0
SEQEND
  0
POLYLINE
  8
0
 66
     1
  0
VERTEX
  8
0
 10
70.309631
 20
-57.316811
  0
VERTEX
  8
0
 10
70.055847
 20
-58.200016
  0
VERTEX
  8
0
 10
69.837959
 20
-59.094326
  0
VERTEX
  8
0
 10
69.657120
 20
-59.997887
  0
VERTEX
  8
0
 10
69.514473
 20
-60.908852
  0
VERTEX
  8
0
 10
69.411171
 20
-61.825367
  0
VERTEX
  8
0
 10
69.348343
 20
-62.745586
  0
VERTEX
  8
0
 10
69.327148
 20
-63.667656
  0
VERTEX
  8
0
 10
69.348343
 20
-64.589729
  0
VERTEX
  8
0
 10
69.411171
 20
-65.509949
  0
VERTEX
  8
0
 10
69.514473
 20
-66.426468
  0
VERTEX
  8
0
 10
69.657120
 20
-67.337433
  0
VERTEX
  8
0
 10
69.837959
 20
-68.240997
  0
VERTEX
  8
0
 10
70.055847
 20
-69.135307
  0
VERTEX
  8
0
 10
70.309631
 20
-70.018517
  0
SEQEND
  0
POLYLINE
  8
0
 66
     1
  0
VERTEX
  8
0
 10
70.309631
 20
-70.018517
  0
VERTEX
  8
0
 10
69.910156
 20
-70.755135
  0
VERTEX
  8
0
 10
69.599754
 20
-71.540810
  0
VERTEX
  8
0
 10
69.398674
 20
-72.359200
  0
VERTEX
  8
0
 10
69.327148
 20
-73.193939
  0
VERTEX
  8
0
 10
69.398674
 20
-74.028679
  0
VERTEX
  8
0
 10
69.599754
 20
-74.847069
  0
VERTEX
  8
0
 10
69.910156
 20
-75.632744
  0
VERTEX
  8
0
 10
70.309631
 20
-76.369362
  0
SEQEND
  0
POLYLINE
  8
0
 66
     1
  0
VERTEX
  8
0
 10
295.344666
 20
-76.369370
  0
VERTEX
  8
0
 10
295.744141
 20
-75.632751
  0
VERTEX
  8
0
 10
296.054535
 20
-74.847069
  0
VERTEX
  8
0
 10
296.255615
 20
-74.028679
  0
VERTEX
  8
0
 10
296.327148
 20
-73.193939
  0
VERTEX
  8
0
 10
296.255615
 20
-72.359200
  0
VERTEX
  8
0
 10
296.054535
 20
-71.540802
  0
VERTEX
  8
0
 10
295.744141
 20
-70.755119
  0
VERTEX
  8
0
 10
295.344666
 20
-70.018501
  0
SEQEND
  0
POLYLINE
  8
0
 66
     1
  0
VERTEX
  8
0
 10
295.344666
 20
-70.018501
  0
VERTEX
  8
0
 10
295.598450
 20
-69.135300
  0
VERTEX
  8
0
 10
295.816345
 20
-68.240990
  0
VERTEX
  8
0
 10
295.997162
 20
-67.337425
  0
VERTEX
  8
0
 10
296.139832
 20
-66.426460
  0
VERTEX
  8
0
 10
296.243134
 20
-65.509941
  0
VERTEX
  8
0
 10
296.305939
 20
-64.589729
  0
VERTEX
  8
0
 10
296.327148
 20
-63.667656
  0
VERTEX
  8
0
 10
296.305939
 20
-62.745586
  0
VERTEX
  8
0
 10
296.243134
 20
-61.825363
  0
VERTEX
  8
0
 10
296.139832
 20
-60.908844
  0
VERTEX
  8
0
 10
295.997162
 20
-59.997879
  0
VERTEX
  8
0
 10
295.816345
 20
-59.094315
  0
VERTEX
  8
0
 10
295.598450
 20
-58.200001
  0
VERTEX
  8
0
 10
295.344666
 20
-57.316795
  0
SEQEND
  0
POLYLINE
  8
0
 66
     1
  0
VERTEX
  8
0
 10
295.344666
 20
-57.316795
  0
VERTEX
  8
0
 10
295.744141
 20
-56.580181
  0
VERTEX
  8
0
 10
296.054535
 20
-55.794502
  0
VERTEX
  8
0
 10
296.255615
 20
-54.976120
  0
VERTEX
  8
0
 10
296.327148
 20
-54.141380
  0
VERTEX
  8
0
 10
296.255615
 20
-53.306641
  0
VERTEX
  8
0
 10
296.054535
 20
-52.488251
  0
VERTEX
  8
0
 10
295.744141
 20
-51.702568
  0
VERTEX
  8
0
 10
295.344666
 20
-50.965950
  0
SEQEND
  0
ARC
  8
0
 62
     4
 10
141.536316
 20
-88.576439
 40
0.940826
 50
338.905151
 51
21.094854
  0
ARC
  8
0
 62
     4
 10
140.684525
 20
-89.046356
 40
1.909223
 50
25.054987
 51
64.507988
  0
ARC
  8
0
 62
     4
 10
138.327148
 20
-94.229294
 40
7.602851
 50
65.282616
 51
114.717384
  0
ARC
  8
0
 62
     4
 10
135.969772
 20
-89.046356
 40
1.909222
 50
115.492012
 51
154.945007
  0
ARC
  8
0
 62
     4
 10
135.117981
 20
-88.576439
 40
0.940826
 50
158.905151
 51
201.094849
  0
ARC
  8
0
 62
     4
 10
135.969772
 20
-88.106522
 40
1.909223
 50
205.054993
 51
244.507996
  0
ARC
  8
0
 62
     4
 10
138.327148
 20
-82.923584
 40
7.602851
 50
245.282608
 51
294.717377
  0
ARC
  8
0
 62
     4
 10
140.684525
 20
-88.106522
 40
1.909222
 50
295.492004
 51
334.945007
  0
ARC
  8
0
 62
     4
 10
141.536316
 20
-87.096832
 40
0.940826
 50
0.000000
 51
21.094854
  0
ARC
  8
0
 62
     4
 10
140.684525
 20
-87.566750
 40
1.909223
 50
25.054987
 51
64.507988
  0
ARC
  8
0
 62
     4
 10
138.327148
 20
-92.749680
 40
7.602844
 50
65.282585
 51
114.717415
  0
ARC
  8
0
 62
     4
 10
135.969772
 20
-87.566750
 40
1.909222
 50
115.492012
 51
154.945007
  0
ARC
  8
0
 62
     4
 10
135.117981
 20
-87.096832
 40
0.940826
 50
158.905151
 51
180.000000
  0
ARC
  8
0
 62
     4
 10
146.068146
 20
-52.012299
 40
2.259001
 50
348.471222
 51
11.528790
  0
ARC
  8
0
 62
     4
 10
145.871460
 20
-52.071125
 40
2.463544
 50
11.955101
 51
44.609600
  0
ARC
  8
0
 62
     4
 10
145.327148
 20
-52.719959
 40
3.307657
 50
45.989540
 51
134.010468
  0
ARC
  8
0
 62
     4
 10
144.782837
 20
-52.071125
 40
2.463540
 50
135.390396
 51
168.044907
  0
ARC
  8
0
 62
     4
 10
144.586151
 20
-52.012299
 40
2.259001
 50
168.471207
 51
191.528793
  0
ARC
  8
0
 62
     4
 10
144.782837
 20
-51.953472
 40
2.463544
 50
191.955093
 51
224.609604
  0
ARC
  8
0
 62
     4
 10
145.327148
 20
-51.304638
 40
3.307657
 50
225.989532
 51
314.010468
  0
ARC
  8
0
 62
     4
 10
145.871460
 20
-51.953472
 40
2.463540
 50
315.390411
 51
348.044891
  0
ARC
  8
0
 62
     4
 10
146.057556
 20
-52.012299
 40
1.769594
 50
348.107788
 51
11.892207
  0
ARC
  8
0
 62
     4
 10
145.863693
 20
-52.072128
 40
1.971713
 50
12.432596
 51
45.639309
  0
ARC
  8
0
 62
     4
 10
145.327148
 20
-52.731995
 40
2.819699
 50
47.219509
 51
132.780487
  0
ARC
  8
0
 62
     4
 10
144.790604
 20
-52.072128
 40
1.971716
 50
134.360687
 51
167.567398
  0
ARC
  8
0
 62
     4
 10
144.596741
 20
-52.012299
 40
1.769594
 50
168.107788
 51
191.892212
  0
ARC
  8
0
 62
     4
 10
144.790604
 20
-51.952469
 40
1.971713
 50
192.432602
 51
225.639313
  0
ARC
  8
0
 62
     4
 10
145.327148
 20
-51.292603
 40
2.819699
 50
227.219513
 51
312.780487
  0
ARC
  8
0
 62
     4
 10
145.863693
 20
-51.952469
 40
1.971716
 50
314.360687
 51
347.567413
  0
ARC
  8
0
 62
     4
 10
224.117981
 20
-153.758850
 40
0.940828
 50
158.904709
 51
201.094421
  0
ARC
  8
0
 62
     4
 10
224.969772
 20
-153.288925
 40
1.909223
 50
205.054993
 51
244.508087
  0
ARC
  8
0
 62
     4
 10
227.327148
 20
-148.106003
 40
7.602844
 50
245.282593
 51
294.717407
  0
ARC
  8
0
 62
     4
 10
229.684525
 20
-153.288925
 40
1.909229
 50
295.491913
 51
334.944611
  0
ARC
  8
0
 62
     4
 10
230.536316
 20
-153.758850
 40
0.940828
 50
338.904724
 51
21.094419
  0
ARC
  8
0
 62
     4
 10
229.684525
 20
-154.228775
 40
1.909223
 50
25.054987
 51
64.508087
  0
ARC
  8
0
 62
     4
 10
227.327148
 20
-159.411697
 40
7.602844
 50
65.282585
 51
114.717415
  0
ARC
  8
0
 62
     4
 10
224.969772
 20
-154.228775
 40
1.909229
 50
115.491913
 51
154.944595
  0
ARC
  8
0
 62
     4
 10
224.117981
 20
-155.238464
 40
0.940826
 50
180.000000
 51
201.094421
  0
ARC
  8
0
 62
     4
 10
224.969772
 20
-154.768539
 40
1.909223
 50
205.054993
 51
244.508087
  0
ARC
  8
0
 62
     4
 10
227.327148
 20
-149.585617
 40
7.602844
 50
245.282593
 51
294.717407
  0
ARC
  8
0
 62
     4
 10
229.684525
 20
-154.768539
 40
1.909229
 50
295.491913
 51
334.944611
  0
ARC
  8
0
 62
     4
 10
230.536316
 20
-155.238464
 40
0.940828
 50
338.904724
 51
0.000000
  0
ARC
  8
0
 62
     4
 10
132.068146
 20
-52.012299
 40
2.259001
 50
348.471222
 51
11.528790
  0
ARC
  8
0
 62
     4
 10
131.871460
 20
-52.071125
 40
2.463544
 50
11.955101
 51
44.609600
  0
ARC
  8
0
 62
     4
 10
131.327148
 20
-52.719959
 40
3.307657
 50
45.989540
 51
134.010468
  0
ARC
  8
0
 62
     4
 10
130.782837
 20
-52.071125
 40
2.463540
 50
135.390396
 51
168.044907
  0
ARC
  8
0
 62
     4
 10
130.586151
 20
-52.012299
 40
2.259001
 50
168.471207
 51
191.528793
  0
ARC
  8
0
 62
     4
 10
130.782837
 20
-51.953472
 40
2.463544
 50
191.955093
 51
224.609604
  0
ARC
  8
0
 62
     4
 10
131.327148
 20
-51.304638
 40
3.307657
 50
225.989532
 51
314.010468
  0
ARC
  8
0
 62
     4
 10
131.871460
 20
-51.953472
 40
2.463540
 50
315.390411
 51
348.044891
  0
ARC
  8
0
 62
     4
 10
132.057556
 20
-52.012299
 40
1.769594
 50
348.107788
 51
11.892207
  0
ARC
  8
0
 62
     4
 10
131.863693
 20
-52.072128
 40
1.971713
 50
12.432596
 51
45.639309
  0
ARC
  8
0
 62
     4
 10
131.327148
 20
-52.731995
 40
2.819699
 50
47.219509
 51
132.780487
  0
ARC
  8
0
 62
     4
 10
130.790604
 20
-52.072128
 40
1.971716
 50
134.360687
 51
167.567398
  0
ARC
  8
0
 62
     4
 10
130.596741
 20
-52.012299
 40
1.769594
 50
168.107788
 51
191.892212
  0
ARC
  8
0
 62
     4
 10
130.790604
 20
-51.952469
 40
1.971713
 50
192.432602
 51
225.639313
  0
ARC
  8
0
 62
     4
 10
131.327148
 20
-51.292603
 40
2.819699
 50
227.219513
 51
312.780487
  0
ARC
  8
0
 62
     4
 10
131.863693
 20
-51.952469
 40
1.971716
 50
314.360687
 51
347.567413
  0
ARC
  8
0
 62
     4
 10
235.068146
 20
-190.909088
 40
2.259003
 50
348.471008
 51
11.528979
  0
ARC
  8
0
 62
     4
 10
234.871460
 20
-190.967911
 40
2.463545
 50
11.955188
 51
44.609535
  0
ARC
  8
0
 62
     4
 10
234.327148
 20
-191.616745
 40
3.307655
 50
45.989494
 51
134.010513
  0
ARC
  8
0
 62
     4
 10
233.782837
 20
-190.967911
 40
2.463537
 50
135.390457
 51
168.044815
  0
ARC
  8
0
 62
     4
 10
233.586151
 20
-190.909088
 40
2.259003
 50
168.471024
 51
191.528976
  0
ARC
  8
0
 62
     4
 10
233.782837
 20
-190.850266
 40
2.463545
 50
191.955185
 51
224.609543
  0
ARC
  8
0
 62
     4
 10
234.327148
 20
-190.201431
 40
3.307655
 50
225.989487
 51
314.010498
  0
ARC
  8
0
 62
     4
 10
234.871460
 20
-190.850266
 40
2.463537
 50
315.390472
 51
348.044800
  0
ARC
  8
0
 62
     4
 10
235.057556
 20
-190.909088
 40
1.769592
 50
348.108032
 51
11.891966
  0
ARC
  8
0
 62
     4
 10
234.863693
 20
-190.968918
 40
1.971711
 50
12.432380
 51
45.639309
  0
ARC
  8
0
 62
     4
 10
234.327148
 20
-191.628784
 40
2.819699
 50
47.219509
 51
132.780487
  0
ARC
  8
0
 62
     4
 10
233.790604
 20
-190.968918
 40
1.971716
 50
134.360687
 51
167.567627
  0
ARC
  8
0
 62
     4
 10
233.596741
 20
-190.909088
 40
1.769592
 50
168.108032
 51
191.891968
  0
ARC
  8
0
 62
     4
 10
233.790604
 20
-190.849258
 40
1.971711
 50
192.432373
 51
225.639313
  0
ARC
  8
0
 62
     4
 10
234.327148
 20
-190.189392
 40
2.819699
 50
227.219513
 51
312.780487
  0
ARC
  8
0
 62
     4
 10
234.863693
 20
-190.849258
 40
1.971716
 50
314.360687
 51
347.567627
  0
ARC
  8
0
 62
     4
 10
221.068146
 20
-190.909088
 40
2.259003
 50
348.471008
 51
11.528979
  0
ARC
  8
0
 62
     4
 10
220.871460
 20
-190.967911
 40
2.463545
 50
11.955188
 51
44.609535
  0
ARC
  8
0
 62
     4
 10
220.327148
 20
-191.616745
 40
3.307655
 50
45.989494
 51
134.010513
  0
ARC
  8
0
 62
     4
 10
219.782837
 20
-190.967911
 40
2.463537
 50
135.390457
 51
168.044815
  0
ARC
  8
0
 62
     4
 10
219.586151
 20
-190.909088
 40
2.259003
 50
168.471024
 51
191.528976
  0
ARC
  8
0
 62
     4
 10
219.782837
 20
-190.850266
 40
2.463545
 50
191.955185
 51
224.609543
  0
ARC
  8
0
 62
     4
 10
220.327148
 20
-190.201431
 40
3.307655
 50
225.989487
 51
314.010498
  0
ARC
  8
0
 62
     4
 10
220.871460
 20
-190.850266
 40
2.463537
 50
315.390472
 51
348.044800
  0
ARC
  8
0
 62
     4
 10
221.057556
 20
-190.909088
 40
1.769592
 50
348.108032
 51
11.891966
  0
ARC
  8
0
 62
     4
 10
220.863693
 20
-190.968918
 40
1.971711
 50
12.432380
 51
45.639309
  0
ARC
  8
0
 62
     4
 10
220.327148
 20
-191.628784
 40
2.819699
 50
47.219509
 51
132.780487
  0
ARC
  8
0
 62
     4
 10
219.790604
 20
-190.968918
 40
1.971716
 50
134.360687
 51
167.567627
  0
ARC
  8
0
 62
     4
 10
219.596741
 20
-190.909088
 40
1.769592
 50
168.108032
 51
191.891968
  0
ARC
  8
0
 62
     4
 10
219.790604
 20
-190.849258
 40
1.971711
 50
192.432373
 51
225.639313
  0
ARC
  8
0
 62
     4
 10
220.327148
 20
-190.189392
 40
2.819699
 50
227.219513
 51
312.780487
  0
ARC
  8
0
 62
     4
 10
220.863693
 20
-190.849258
 40
1.971716
 50
314.360687
 51
347.567627
  0
ARC
  8
0
 62
     4
 10
147.541031
 20
41.362244
 40
0.786116
 50
340.394196
 51
19.605797
  0
ARC
  8
0
 62
     4
 10
146.953415
 20
41.061413
 40
1.443184
 50
23.030733
 51
62.254818
  0
ARC
  8
0
 62
     4
 10
145.327148
 20
37.743427
 40
5.137862
 50
63.429909
 51
116.570091
  0
ARC
  8
0
 62
     4
 10
143.700882
 20
41.061413
 40
1.443183
 50
117.745178
 51
156.969269
  0
ARC
  8
0
 62
     4
 10
143.113266
 20
41.362244
 40
0.786116
 50
160.394211
 51
199.605789
  0
ARC
  8
0
 62
     4
 10
143.700882
 20
41.663074
 40
1.443184
 50
203.030731
 51
242.254822
  0
ARC
  8
0
 62
     4
 10
145.327148
 20
44.981060
 40
5.137862
 50
243.429901
 51
296.570099
  0
ARC
  8
0
 62
     4
 10
146.953415
 20
41.663074
 40
1.443183
 50
297.745178
 51
336.969269
  0
ARC
  8
0
 62
     4
 10
147.401443
 20
41.362244
 40
0.725705
 50
340.285187
 51
19.714806
  0
ARC
  8
0
 62
     4
 10
146.850876
 20
41.078785
 40
1.342075
 50
23.179901
 51
62.427929
  0
ARC
  8
0
 62
     4
 10
145.327148
 20
37.952408
 40
4.819635
 50
63.574135
 51
116.425865
  0
ARC
  8
0
 62
     4
 10
143.803421
 20
41.078785
 40
1.342080
 50
117.572075
 51
156.820099
  0
ARC
  8
0
 62
     4
 10
143.252853
 20
41.362244
 40
0.725705
 50
160.285202
 51
199.714798
  0
ARC
  8
0
 62
     4
 10
143.803421
 20
41.645702
 40
1.342075
 50
203.179901
 51
242.427933
  0
ARC
  8
0
 62
     4
 10
145.327148
 20
44.772079
 40
4.819635
 50
243.574142
 51
296.425873
  0
ARC
  8
0
 62
     4
 10
146.850876
 20
41.645702
 40
1.342080
 50
297.572083
 51
336.820099
  0
ARC
  8
0
 62
     4
 10
133.541031
 20
41.362244
 40
0.786116
 50
340.394196
 51
19.605797
  0
ARC
  8
0
 62
     4
 10
132.953415
 20
41.061413
 40
1.443184
 50
23.030733
 51
62.254818
  0
ARC
  8
0
 62
     4
 10
131.327148
 20
37.743427
 40
5.137862
 50
63.429909
 51
116.570091
  0
ARC
  8
0
 62
     4
 10
129.700882
 20
41.061413
 40
1.443183
 50
117.745178
 51
156.969269
  0
ARC
  8
0
 62
     4
 10
129.113266
 20
41.362244
 40
0.786116
 50
160.394211
 51
199.605789
  0
ARC
  8
0
 62
     4
 10
129.700882
 20
41.663074
 40
1.443184
 50
203.030731
 51
242.254822
  0
ARC
  8
0
 62
     4
 10
131.327148
 20
44.981060
 40
5.137862
 50
243.429901
 51
296.570099
  0
ARC
  8
0
 62
     4
 10
132.953415
 20
41.663074
 40
1.443183
 50
297.745178
 51
336.969269
  0
ARC
  8
0
 62
     4
 10
133.401443
 20
41.362244
 40
0.725705
 50
340.285187
 51
19.714806
  0
ARC
  8
0
 62
     4
 10
132.850876
 20
41.078785
 40
1.342075
 50
23.179901
 51
62.427929
  0
ARC
  8
0
 62
     4
 10
131.327148
 20
37.952408
 40
4.819635
 50
63.574135
 51
116.425865
  0
ARC
  8
0
 62
     4
 10
129.803421
 20
41.078785
 40
1.342080
 50
117.572075
 51
156.820099
  0
ARC
  8
0
 62
     4
 10
129.252853
 20
41.362244
 40
0.725705
 50
160.285202
 51
199.714798
  0
ARC
  8
0
 62
     4
 10
129.803421
 20
41.645702
 40
1.342075
 50
203.179901
 51
242.427933
  0
ARC
  8
0
 62
     4
 10
131.327148
 20
44.772079
 40
4.819635
 50
243.574142
 51
296.425873
  0
ARC
  8
0
 62
     4
 10
132.850876
 20
41.645702
 40
1.342080
 50
297.572083
 51
336.820099
  0
ARC
  8
0
 62
     4
 10
226.580383
 20
39.935387
 40
3.264120
 50
154.668076
 51
167.972504
  0
ARC
  8
0
 62
     4
 10
226.310562
 20
40.016479
 40
2.983407
 50
168.415894
 51
191.584106
  0
ARC
  8
0
 62
     4
 10
226.580383
 20
40.097572
 40
3.264114
 50
192.027496
 51
224.767899
  0
ARC
  8
0
 62
     4
 10
227.327148
 20
40.992023
 40
4.425550
 50
226.180908
 51
313.819092
  0
ARC
  8
0
 62
     4
 10
228.073914
 20
40.097572
 40
3.264122
 50
315.232086
 51
347.972504
  0
ARC
  8
0
 62
     4
 10
228.343735
 20
40.016479
 40
2.983407
 50
348.415894
 51
11.584110
  0
ARC
  8
0
 62
     4
 10
228.073914
 20
39.935387
 40
3.264114
 50
12.027496
 51
25.345215
  0
TEXT
  8
0
 10
-369.785309
 20
256.649994
 40
9.000000
  1
SD CYLINDER
 50
0.000000
 41
1.052632
 51
0.000000
  7
STANDARD
  0
TEXT
  8
0
 10
242.014816
 20
-274.500000
 40
12.500000
  1
KOGANEI CORP.
 50
0.000000
 41
1.052632
 51
0.000000
  7
STANDARD
  0
TEXT
  8
0
 10
251.264664
 20
256.649994
 40
9.000000
  1
DATE: AUG ,1993
 50
0.000000
 41
1.052632
 51
0.000000
  7
STANDARD
  0
TEXT
  8
0
 10
-330.785309
 20
208.149994
 40
9.000000
  1
(WITH SENSOR SWITCH)
 50
0.000000
 41
1.052632
 51
0.000000
  7
STANDARD
  0
TEXT
  8
0
 10
-384.785309
 20
224.149994
 40
9.000000
  1
MODEL:KA0SDS125*100
 50
0.000000
 41
1.052632
 51
0.000000
  7
STANDARD
  0
ENDSEC
  0
EOF
