  0
SECTION
  2
HEADER
  0
ENDSEC
  0
SECTION
  2
TABLES
  0
TABLE
  2
LTYPE
 70
     4
  0
LTYPE
  2
CONTINUOUS
 70
    64
  3
Solid line
 72
    65
 73
     0
 40
0.000000
  0
LTYPE
  2
DASHED
 70
    64
  3
__ __ __ __ __ __ __ __ __ __ __ __ __ __ __
 72
    65
 73
     2
 40
3.500000
 49
2.000000
 49
-1.500000
  0
LTYPE
  2
CENTER
 70
    64
  3
____ _ ____ _ ____ _ ____ _ ____ _ ____ _ ____
 72
    65
 73
     4
 40
17.500000
 49
13.000000
 49
-1.500000
 49
1.500000
 49
-1.500000
  0
LTYPE
  2
PHANTOM
 70
    64
  3
_____ _ _ _____ _ _ _____ _ _ _____ _ _ ____  
 72
    65
 73
     6
 40
15.500000
 49
8.000000
 49
-1.500000
 49
1.500000
 49
-1.500000
 49
1.500000
 49
-1.500000
  0
LTYPE
  2
DASHED1
 70
    64
  3
__ __ __ __ __ __ __ __ __ __ __ __ __ __ __
 72
    65
 73
     2
 40
1.500000
 49
1.000000
 49
-0.500000
  0
LTYPE
  2
DASHED2
 70
    64
  3
__ __ __ __ __ __ __ __ __ __ __ __ __ __ __
 72
    65
 73
     2
 40
3.500000
 49
2.500000
 49
-1.000000
  0
LTYPE
  2
DASHED3
 70
    64
  3
__ __ __ __ __ __ __ __ __ __ __ __ __ __ __
 72
    65
 73
     2
 40
6.000000
 49
4.000000
 49
-2.000000
  0
LTYPE
  2
DASHED4
 70
    64
  3
__ __ __ __ __ __ __ __ __ __ __ __ __ __ __
 72
    65
 73
     2
 40
12.000000
 49
10.000000
 49
-2.000000
  0
LTYPE
  2
DASHED5
 70
    64
  3
__ __ __ __ __ __ __ __ __ __ __ __ __ __ __
 72
    65
 73
     2
 40
17.000000
 49
15.000000
 49
-2.000000
  0
LTYPE
  2
DASHED6
 70
    64
  3
__ __ __ __ __ __ __ __ __ __ __ __ __ __ __
 72
    65
 73
     2
 40
29.000000
 49
27.000000
 49
-2.000000
  0
LTYPE
  2
PHANTOM1
 70
    64
  3
_____ _ _ _____ _ _ _____ _ _ _____ _ _ ____  
 72
    65
 73
     6
 40
31.000000
 49
25.000000
 49
-1.500000
 49
1.000000
 49
-1.000000
 49
1.000000
 49
-1.500000
  0
LTYPE
  2
PHANTOM2
 70
    64
  3
_____ _ _ _____ _ _ _____ _ _ _____ _ _ ____  
 72
    65
 73
     6
 40
36.000000
 49
27.000000
 49
-1.500000
 49
2.500000
 49
-1.000000
 49
2.500000
 49
-1.500000
  0
LTYPE
  2
PHANTOM3
 70
    64
  3
_____ _ _ _____ _ _ _____ _ _ _____ _ _ ____  
 72
    65
 73
     6
 40
78.000000
 49
64.000000
 49
-2.000000
 49
4.000000
 49
-2.000000
 49
4.000000
 49
-2.000000
  0
LTYPE
  2
CENTER1
 70
    64
  3
____ _ ____ _ ____ _ ____ _ ____ _ ____ _ ____
 72
    65
 73
     4
 40
19.000000
 49
14.000000
 49
-1.000000
 49
3.000000
 49
-1.000000
  0
LTYPE
  2
CENTER2
 70
    64
  3
____ _ ____ _ ____ _ ____ _ ____ _ ____ _ ____
 72
    65
 73
     4
 40
28.500000
 49
25.000000
 49
-1.000000
 49
1.500000
 49
-1.000000
  0
LTYPE
  2
CENTER3
 70
    64
  3
____ _ ____ _ ____ _ ____ _ ____ _ ____ _ ____
 72
    65
 73
     4
 40
31.500000
 49
27.000000
 49
-1.000000
 49
2.500000
 49
-1.000000
  0
LTYPE
  2
CENTER4
 70
    64
  3
____ _ ____ _ ____ _ ____ _ ____ _ ____ _ ____
 72
    65
 73
     4
 40
50.000000
 49
45.000000
 49
-1.000000
 49
3.000000
 49
-1.000000
  0
LTYPE
  2
CENTER5
 70
    64
  3
____ _ ____ _ ____ _ ____ _ ____ _ ____ _ ____
 72
    65
 73
     4
 40
100.000000
 49
92.000000
 49
-2.000000
 49
4.000000
 49
-2.000000
  0
LTYPE
  2
SBK1
 70
    64
  3
______ _ _ _ ______ _ _ _ ______ _ _ _ _____  
 72
    65
 73
     8
 40
60.500000
 49
45.000000
 49
-2.000000
 49
2.500000
 49
-2.000000
 49
2.500000
 49
-2.000000
 49
2.500000
 49
-2.000000
  0
LTYPE
  2
SBK2
 70
    64
  3
______ _ _ _ ______ _ _ _ ______ _ _ _ _____  
 72
    65
 73
     8
 40
84.000000
 49
64.000000
 49
-2.000000
 49
4.000000
 49
-2.000000
 49
4.000000
 49
-2.000000
 49
4.000000
 49
-2.000000
  0
LTYPE
  2
STCH
 70
    64
  3
__ __ __ __ __ __ __ __ __ __ __ __ __ __ __
 72
    65
 73
     2
 40
3.000000
 49
1.000000
 49
-2.000000
  0
LTYPE
  2
MTCH
 70
    64
  3
_____ _ _ _____ _ _ _____ _ _ _____ _ _ ____  
 72
    65
 73
     6
 40
80.000000
 49
66.000000
 49
-2.000000
 49
4.000000
 49
-2.000000
 49
4.000000
 49
-2.000000
  0
ENDTAB
  0
TABLE
  2
LAYER
 70
     1
  0
LAYER
  2
0
 70
     0
 62
     7
  6
CONTINUOUS
  0
ENDTAB
  0
TABLE
  2
STYLE
 70
     1
  0
STYLE
  2
STANDARD
 70
     0
 40
0.000000
 41
1.000000
 50
0.000000
 71
     0
 42
0.200000
  3
txt
  4
BIGFONT
  0
ENDTAB
  0
TABLE
  2
VIEW
 70
     0
  0
ENDTAB
  0
ENDSEC
  0
SECTION
  2
BLOCKS
  0
ENDSEC
  0
SECTION
  2
ENTITIES
  0
LINE
  8
0
 10
399.799988
 20
276.250000
 11
399.799988
 21
-276.750000
  0
LINE
  8
0
 10
-399.250000
 20
276.250000
 11
-399.250000
 21
-276.750000
  0
LINE
  8
0
 10
-399.250000
 20
276.250000
 11
399.799988
 21
276.250000
  0
LINE
  8
0
 10
-399.250000
 20
-276.750000
 11
399.799988
 21
-276.750000
  0
LINE
  8
0
 10
239.799988
 20
-251.750000
 11
399.799988
 21
-251.750000
  0
LINE
  8
0
 10
239.799988
 20
251.250000
 11
399.799988
 21
251.250000
  0
LINE
  8
0
 10
-399.250000
 20
251.250000
 11
-239.250000
 21
251.250000
  0
LINE
  8
0
 10
239.799988
 20
-251.750000
 11
239.799988
 21
-276.750000
  0
LINE
  8
0
 10
239.799988
 20
251.250000
 11
239.799988
 21
276.250000
  0
LINE
  8
0
 10
-239.250000
 20
276.250000
 11
-239.250000
 21
251.250000
  0
LINE
  8
0
 10
-50.000000
 20
-115.750000
 11
-50.000000
 21
-144.250000
  0
LINE
  8
0
  6
CENTER
 62
     2
 10
-54.500000
 20
-130.000000
 11
261.400024
 21
-130.000000
  0
LINE
  8
0
 10
-49.250000
 20
-145.000000
 11
3.000000
 21
-145.000000
  0
LINE
  8
0
 10
0.000000
 20
-115.000000
 11
0.000000
 21
-145.000000
  0
LINE
  8
0
 10
3.000000
 20
-115.000000
 11
3.000000
 21
-145.000000
  0
LINE
  8
0
 10
3.000010
 20
-144.999969
 11
8.196169
 21
-147.999969
  0
LINE
  8
0
 10
3.000004
 20
-114.999985
 11
8.196153
 21
-111.999985
  0
LINE
  8
0
 10
8.196152
 20
-112.000000
 11
22.000000
 21
-112.000000
  0
LINE
  8
0
 10
8.196152
 20
-148.000000
 11
22.000000
 21
-148.000000
  0
LINE
  8
0
 10
8.196152
 20
-121.753784
 11
15.000000
 21
-121.753784
  0
LINE
  8
0
 10
8.196152
 20
-138.246216
 11
15.000000
 21
-138.246216
  0
LINE
  8
0
 10
15.000000
 20
-121.753784
 11
15.000000
 21
-138.246216
  0
LINE
  8
0
 10
8.196152
 20
-112.000000
 11
8.196152
 21
-121.753784
  0
LINE
  8
0
 10
8.196152
 20
-138.246216
 11
8.196152
 21
-148.000000
  0
LINE
  8
0
 62
     2
 10
14.999962
 20
-121.753769
 11
8.196120
 21
-138.246185
  0
LINE
  8
0
 62
     2
 10
8.196155
 20
-121.753777
 11
15.000005
 21
-138.246170
  0
LINE
  8
0
 10
22.000000
 20
-102.000000
 11
22.000000
 21
-158.000000
  0
LINE
  8
0
 10
23.000000
 20
-101.000000
 11
23.000000
 21
-159.000000
  0
LINE
  8
0
 10
22.000011
 20
-102.000023
 11
23.000011
 21
-101.000038
  0
LINE
  8
0
 10
22.000051
 20
-157.999939
 11
23.000055
 21
-158.999939
  0
LINE
  8
0
 10
60.000000
 20
-50.000000
 11
60.000000
 21
-210.000000
  0
LINE
  8
0
 10
54.799988
 20
-86.000000
 11
54.799988
 21
-174.000000
  0
LINE
  8
0
 10
55.799988
 20
-85.000000
 11
55.799988
 21
-175.000000
  0
LINE
  8
0
 10
54.800018
 20
-85.999939
 11
55.799942
 21
-84.999992
  0
LINE
  8
0
 10
46.799988
 20
-97.783508
 11
46.799988
 21
-109.183502
  0
LINE
  8
0
 10
46.799988
 20
-150.816498
 11
46.799988
 21
-162.216507
  0
LINE
  8
0
 10
22.999996
 20
-101.000008
 11
46.799984
 21
-100.048012
  0
LINE
  8
0
 10
23.000000
 20
-159.000092
 11
46.799988
 21
-159.952087
  0
LINE
  8
0
 10
48.000000
 20
-93.500000
 11
48.000000
 21
-96.983490
  0
LINE
  8
0
 10
95.000000
 20
-50.000000
 11
95.000000
 21
-210.000000
  0
LINE
  8
0
 10
60.000000
 20
-50.000000
 11
95.000000
 21
-50.000000
  0
LINE
  8
0
  6
CENTER
 62
     2
 10
27.123146
 20
-66.000000
 11
288.200012
 21
-66.000000
  0
LINE
  8
0
 10
271.517517
 20
-206.701538
 11
261.500000
 21
-206.701538
  0
LINE
  8
0
 10
271.517517
 20
-200.350845
 11
261.500000
 21
-200.350845
  0
LINE
  8
0
 10
271.517517
 20
-187.649139
 11
261.500000
 21
-187.649139
  0
LINE
  8
0
 10
271.517517
 20
-181.298294
 11
261.500000
 21
-181.298294
  0
LINE
  8
0
 10
261.500000
 20
-206.701721
 11
261.500000
 21
-181.298294
  0
LINE
  8
0
 10
272.500000
 20
-205.000000
 11
272.500000
 21
-183.000000
  0
LINE
  8
0
 10
272.500122
 20
-205.000214
 11
271.517578
 21
-206.701904
  0
LINE
  8
0
 10
272.499878
 20
-183.000137
 11
271.517395
 21
-181.298431
  0
LINE
  8
0
 10
285.000000
 20
-200.000366
 11
285.000000
 21
-188.000366
  0
LINE
  8
0
 10
284.000000
 20
-201.000366
 11
284.000000
 21
-187.000366
  0
LINE
  8
0
 10
284.000000
 20
-201.000000
 11
272.500000
 21
-201.000000
  0
LINE
  8
0
 10
284.000000
 20
-187.000000
 11
272.500000
 21
-187.000000
  0
LINE
  8
0
 10
284.999817
 20
-200.000259
 11
283.999817
 21
-201.000259
  0
LINE
  8
0
 10
284.999634
 20
-188.000702
 11
283.999634
 21
-187.000702
  0
LINE
  8
0
  6
CENTER
 62
     2
 10
27.500000
 20
-194.000000
 11
289.799988
 21
-194.000000
  0
LINE
  8
0
 10
34.000000
 20
-201.000000
 11
45.500000
 21
-201.000000
  0
LINE
  8
0
 10
33.000004
 20
-188.000000
 11
34.000004
 21
-187.000000
  0
LINE
  8
0
 10
33.000031
 20
-199.999954
 11
34.000019
 21
-200.999939
  0
LINE
  8
0
 10
46.482483
 20
-181.298294
 11
56.500000
 21
-181.298294
  0
LINE
  8
0
 10
46.482483
 20
-187.649155
 11
56.500000
 21
-187.649155
  0
LINE
  8
0
 10
46.482483
 20
-200.350861
 11
56.500000
 21
-200.350861
  0
LINE
  8
0
 10
46.482483
 20
-206.701721
 11
56.500000
 21
-206.701721
  0
LINE
  8
0
 10
56.500000
 20
-181.298294
 11
56.500000
 21
-206.701721
  0
LINE
  8
0
 10
45.500000
 20
-183.000000
 11
45.500000
 21
-205.000000
  0
LINE
  8
0
 10
45.499977
 20
-182.999939
 11
46.482452
 21
-181.298248
  0
LINE
  8
0
 10
45.499966
 20
-205.000000
 11
46.482449
 21
-206.701721
  0
LINE
  8
0
 10
33.000000
 20
-188.000000
 11
33.000000
 21
-200.000000
  0
LINE
  8
0
 10
34.000000
 20
-187.000000
 11
34.000000
 21
-201.000000
  0
LINE
  8
0
 10
34.000000
 20
-187.000000
 11
45.500000
 21
-187.000000
  0
LINE
  8
0
 10
54.799992
 20
-174.000000
 11
55.800014
 21
-175.000000
  0
LINE
  8
0
  6
CENTER
 62
     2
 10
76.000000
 20
-47.529602
 11
76.000000
 21
-141.300003
  0
LINE
  8
0
 10
236.904907
 20
-129.250000
 11
247.095093
 21
-129.250000
  0
LINE
  8
0
 10
236.904907
 20
-130.750000
 11
247.095093
 21
-130.750000
  0
LINE
  8
0
 10
95.000000
 20
-59.000000
 11
102.000000
 21
-59.000000
  0
LINE
  8
0
 10
95.000000
 20
-73.000000
 11
102.000000
 21
-73.000000
  0
LINE
  8
0
 10
95.000000
 20
-187.000000
 11
188.000000
 21
-187.000000
  0
LINE
  8
0
 10
95.000000
 20
-201.000000
 11
188.000000
 21
-201.000000
  0
LINE
  8
0
 62
     2
 10
242.000000
 20
-48.090424
 11
242.000000
 21
-143.000000
  0
LINE
  8
0
 10
258.000000
 20
-50.000000
 11
258.000000
 21
-210.000000
  0
LINE
  8
0
 10
223.000000
 20
-50.000000
 11
223.000000
 21
-210.000000
  0
LINE
  8
0
 10
223.000000
 20
-50.000000
 11
258.000000
 21
-50.000000
  0
LINE
  8
0
 10
70.904907
 20
-129.250000
 11
81.095093
 21
-129.250000
  0
LINE
  8
0
 10
70.904907
 20
-130.750000
 11
81.095093
 21
-130.750000
  0
LINE
  8
0
 10
33.000019
 20
-72.000000
 11
34.000019
 21
-73.000015
  0
LINE
  8
0
 10
33.000008
 20
-59.999992
 11
34.000008
 21
-59.000011
  0
LINE
  8
0
 10
34.000000
 20
-73.000000
 11
45.500000
 21
-73.000000
  0
LINE
  8
0
 10
46.482483
 20
-53.298294
 11
56.500000
 21
-53.298294
  0
LINE
  8
0
 10
46.482483
 20
-59.649155
 11
56.500000
 21
-59.649155
  0
LINE
  8
0
 10
46.482483
 20
-72.350861
 11
56.500000
 21
-72.350861
  0
LINE
  8
0
 10
46.482483
 20
-78.701706
 11
56.500000
 21
-78.701706
  0
LINE
  8
0
 10
56.500000
 20
-53.298294
 11
56.500000
 21
-78.701706
  0
LINE
  8
0
 10
45.500000
 20
-54.999954
 11
45.500000
 21
-77.000000
  0
LINE
  8
0
 10
45.500000
 20
-54.999962
 11
46.482483
 21
-53.298260
  0
LINE
  8
0
 10
45.500057
 20
-76.999985
 11
46.482533
 21
-78.701691
  0
LINE
  8
0
 10
33.000000
 20
-60.000000
 11
33.000000
 21
-72.000000
  0
LINE
  8
0
 10
34.000000
 20
-59.000000
 11
34.000000
 21
-73.000000
  0
LINE
  8
0
 10
34.000000
 20
-59.000000
 11
45.500000
 21
-59.000000
  0
LINE
  8
0
 10
284.999817
 20
-60.000507
 11
283.999817
 21
-59.000504
  0
LINE
  8
0
 10
284.999695
 20
-72.000092
 11
283.999725
 21
-73.000076
  0
LINE
  8
0
 10
284.000000
 20
-59.000000
 11
272.500000
 21
-59.000000
  0
LINE
  8
0
 10
271.517517
 20
-78.701523
 11
261.500000
 21
-78.701523
  0
LINE
  8
0
 10
271.517517
 20
-72.350845
 11
261.500000
 21
-72.350845
  0
LINE
  8
0
 10
271.517517
 20
-59.649139
 11
261.500000
 21
-59.649139
  0
LINE
  8
0
 10
271.517517
 20
-53.298294
 11
261.500000
 21
-53.298294
  0
LINE
  8
0
 10
261.500000
 20
-78.701706
 11
261.500000
 21
-53.298294
  0
LINE
  8
0
 10
272.500000
 20
-77.000008
 11
272.500000
 21
-55.000000
  0
LINE
  8
0
 10
272.500366
 20
-77.000221
 11
271.517792
 21
-78.701950
  0
LINE
  8
0
 10
272.500000
 20
-55.000046
 11
271.517517
 21
-53.298336
  0
LINE
  8
0
 10
285.000000
 20
-72.000374
 11
285.000000
 21
-60.000381
  0
LINE
  8
0
 10
284.000000
 20
-73.000374
 11
284.000000
 21
-59.000381
  0
LINE
  8
0
 10
284.000000
 20
-73.000000
 11
272.500000
 21
-73.000000
  0
LINE
  8
0
 10
49.000000
 20
-92.500000
 11
54.799988
 21
-92.500000
  0
LINE
  8
0
 10
49.000000
 20
-167.500000
 11
54.799988
 21
-167.500000
  0
LINE
  8
0
 10
48.000000
 20
-109.983490
 11
48.000000
 21
-150.016510
  0
LINE
  8
0
 10
48.000000
 20
-163.016510
 11
48.000000
 21
-166.500000
  0
LINE
  8
0
 10
47.599987
 20
-163.016510
 11
54.799988
 21
-163.016510
  0
LINE
  8
0
 10
47.599987
 20
-150.016510
 11
54.799988
 21
-150.016510
  0
LINE
  8
0
 10
47.599991
 20
-96.983490
 11
54.799988
 21
-96.983490
  0
LINE
  8
0
 10
47.599991
 20
-109.983490
 11
54.799988
 21
-109.983490
  0
LINE
  8
0
 10
46.799995
 20
-97.783508
 11
47.599991
 21
-96.983521
  0
LINE
  8
0
 10
46.799984
 20
-109.183502
 11
47.599987
 21
-109.983505
  0
LINE
  8
0
 10
47.599976
 20
-150.016464
 11
46.799980
 21
-150.816467
  0
LINE
  8
0
 10
46.799965
 20
-162.216507
 11
47.599968
 21
-163.016510
  0
LINE
  8
0
 10
47.599968
 20
-96.983490
 11
47.599968
 21
-109.983490
  0
LINE
  8
0
 10
47.599983
 20
-150.016510
 11
47.599983
 21
-163.016510
  0
LINE
  8
0
 10
258.000000
 20
-182.000000
 11
261.500000
 21
-182.000000
  0
LINE
  8
0
 10
258.000000
 20
-206.000000
 11
261.500000
 21
-206.000000
  0
LINE
  8
0
 10
56.500000
 20
-182.000000
 11
60.000000
 21
-182.000000
  0
LINE
  8
0
 10
56.500000
 20
-206.000000
 11
60.000000
 21
-206.000000
  0
LINE
  8
0
 10
56.500000
 20
-54.000000
 11
60.000000
 21
-54.000000
  0
LINE
  8
0
 10
56.500000
 20
-78.000000
 11
60.000000
 21
-78.000000
  0
LINE
  8
0
 10
258.000000
 20
-54.000000
 11
261.500000
 21
-54.000000
  0
LINE
  8
0
 10
258.000000
 20
-78.000000
 11
261.500000
 21
-78.000000
  0
LINE
  8
0
 10
55.800011
 20
-175.000000
 11
60.000000
 21
-175.000000
  0
LINE
  8
0
 10
55.799957
 20
-85.000000
 11
60.000000
 21
-85.000000
  0
LINE
  8
0
 10
60.000000
 20
-210.000000
 11
95.000000
 21
-210.000000
  0
LINE
  8
0
  6
DASHED
 62
     2
 10
65.500076
 20
-49.999947
 11
67.000061
 21
-51.499958
  0
LINE
  8
0
  6
DASHED
 62
     2
 10
67.000000
 20
-51.500000
 11
85.000000
 21
-51.500000
  0
LINE
  8
0
  6
DASHED
 62
     2
 10
84.999992
 20
-51.500004
 11
86.499977
 21
-50.000011
  0
LINE
  8
0
  6
DASHED
 62
     2
 10
86.500000
 20
-50.000000
 11
86.100304
 21
-61.446423
  0
LINE
  8
0
  6
DASHED
 62
     2
 10
85.000000
 20
-51.500000
 11
85.000000
 21
-61.350006
  0
LINE
  8
0
  6
DASHED
 62
     2
 10
67.000000
 20
-60.150009
 11
67.000000
 21
-51.500000
  0
LINE
  8
0
  6
DASHED
 62
     2
 10
65.499992
 20
-49.999973
 11
65.875168
 21
-60.743835
  0
LINE
  8
0
  6
DASHED
 62
     2
 10
231.500015
 20
-50.000031
 11
232.999985
 21
-51.500027
  0
LINE
  8
0
  6
DASHED
 62
     2
 10
233.000000
 20
-51.500183
 11
251.000183
 21
-51.500183
  0
LINE
  8
0
  6
DASHED
 62
     2
 10
251.000244
 20
-51.500000
 11
252.500244
 21
-50.000015
  0
LINE
  8
0
  6
DASHED
 62
     2
 10
252.500671
 20
-50.000008
 11
252.100861
 21
-61.446503
  0
LINE
  8
0
  6
DASHED
 62
     2
 10
250.999954
 20
-61.349995
 11
251.000137
 21
-51.499958
  0
LINE
  8
0
  6
DASHED
 62
     2
 10
233.000000
 20
-51.499969
 11
233.000000
 21
-60.150009
  0
LINE
  8
0
  6
DASHED
 62
     2
 10
231.875320
 20
-60.743835
 11
231.499924
 21
-49.999981
  0
LINE
  8
0
 10
223.000000
 20
-210.000000
 11
258.000000
 21
-210.000000
  0
LINE
  8
0
 10
95.000000
 20
-55.000000
 11
102.000000
 21
-55.000000
  0
LINE
  8
0
 10
95.000000
 20
-205.000000
 11
188.000000
 21
-205.000000
  0
LINE
  8
0
 62
     2
 10
285.000000
 20
-60.399994
 11
272.500000
 21
-60.399994
  0
LINE
  8
0
 62
     2
 10
285.000000
 20
-71.599998
 11
272.500000
 21
-71.599998
  0
LINE
  8
0
 62
     2
 10
285.000000
 20
-188.399994
 11
272.500000
 21
-188.399994
  0
LINE
  8
0
 62
     2
 10
285.000000
 20
-199.600006
 11
272.500000
 21
-199.600006
  0
LINE
  8
0
 62
     2
 10
33.000000
 20
-188.399994
 11
45.500000
 21
-188.399994
  0
LINE
  8
0
 62
     2
 10
33.000000
 20
-199.600006
 11
45.500000
 21
-199.600006
  0
LINE
  8
0
 62
     2
 10
33.000000
 20
-60.399994
 11
45.500000
 21
-60.399994
  0
LINE
  8
0
 62
     2
 10
33.000000
 20
-71.599998
 11
45.500000
 21
-71.599998
  0
LINE
  8
0
 62
     2
 10
-50.000000
 20
-144.250000
 11
0.000000
 21
-144.250000
  0
LINE
  8
0
 62
     2
 10
0.000010
 20
-144.249969
 11
1.607152
 21
-144.999969
  0
LINE
  8
0
 10
-50.000084
 20
-144.250092
 11
-49.250084
 21
-145.000092
  0
LINE
  8
0
 10
-49.250000
 20
-115.000000
 11
-49.250000
 21
-145.000000
  0
LINE
  8
0
 10
-49.999992
 20
-115.749977
 11
-49.250004
 21
-114.999992
  0
LINE
  8
0
 62
     2
 10
-50.000000
 20
-115.750000
 11
0.000000
 21
-115.750000
  0
LINE
  8
0
 10
-49.250000
 20
-115.000000
 11
3.000000
 21
-115.000000
  0
LINE
  8
0
 62
     2
 10
0.000002
 20
-115.750015
 11
1.607144
 21
-115.000015
  0
LINE
  8
0
 62
     4
 10
102.000000
 20
-48.099998
 11
102.000000
 21
-92.759689
  0
LINE
  8
0
 62
     4
 10
130.000000
 20
-48.099998
 11
130.000000
 21
-90.475800
  0
LINE
  8
0
 62
     4
 10
216.000000
 20
-167.240295
 11
216.000000
 21
-211.900024
  0
LINE
  8
0
 62
     4
 10
188.000000
 20
-167.240295
 11
188.000000
 21
-211.900024
  0
LINE
  8
0
 62
     4
 10
188.000000
 20
-167.240295
 11
199.229797
 21
-167.240295
  0
LINE
  8
0
 62
     4
 10
122.134003
 20
-53.041084
 11
123.865997
 21
-53.041084
  0
LINE
  8
0
 62
     4
 10
122.134003
 20
-55.736214
 11
123.865997
 21
-55.736214
  0
LINE
  8
0
 62
     4
 10
122.133987
 20
-53.041092
 11
121.267929
 21
-54.388695
  0
LINE
  8
0
 62
     4
 10
121.267960
 20
-54.388668
 11
122.134010
 21
-55.736198
  0
LINE
  8
0
 62
     4
 10
123.865990
 20
-55.736229
 11
124.732033
 21
-54.388695
  0
LINE
  8
0
 62
     4
 10
124.732056
 20
-54.388672
 11
123.866005
 21
-53.041073
  0
LINE
  8
0
 62
     4
 10
108.134003
 20
-53.041084
 11
109.865997
 21
-53.041084
  0
LINE
  8
0
 62
     4
 10
108.134003
 20
-55.736214
 11
109.865997
 21
-55.736214
  0
LINE
  8
0
 62
     4
 10
108.133972
 20
-53.041088
 11
107.267914
 21
-54.388691
  0
LINE
  8
0
 62
     4
 10
107.267975
 20
-54.388668
 11
108.134026
 21
-55.736198
  0
LINE
  8
0
 62
     4
 10
109.866020
 20
-55.736183
 11
110.732071
 21
-54.388653
  0
LINE
  8
0
 62
     4
 10
110.732056
 20
-54.388683
 11
109.866005
 21
-53.041084
  0
LINE
  8
0
 62
     4
 10
198.000000
 20
-168.508026
 11
198.000000
 21
-170.617661
  0
LINE
  8
0
 62
     4
 10
206.000000
 20
-168.508026
 11
206.000000
 21
-170.617661
  0
LINE
  8
0
 62
     4
 10
204.768341
 20
-167.240295
 11
216.000000
 21
-167.240295
  0
LINE
  8
0
 62
     4
 10
200.238037
 20
-168.480026
 11
203.761917
 21
-167.535797
  0
LINE
  8
0
 62
     4
 10
200.238083
 20
-167.535889
 11
203.761963
 21
-168.480103
  0
LINE
  8
0
 62
     4
 10
217.500000
 20
-168.168640
 11
217.500000
 21
-172.181442
  0
LINE
  8
0
 62
     4
 10
192.500000
 20
-167.499832
 11
192.500000
 21
-169.256668
  0
LINE
  8
0
 62
     4
 10
188.000000
 20
-167.679504
 11
192.500000
 21
-167.679504
  0
LINE
  8
0
 62
     4
 10
216.000000
 20
-167.499863
 11
217.499985
 21
-168.168671
  0
LINE
  8
0
 62
     4
 10
216.000000
 20
-169.256607
 11
217.499985
 21
-169.486191
  0
LINE
  8
0
 62
     4
 10
216.000092
 20
-172.850311
 11
217.500092
 21
-172.181549
  0
LINE
  8
0
 62
     4
 10
205.276154
 20
-167.499847
 11
216.000000
 21
-167.499847
  0
LINE
  8
0
 62
     4
 10
206.000000
 20
-169.256668
 11
216.000000
 21
-169.256668
  0
LINE
  8
0
 62
     4
 10
198.723083
 20
-167.500229
 11
192.500000
 21
-167.500229
  0
LINE
  8
0
 62
     4
 10
198.000000
 20
-169.256668
 11
188.000000
 21
-169.256668
  0
LINE
  8
0
 62
     4
 10
163.000000
 20
-168.675018
 11
188.000000
 21
-168.675018
  0
LINE
  8
0
 62
     4
 10
164.732056
 20
-171.675018
 11
188.000000
 21
-171.675018
  0
LINE
  8
0
 62
     4
 10
163.000076
 20
-168.675034
 11
164.732132
 21
-171.675034
  0
LINE
  8
0
 62
     4
 10
209.865967
 20
-206.958450
 11
210.732010
 21
-205.610931
  0
LINE
  8
0
 62
     4
 10
210.732040
 20
-205.610962
 11
209.865967
 21
-204.263336
  0
LINE
  8
0
 62
     4
 10
194.134003
 20
-204.263336
 11
195.865997
 21
-204.263336
  0
LINE
  8
0
 62
     4
 10
194.134003
 20
-206.958466
 11
195.865997
 21
-206.958466
  0
LINE
  8
0
 62
     4
 10
208.134003
 20
-206.958466
 11
209.865997
 21
-206.958466
  0
LINE
  8
0
 62
     4
 10
208.134003
 20
-204.263336
 11
209.865997
 21
-204.263336
  0
LINE
  8
0
 62
     4
 10
207.267975
 20
-205.610962
 11
208.134003
 21
-206.958466
  0
LINE
  8
0
 62
     4
 10
208.133972
 20
-204.263321
 11
207.267914
 21
-205.610916
  0
LINE
  8
0
 62
     4
 10
194.133972
 20
-204.263321
 11
193.267914
 21
-205.610916
  0
LINE
  8
0
 62
     4
 10
193.267944
 20
-205.610931
 11
194.134003
 21
-206.958466
  0
LINE
  8
0
 62
     4
 10
195.865997
 20
-206.958466
 11
196.732040
 21
-205.610931
  0
LINE
  8
0
 62
     4
 10
196.732056
 20
-205.610916
 11
195.865997
 21
-204.263321
  0
LINE
  8
0
 62
     4
 10
102.000000
 20
-92.759689
 11
113.231506
 21
-92.759689
  0
LINE
  8
0
 62
     4
 10
118.770386
 20
-92.759689
 11
130.000000
 21
-92.759689
  0
LINE
  8
0
 62
     4
 10
112.000000
 20
-89.382416
 11
112.000000
 21
-91.491974
  0
LINE
  8
0
 62
     4
 10
120.000000
 20
-89.382416
 11
120.000000
 21
-91.491974
  0
LINE
  8
0
 62
     4
 10
114.238022
 20
-92.464020
 11
117.761902
 21
-91.519798
  0
LINE
  8
0
 62
     4
 10
114.238083
 20
-91.519844
 11
117.761963
 21
-92.464066
  0
LINE
  8
0
 62
     4
 10
102.000000
 20
-92.500153
 11
112.723755
 21
-92.500153
  0
LINE
  8
0
 62
     4
 10
102.000000
 20
-90.743317
 11
112.000000
 21
-90.743317
  0
LINE
  8
0
 62
     4
 10
102.000000
 20
-90.475800
 11
112.000000
 21
-90.475800
  0
LINE
  8
0
 62
     4
 10
120.000000
 20
-90.475800
 11
130.000000
 21
-90.475800
  0
LINE
  8
0
 62
     4
 10
120.000000
 20
-90.743317
 11
125.500000
 21
-90.743317
  0
LINE
  8
0
 62
     4
 10
119.277008
 20
-92.500153
 11
130.000000
 21
-92.500153
  0
LINE
  8
0
 62
     4
 10
100.500000
 20
-87.818558
 11
100.500000
 21
-91.831345
  0
LINE
  8
0
 62
     4
 10
102.000008
 20
-87.149811
 11
100.500008
 21
-87.818588
  0
LINE
  8
0
 62
     4
 10
102.000008
 20
-90.743309
 11
100.499992
 21
-90.513725
  0
LINE
  8
0
 62
     4
 10
102.000008
 20
-92.500160
 11
100.500000
 21
-91.831352
  0
LINE
  8
0
 62
     4
 10
102.000000
 20
-90.475800
 11
112.000000
 21
-90.475800
  0
LINE
  8
0
 62
     4
 10
120.000000
 20
-90.475800
 11
130.000000
 21
-90.475800
  0
LINE
  8
0
 62
     4
 10
125.500000
 20
-90.475800
 11
125.500000
 21
-92.500153
  0
LINE
  8
0
 62
     4
 10
130.000000
 20
-88.324951
 11
153.267944
 21
-88.324951
  0
LINE
  8
0
 62
     4
 10
125.500000
 20
-91.324951
 11
155.000000
 21
-91.324951
  0
LINE
  8
0
 62
     4
 10
155.000107
 20
-91.324921
 11
153.268051
 21
-88.324913
  0
LINE
  8
0
 62
     4
 10
130.000000
 20
-91.324951
 11
130.000000
 21
-92.759689
  0
LINE
  8
0
 62
     4
 10
102.000000
 20
-48.099998
 11
130.000000
 21
-48.099998
  0
LINE
  8
0
 62
     4
 10
102.000000
 20
-70.559608
 11
130.000000
 21
-70.559608
  0
LINE
  8
0
 62
     4
 10
102.000000
 20
-86.610764
 11
130.000000
 21
-86.610764
  0
LINE
  8
0
 62
     4
 10
188.000000
 20
-211.900024
 11
216.000000
 21
-211.900024
  0
LINE
  8
0
 62
     4
 10
188.000000
 20
-189.440369
 11
216.000000
 21
-189.440369
  0
LINE
  8
0
 62
     4
 10
188.000000
 20
-173.389267
 11
216.000000
 21
-173.389267
  0
LINE
  8
0
 10
216.000000
 20
-187.000000
 11
223.000000
 21
-187.000000
  0
LINE
  8
0
 10
216.000000
 20
-201.000000
 11
223.000000
 21
-201.000000
  0
LINE
  8
0
 10
216.000000
 20
-205.000000
 11
223.000000
 21
-205.000000
  0
LINE
  8
0
 10
130.000000
 20
-55.000000
 11
223.000000
 21
-55.000000
  0
LINE
  8
0
 10
130.000000
 20
-59.000000
 11
223.000000
 21
-59.000000
  0
LINE
  8
0
 10
130.000000
 20
-73.000000
 11
223.000000
 21
-73.000000
  0
LINE
  8
0
 10
-214.000000
 20
-121.753784
 11
-214.000000
 21
-138.246216
  0
LINE
  8
0
 10
-246.000000
 20
-121.753784
 11
-246.000000
 21
-138.246216
  0
LINE
  8
0
  6
CENTER
 62
     2
 10
-316.455475
 20
-130.000000
 11
-146.310089
 21
-130.000000
  0
LINE
  8
0
  6
CENTER
 62
     2
 10
-230.000000
 20
-46.157272
 11
-230.000000
 21
-215.480713
  0
LINE
  8
0
  6
CENTER
 62
     2
 10
-166.000000
 20
-51.500000
 11
-166.000000
 21
-80.500000
  0
LINE
  8
0
  6
CENTER
 62
     2
 10
-294.000000
 20
-51.000000
 11
-294.000000
 21
-79.500000
  0
LINE
  8
0
  6
CENTER
 62
     2
 10
-307.250000
 20
-66.000000
 11
-280.250000
 21
-66.000000
  0
LINE
  8
0
  6
CENTER
 62
     2
 10
-307.500000
 20
-194.000000
 11
-280.500000
 21
-194.000000
  0
LINE
  8
0
 10
-283.000000
 20
-187.649155
 11
-283.000000
 21
-200.350861
  0
LINE
  8
0
 10
-305.000000
 20
-187.649155
 11
-305.000000
 21
-200.350861
  0
LINE
  8
0
 10
-304.999817
 20
-187.649277
 11
-293.999817
 21
-181.298447
  0
LINE
  8
0
 10
-293.999756
 20
-206.701965
 11
-282.999756
 21
-200.351105
  0
LINE
  8
0
 10
-293.999756
 20
-181.298019
 11
-282.999847
 21
-187.648834
  0
LINE
  8
0
 10
-304.999939
 20
-200.350815
 11
-293.999969
 21
-206.701630
  0
LINE
  8
0
  6
CENTER
 62
     2
 10
-294.000000
 20
-179.000000
 11
-294.000000
 21
-208.750000
  0
LINE
  8
0
  6
CENTER
 62
     2
 10
-178.250000
 20
-194.000000
 11
-152.000000
 21
-194.000000
  0
LINE
  8
0
  6
CENTER
 62
     2
 10
-166.000000
 20
-178.250000
 11
-166.000000
 21
-207.500000
  0
LINE
  8
0
  6
CENTER
 62
     2
 10
-179.250000
 20
-66.000000
 11
-153.000000
 21
-66.000000
  0
LINE
  8
0
 10
-257.413147
 20
-153.170547
 11
-254.067078
 21
-154.067123
  0
LINE
  8
0
 10
-258.966095
 20
-158.966110
 11
-255.620010
 21
-159.862701
  0
LINE
  8
0
 10
-259.862427
 20
-155.619858
 11
-258.965851
 21
-158.965927
  0
LINE
  8
0
 10
-254.066879
 20
-154.067017
 11
-253.170319
 21
-157.413040
  0
LINE
  8
0
 10
-255.619843
 20
-159.862549
 11
-253.170395
 21
-157.413101
  0
LINE
  8
0
 10
-259.862518
 20
-155.619949
 11
-257.413025
 21
-153.170456
  0
LINE
  8
0
 10
-255.619843
 20
-100.137375
 11
-253.170349
 21
-102.586868
  0
LINE
  8
0
 10
-253.170517
 20
-102.586945
 11
-254.067108
 21
-105.933022
  0
LINE
  8
0
 10
-258.966156
 20
-101.033958
 11
-259.862732
 21
-104.380005
  0
LINE
  8
0
 10
-255.619888
 20
-100.137390
 11
-258.965973
 21
-101.033966
  0
LINE
  8
0
 10
-254.067017
 20
-105.932968
 11
-257.413025
 21
-106.829529
  0
LINE
  8
0
 10
-259.862488
 20
-104.380066
 11
-257.413025
 21
-106.829521
  0
LINE
  8
0
 10
-202.586838
 20
-153.170364
 11
-200.137329
 21
-155.619873
  0
LINE
  8
0
 10
-200.137436
 20
-155.619919
 11
-201.034027
 21
-158.966019
  0
LINE
  8
0
 10
-205.933121
 20
-154.066986
 11
-206.829697
 21
-157.413055
  0
LINE
  8
0
 10
-202.586868
 20
-153.170441
 11
-205.932938
 21
-154.067017
  0
LINE
  8
0
 10
-201.034042
 20
-158.965988
 11
-204.380051
 21
-159.862549
  0
LINE
  8
0
 10
-206.829498
 20
-157.413025
 11
-204.380035
 21
-159.862488
  0
LINE
  8
0
 10
-206.829498
 20
-102.586906
 11
-204.379990
 21
-100.137413
  0
LINE
  8
0
 10
-204.380127
 20
-100.137482
 11
-201.034042
 21
-101.034058
  0
LINE
  8
0
 10
-205.933029
 20
-105.933052
 11
-202.586960
 21
-106.829636
  0
LINE
  8
0
 10
-206.829544
 20
-102.586914
 11
-205.932968
 21
-105.932991
  0
LINE
  8
0
 10
-201.033920
 20
-101.033989
 11
-200.137360
 21
-104.380005
  0
LINE
  8
0
 10
-202.586853
 20
-106.829590
 11
-200.137390
 21
-104.380112
  0
LINE
  8
0
 10
-155.000000
 20
-187.649155
 11
-155.000000
 21
-200.350861
  0
LINE
  8
0
 10
-177.000000
 20
-187.649155
 11
-177.000000
 21
-200.350861
  0
LINE
  8
0
 10
-176.999939
 20
-187.649185
 11
-165.999908
 21
-181.298355
  0
LINE
  8
0
 10
-165.999939
 20
-206.701706
 11
-154.999893
 21
-200.350830
  0
LINE
  8
0
 10
-165.999847
 20
-181.298080
 11
-154.999908
 21
-187.648911
  0
LINE
  8
0
 10
-176.999939
 20
-200.350784
 11
-165.999939
 21
-206.701614
  0
LINE
  8
0
 10
-155.000000
 20
-59.649155
 11
-155.000000
 21
-72.350861
  0
LINE
  8
0
 10
-177.000000
 20
-59.649155
 11
-177.000000
 21
-72.350861
  0
LINE
  8
0
 10
-176.999786
 20
-59.649323
 11
-165.999786
 21
-53.298500
  0
LINE
  8
0
 10
-165.999817
 20
-78.701996
 11
-154.999802
 21
-72.351135
  0
LINE
  8
0
 10
-165.999908
 20
-53.298229
 11
-154.999985
 21
-59.649055
  0
LINE
  8
0
 10
-176.999954
 20
-72.350876
 11
-165.999985
 21
-78.701698
  0
LINE
  8
0
 10
-283.000000
 20
-59.649155
 11
-283.000000
 21
-72.350861
  0
LINE
  8
0
 10
-305.000000
 20
-59.649155
 11
-305.000000
 21
-72.350861
  0
LINE
  8
0
 10
-304.999725
 20
-59.649517
 11
-293.999725
 21
-53.298676
  0
LINE
  8
0
 10
-293.999634
 20
-78.702209
 11
-282.999603
 21
-72.351341
  0
LINE
  8
0
 10
-293.999817
 20
-53.298183
 11
-282.999908
 21
-59.649014
  0
LINE
  8
0
 10
-304.999969
 20
-72.350853
 11
-293.999969
 21
-78.701691
  0
LINE
  8
0
 10
-310.000000
 20
-50.000000
 11
-310.000000
 21
-210.000000
  0
LINE
  8
0
 10
-150.000000
 20
-50.000000
 11
-150.000000
 21
-210.000000
  0
LINE
  8
0
 10
-310.000000
 20
-210.000000
 11
-150.000000
 21
-210.000000
  0
LINE
  8
0
 10
-310.000000
 20
-50.000000
 11
-150.000000
 21
-50.000000
  0
LINE
  8
0
  6
DASHED
 62
     1
 10
-177.315323
 20
-57.543041
 11
-168.970337
 21
-74.612350
  0
LINE
  8
0
  6
DASHED
 62
     1
 10
-155.494522
 20
-68.024170
 11
-168.970291
 21
-74.612320
  0
LINE
  8
0
  6
DASHED
 62
     1
 10
-181.358063
 20
-59.519478
 11
-165.107285
 21
-92.759705
  0
LINE
  8
0
  6
DASHED
 62
     1
 10
-152.529831
 20
-86.610741
 11
-160.435608
 21
-90.475792
  0
LINE
  8
0
  6
DASHED
 62
     1
 10
-163.839569
 20
-50.954884
 11
-155.494568
 21
-68.024193
  0
LINE
  8
0
  6
DASHED
 62
     1
 10
-177.315262
 20
-57.542995
 11
-181.358002
 21
-59.519440
  0
LINE
  8
0
  6
DASHED
 62
     1
 10
-165.877899
 20
-88.906639
 11
-164.121048
 21
-92.500183
  0
LINE
  8
0
  6
DASHED
 62
     1
 10
-162.104691
 20
-87.061958
 11
-165.877899
 21
-88.906639
  0
LINE
  8
0
  6
DASHED
 62
     1
 10
-164.208832
 20
-92.320473
 11
-165.107208
 21
-92.759689
  0
LINE
  8
0
  6
DASHED
 62
     1
 10
-158.479004
 20
-88.103035
 11
-155.772049
 21
-93.639977
  0
LINE
  8
0
  6
DASHED
 62
     1
 10
-181.358063
 20
-59.519478
 11
-165.107285
 21
-92.759705
  0
LINE
  8
0
  6
DASHED
 62
     1
 10
-154.148911
 20
-87.624916
 11
-164.120987
 21
-92.500153
  0
LINE
  8
0
  6
DASHED
 62
     1
 10
-162.104645
 20
-87.061951
 11
-160.435638
 21
-90.475807
  0
LINE
  8
0
  6
CENTER
 62
     1
 10
-154.406479
 20
-54.134930
 11
-167.709900
 21
-60.638824
  0
LINE
  8
0
  6
DASHED
 62
     1
 10
-165.250870
 20
-59.436676
 11
-161.238083
 21
-60.814198
  0
LINE
  8
0
  6
DASHED
 62
     1
 10
-163.873352
 20
-55.423840
 11
-165.250870
 21
-59.436611
  0
LINE
  8
0
  6
DASHED
 62
     1
 10
-161.819138
 20
-55.087429
 11
-164.148788
 21
-56.226345
  0
LINE
  8
0
  6
DASHED
 62
     1
 10
-159.710937
 20
-59.399670
 11
-162.040588
 21
-60.538593
  0
LINE
  8
0
  6
DASHED
 62
     1
 10
-162.082718
 20
-54.548409
 11
-163.873322
 21
-55.423798
  0
LINE
  8
0
  6
DASHED
 62
     1
 10
-159.447372
 20
-59.938702
 11
-161.237991
 21
-60.814091
  0
LINE
  8
0
  6
DASHED
 62
     1
 10
-165.209106
 20
-89.136230
 11
-163.891479
 21
-91.831383
  0
LINE
  8
0
  6
DASHED
 62
     1
 10
-162.513947
 20
-87.818596
 11
-161.196320
 21
-90.513748
  0
LINE
  8
0
  6
DASHED
 62
     1
 10
-161.196228
 20
-90.513718
 11
-163.891388
 21
-91.831352
  0
LINE
  8
0
  6
DASHED
 62
     1
 10
-162.513947
 20
-87.818588
 11
-165.209106
 21
-89.136223
  0
LINE
  8
0
  6
DASHED
 62
     1
 10
-165.209045
 20
-89.136223
 11
-165.877853
 21
-88.906631
  0
LINE
  8
0
  6
DASHED
 62
     1
 10
-163.891418
 20
-91.831329
 11
-164.121002
 21
-92.500130
  0
LINE
  8
0
  6
DASHED
 62
     1
 10
-162.284302
 20
-87.149734
 11
-162.513885
 21
-87.818542
  0
LINE
  8
0
  6
DASHED
 62
     1
 10
-161.226257
 20
-88.858719
 11
-167.217117
 21
-91.787582
  0
LINE
  8
0
  6
DASHED
 62
     1
 10
-153.227432
 20
-89.734566
 11
-160.416794
 21
-93.249359
  0
LINE
  8
0
  6
DASHED
 62
     1
 10
-161.196274
 20
-90.513741
 11
-160.527481
 21
-90.743324
  0
LINE
  8
0
  6
DASHED
 62
     1
 10
-162.284332
 20
-87.149788
 11
-160.527496
 21
-90.743324
  0
LINE
  8
0
  6
DASHED
 62
     1
 10
-161.515747
 20
-91.226479
 11
-161.252213
 21
-91.765511
  0
LINE
  8
0
  6
DASHED
 62
     1
 10
-154.148987
 20
-87.624931
 11
-153.885468
 21
-88.163963
  0
LINE
  8
0
  6
DASHED
 62
     1
 10
-153.885437
 20
-88.163971
 11
-161.252197
 21
-91.765503
  0
LINE
  8
0
  6
DASHED
 62
     1
 10
-161.297180
 20
-91.787483
 11
-160.416901
 21
-93.249413
  0
LINE
  8
0
  6
DASHED
 62
     1
 10
-153.840591
 20
-88.142014
 11
-153.227554
 21
-89.734589
  0
LINE
  8
0
  6
DASHED
 62
     1
 10
-161.886368
 20
-49.999981
 11
-163.839493
 21
-50.954842
  0
LINE
  8
0
  6
DASHED
 62
     1
 10
-157.071136
 20
-50.000004
 11
-150.000015
 21
-64.463638
  0
LINE
  8
0
  6
DASHED
 62
     1
 10
-150.000198
 20
-79.241325
 11
-152.529984
 21
-86.610718
  0
LINE
  8
0
  6
DASHED
 62
     1
 10
-161.297089
 20
-168.212570
 11
-160.416840
 21
-166.750641
  0
LINE
  8
0
  6
DASHED
 62
     1
 10
-153.885483
 20
-171.836166
 11
-161.252243
 21
-168.234634
  0
LINE
  8
0
  6
DASHED
 62
     1
 10
-153.840485
 20
-171.858032
 11
-153.227432
 21
-170.265442
  0
LINE
  8
0
  6
DASHED
 62
     1
 10
-154.148941
 20
-172.375061
 11
-153.885437
 21
-171.836060
  0
LINE
  8
0
  6
DASHED
 62
     1
 10
-161.886368
 20
-209.999939
 11
-163.839493
 21
-209.045074
  0
LINE
  8
0
  6
DASHED
 62
     1
 10
-157.071136
 20
-210.000015
 11
-150.000046
 21
-195.536392
  0
LINE
  8
0
  6
DASHED
 62
     1
 10
-150.000076
 20
-180.758621
 11
-152.529861
 21
-173.389221
  0
LINE
  8
0
  6
DASHED
 62
     1
 10
-177.315323
 20
-202.457001
 11
-168.970337
 21
-185.387695
  0
LINE
  8
0
  6
DASHED
 62
     1
 10
-155.494568
 20
-191.975830
 11
-168.970322
 21
-185.387665
  0
LINE
  8
0
  6
DASHED
 62
     1
 10
-181.357986
 20
-200.480515
 11
-165.107208
 21
-167.240295
  0
LINE
  8
0
  6
DASHED
 62
     1
 10
-152.529892
 20
-173.389297
 11
-160.435684
 21
-169.524246
  0
LINE
  8
0
  6
DASHED
 62
     1
 10
-163.839523
 20
-209.045135
 11
-155.494522
 21
-191.975830
  0
LINE
  8
0
  6
DASHED
 62
     1
 10
-177.315292
 20
-202.457001
 11
-181.358017
 21
-200.480545
  0
LINE
  8
0
  6
DASHED
 62
     1
 10
-165.877838
 20
-171.093353
 11
-164.121002
 21
-167.499847
  0
LINE
  8
0
  6
DASHED
 62
     1
 10
-162.104645
 20
-172.938065
 11
-165.877853
 21
-171.093384
  0
LINE
  8
0
  6
DASHED
 62
     1
 10
-164.208847
 20
-167.679489
 11
-165.107224
 21
-167.240280
  0
LINE
  8
0
  6
DASHED
 62
     1
 10
-158.478973
 20
-171.897018
 11
-155.772003
 21
-166.360046
  0
LINE
  8
0
  6
DASHED
 62
     1
 10
-181.357986
 20
-200.480515
 11
-165.107208
 21
-167.240295
  0
LINE
  8
0
  6
DASHED
 62
     1
 10
-154.148987
 20
-172.375183
 11
-164.121063
 21
-167.499954
  0
LINE
  8
0
  6
DASHED
 62
     1
 10
-162.104599
 20
-172.938080
 11
-160.435608
 21
-169.524216
  0
LINE
  8
0
  6
CENTER
 62
     1
 10
-154.406616
 20
-205.865219
 11
-167.710037
 21
-199.361328
  0
LINE
  8
0
  6
DASHED
 62
     1
 10
-165.250809
 20
-200.563385
 11
-161.238037
 21
-199.185852
  0
LINE
  8
0
  6
DASHED
 62
     1
 10
-163.873260
 20
-204.576157
 11
-165.250778
 21
-200.563431
  0
LINE
  8
0
  6
DASHED
 62
     1
 10
-161.819199
 20
-204.912613
 11
-164.148834
 21
-203.773712
  0
LINE
  8
0
  6
DASHED
 62
     1
 10
-159.710983
 20
-200.600418
 11
-162.040634
 21
-199.461502
  0
LINE
  8
0
  6
DASHED
 62
     1
 10
-162.082672
 20
-205.451599
 11
-163.873291
 21
-204.576202
  0
LINE
  8
0
  6
DASHED
 62
     1
 10
-159.447357
 20
-200.061188
 11
-161.237976
 21
-199.185806
  0
LINE
  8
0
  6
DASHED
 62
     1
 10
-165.209091
 20
-170.863831
 11
-163.891434
 21
-168.168625
  0
LINE
  8
0
  6
DASHED
 62
     1
 10
-162.513931
 20
-172.181427
 11
-161.196304
 21
-169.486267
  0
LINE
  8
0
  6
DASHED
 62
     1
 10
-161.196304
 20
-169.486404
 11
-163.891449
 21
-168.168777
  0
LINE
  8
0
  6
DASHED
 62
     1
 10
-162.513962
 20
-172.181549
 11
-165.209122
 21
-170.863922
  0
LINE
  8
0
  6
DASHED
 62
     1
 10
-165.209030
 20
-170.863815
 11
-165.877838
 21
-171.093414
  0
LINE
  8
0
  6
DASHED
 62
     1
 10
-163.891479
 20
-168.168686
 11
-164.121063
 21
-167.499908
  0
LINE
  8
0
  6
DASHED
 62
     1
 10
-162.284378
 20
-172.850296
 11
-162.513977
 21
-172.181473
  0
LINE
  8
0
  6
DASHED
 62
     1
 10
-161.226212
 20
-171.141312
 11
-167.217087
 21
-168.212433
  0
LINE
  8
0
  6
DASHED
 62
     1
 10
-153.227356
 20
-170.265305
 11
-160.416702
 21
-166.750504
  0
LINE
  8
0
  6
DASHED
 62
     1
 10
-161.196259
 20
-169.486282
 11
-160.527481
 21
-169.256699
  0
LINE
  8
0
  6
DASHED
 62
     1
 10
-162.284317
 20
-172.850204
 11
-160.527496
 21
-169.256699
  0
LINE
  8
0
  6
DASHED
 62
     1
 10
-161.515671
 20
-168.773529
 11
-161.252136
 21
-168.234497
  0
LINE
  8
0
 62
     4
 10
-158.000000
 20
-48.099976
 11
-161.886368
 21
-49.999981
  0
LINE
  8
0
 62
     4
 10
-147.019897
 20
-70.559563
 11
-150.000198
 21
-79.241325
  0
LINE
  8
0
 62
     4
 10
-158.000015
 20
-48.100002
 11
-157.071136
 21
-50.000004
  0
LINE
  8
0
 62
     4
 10
-150.000015
 20
-64.463638
 11
-147.019775
 21
-70.559616
  0
LINE
  8
0
 62
     4
 10
-150.000000
 20
-195.536362
 11
-147.019730
 21
-189.440353
  0
LINE
  8
0
 62
     4
 10
-158.000046
 20
-211.899963
 11
-161.886414
 21
-209.999969
  0
LINE
  8
0
 62
     4
 10
-147.019775
 20
-189.440384
 11
-150.000076
 21
-180.758606
  0
LINE
  8
0
 62
     4
 10
-158.000046
 20
-211.900009
 11
-157.071152
 21
-210.000031
  0
LINE
  8
0
 10
-50.000000
 20
124.250000
 11
-50.000000
 21
95.750000
  0
LINE
  8
0
  6
CENTER
 62
     2
 10
-54.500000
 20
110.000000
 11
261.400024
 21
110.000000
  0
LINE
  8
0
 10
-49.250000
 20
95.000000
 11
3.000000
 21
95.000000
  0
LINE
  8
0
 10
0.000000
 20
125.000000
 11
0.000000
 21
95.000000
  0
LINE
  8
0
 10
3.000000
 20
125.000000
 11
3.000000
 21
95.000000
  0
LINE
  8
0
 10
2.999988
 20
94.999985
 11
4.732052
 21
93.999977
  0
LINE
  8
0
 10
3.000018
 20
124.999969
 11
4.732081
 21
125.999985
  0
LINE
  8
0
 10
16.154697
 20
128.000000
 11
22.000000
 21
128.000000
  0
LINE
  8
0
 10
8.196152
 20
126.000000
 11
8.196152
 21
94.000000
  0
LINE
  8
0
 10
22.000000
 20
138.000000
 11
22.000000
 21
82.000000
  0
LINE
  8
0
 10
23.000000
 20
139.000000
 11
23.000000
 21
81.000000
  0
LINE
  8
0
 10
22.000002
 20
138.000000
 11
23.000002
 21
138.999985
  0
LINE
  8
0
 10
22.000010
 20
81.999992
 11
23.000013
 21
80.999992
  0
LINE
  8
0
 10
60.000000
 20
190.000000
 11
60.000000
 21
30.000000
  0
LINE
  8
0
 10
54.799988
 20
154.000000
 11
54.799988
 21
66.000000
  0
LINE
  8
0
 10
55.799988
 20
155.000000
 11
55.799988
 21
65.000000
  0
LINE
  8
0
 10
54.800079
 20
153.999969
 11
55.800007
 21
154.999924
  0
LINE
  8
0
 10
46.799988
 20
142.216492
 11
46.799988
 21
130.816498
  0
LINE
  8
0
 10
46.799988
 20
89.183502
 11
46.799988
 21
77.783493
  0
LINE
  8
0
 10
23.000000
 20
138.999939
 11
46.799984
 21
139.951935
  0
LINE
  8
0
 10
23.000000
 20
81.000000
 11
46.799988
 21
80.047997
  0
LINE
  8
0
 10
48.000000
 20
146.500000
 11
48.000000
 21
143.016510
  0
LINE
  8
0
 10
95.000000
 20
190.000000
 11
95.000000
 21
30.000000
  0
LINE
  8
0
 10
60.000000
 20
190.000000
 11
95.000000
 21
190.000000
  0
LINE
  8
0
  6
CENTER
 62
     2
 10
27.123146
 20
174.000000
 11
288.200012
 21
174.000000
  0
LINE
  8
0
 10
285.000000
 20
39.999634
 11
285.000000
 21
51.999634
  0
LINE
  8
0
 10
284.000000
 20
38.999634
 11
284.000000
 21
52.999634
  0
LINE
  8
0
 10
284.000000
 20
39.000000
 11
272.500000
 21
39.000000
  0
LINE
  8
0
 10
284.000000
 20
53.000000
 11
272.500000
 21
53.000000
  0
LINE
  8
0
 10
284.999817
 20
39.999722
 11
283.999817
 21
38.999722
  0
LINE
  8
0
 10
284.999573
 20
51.999237
 11
283.999573
 21
52.999241
  0
LINE
  8
0
  6
CENTER
 62
     2
 10
27.500000
 20
46.000000
 11
289.799988
 21
46.000000
  0
LINE
  8
0
 10
34.000000
 20
39.000000
 11
45.500000
 21
39.000000
  0
LINE
  8
0
 10
33.000004
 20
52.000004
 11
34.000004
 21
53.000004
  0
LINE
  8
0
 10
33.000015
 20
40.000027
 11
34.000008
 21
39.000038
  0
LINE
  8
0
 10
33.000000
 20
52.000000
 11
33.000000
 21
40.000000
  0
LINE
  8
0
 10
34.000000
 20
53.000000
 11
34.000000
 21
39.000000
  0
LINE
  8
0
 10
34.000000
 20
53.000000
 11
45.500000
 21
53.000000
  0
LINE
  8
0
 10
54.799984
 20
65.999985
 11
55.800007
 21
64.999985
  0
LINE
  8
0
  6
CENTER
 62
     2
 10
242.000000
 20
125.000000
 11
242.000000
 21
95.000000
  0
LINE
  8
0
 10
95.000000
 20
181.000000
 11
223.000000
 21
181.000000
  0
LINE
  8
0
 10
95.000000
 20
167.000000
 11
223.000000
 21
167.000000
  0
LINE
  8
0
 10
95.000000
 20
53.000000
 11
223.000000
 21
53.000000
  0
LINE
  8
0
 10
95.000000
 20
39.000000
 11
102.000000
 21
39.000000
  0
LINE
  8
0
 10
258.000000
 20
190.000000
 11
258.000000
 21
30.000000
  0
LINE
  8
0
 10
223.000000
 20
190.000000
 11
223.000000
 21
30.000000
  0
LINE
  8
0
 10
223.000000
 20
190.000000
 11
258.000000
 21
190.000000
  0
LINE
  8
0
 10
33.000034
 20
168.000031
 11
34.000042
 21
167.000000
  0
LINE
  8
0
 10
33.000023
 20
180.000000
 11
34.000023
 21
180.999969
  0
LINE
  8
0
 10
34.000000
 20
167.000000
 11
45.500000
 21
167.000000
  0
LINE
  8
0
 10
33.000000
 20
180.000000
 11
33.000000
 21
168.000000
  0
LINE
  8
0
 10
34.000000
 20
181.000000
 11
34.000000
 21
167.000000
  0
LINE
  8
0
 10
34.000000
 20
181.000000
 11
45.500000
 21
181.000000
  0
LINE
  8
0
 10
284.999786
 20
179.999466
 11
283.999786
 21
180.999466
  0
LINE
  8
0
 10
284.999695
 20
167.999878
 11
283.999725
 21
166.999893
  0
LINE
  8
0
 10
284.000000
 20
181.000000
 11
272.500000
 21
181.000000
  0
LINE
  8
0
 10
285.000000
 20
167.999634
 11
285.000000
 21
179.999619
  0
LINE
  8
0
 10
284.000000
 20
166.999634
 11
284.000000
 21
180.999619
  0
LINE
  8
0
 10
284.000000
 20
167.000000
 11
272.500000
 21
167.000000
  0
LINE
  8
0
 10
49.000000
 20
147.500000
 11
54.799988
 21
147.500000
  0
LINE
  8
0
 10
49.000000
 20
72.500000
 11
54.799988
 21
72.500000
  0
LINE
  8
0
 10
48.000000
 20
130.016510
 11
48.000000
 21
89.983490
  0
LINE
  8
0
 10
48.000000
 20
76.983490
 11
48.000000
 21
73.500000
  0
LINE
  8
0
 10
47.599987
 20
76.983490
 11
54.799988
 21
76.983490
  0
LINE
  8
0
 10
47.599987
 20
89.983490
 11
54.799988
 21
89.983490
  0
LINE
  8
0
 10
47.599991
 20
143.016510
 11
54.799988
 21
143.016510
  0
LINE
  8
0
 10
47.599991
 20
130.016510
 11
54.799988
 21
130.016510
  0
LINE
  8
0
 10
46.799976
 20
142.216522
 11
47.599960
 21
143.016510
  0
LINE
  8
0
 10
46.799965
 20
130.816483
 11
47.599964
 21
130.016479
  0
LINE
  8
0
 10
47.599987
 20
89.983513
 11
46.799992
 21
89.183517
  0
LINE
  8
0
 10
46.799992
 20
77.783508
 11
47.599998
 21
76.983505
  0
LINE
  8
0
 10
47.599968
 20
143.016510
 11
47.599968
 21
130.016510
  0
LINE
  8
0
 10
47.599983
 20
89.983490
 11
47.599983
 21
76.983490
  0
LINE
  8
0
 10
258.000000
 20
58.000000
 11
261.500000
 21
58.000000
  0
LINE
  8
0
 10
258.000000
 20
34.000000
 11
261.500000
 21
34.000000
  0
LINE
  8
0
 10
56.500000
 20
58.000000
 11
60.000000
 21
58.000000
  0
LINE
  8
0
 10
56.500000
 20
34.000000
 11
60.000000
 21
34.000000
  0
LINE
  8
0
 10
56.500000
 20
186.000000
 11
60.000000
 21
186.000000
  0
LINE
  8
0
 10
56.500000
 20
162.000000
 11
60.000000
 21
162.000000
  0
LINE
  8
0
 10
258.000000
 20
186.000000
 11
261.500000
 21
186.000000
  0
LINE
  8
0
 10
258.000000
 20
162.000000
 11
261.500000
 21
162.000000
  0
LINE
  8
0
 10
55.800011
 20
65.000000
 11
60.000000
 21
65.000000
  0
LINE
  8
0
 10
55.799957
 20
155.000000
 11
60.000000
 21
155.000000
  0
LINE
  8
0
 10
60.000000
 20
30.000000
 11
95.000000
 21
30.000000
  0
LINE
  8
0
 10
223.000000
 20
30.000000
 11
258.000000
 21
30.000000
  0
LINE
  8
0
 10
95.000000
 20
185.000000
 11
223.000000
 21
185.000000
  0
LINE
  8
0
 10
95.000000
 20
35.000000
 11
102.000000
 21
35.000000
  0
LINE
  8
0
 62
     2
 10
285.000000
 20
179.600006
 11
272.500000
 21
179.600006
  0
LINE
  8
0
 62
     2
 10
285.000000
 20
168.399994
 11
272.500000
 21
168.399994
  0
LINE
  8
0
 62
     2
 10
285.000000
 20
51.600006
 11
272.500000
 21
51.600006
  0
LINE
  8
0
 62
     2
 10
285.000000
 20
40.399994
 11
272.500000
 21
40.399994
  0
LINE
  8
0
 62
     2
 10
33.000000
 20
51.600006
 11
45.500000
 21
51.600006
  0
LINE
  8
0
 62
     2
 10
33.000000
 20
40.399994
 11
45.500000
 21
40.399994
  0
LINE
  8
0
 62
     2
 10
33.000000
 20
179.600006
 11
45.500000
 21
179.600006
  0
LINE
  8
0
 62
     2
 10
33.000000
 20
168.399994
 11
45.500000
 21
168.399994
  0
LINE
  8
0
 62
     2
 10
-50.000000
 20
95.750000
 11
0.000000
 21
95.750000
  0
LINE
  8
0
 62
     2
 10
-0.000001
 20
95.750000
 11
1.607141
 21
95.000000
  0
LINE
  8
0
 10
-50.000053
 20
95.749969
 11
-49.250061
 21
94.999969
  0
LINE
  8
0
 10
-49.250000
 20
125.000000
 11
-49.250000
 21
95.000000
  0
LINE
  8
0
 10
-49.999931
 20
124.249931
 11
-49.249943
 21
124.999908
  0
LINE
  8
0
 62
     2
 10
-50.000000
 20
124.250000
 11
0.000000
 21
124.250000
  0
LINE
  8
0
 10
-49.250000
 20
125.000000
 11
3.000000
 21
125.000000
  0
LINE
  8
0
 62
     2
 10
-0.000001
 20
124.250000
 11
1.607140
 21
125.000000
  0
LINE
  8
0
 10
4.732071
 20
126.000000
 11
15.000000
 21
126.000000
  0
LINE
  8
0
 10
4.732059
 20
94.000000
 11
15.000000
 21
94.000000
  0
LINE
  8
0
 10
14.999996
 20
125.999985
 11
16.154696
 21
127.999985
  0
LINE
  8
0
 10
15.000001
 20
94.000000
 11
16.154701
 21
92.000000
  0
LINE
  8
0
 10
16.154697
 20
92.000000
 11
22.000000
 21
92.000000
  0
LINE
  8
0
  6
CENTER
 62
     2
 10
76.000000
 20
125.000000
 11
76.000000
 21
95.000000
  0
LINE
  8
0
 10
45.500000
 20
185.000000
 11
56.500000
 21
185.000000
  0
LINE
  8
0
 10
46.482483
 20
174.000000
 11
56.500000
 21
174.000000
  0
LINE
  8
0
 10
45.500000
 20
185.000000
 11
45.500000
 21
163.000000
  0
LINE
  8
0
 10
45.500000
 20
163.000000
 11
56.500000
 21
163.000000
  0
LINE
  8
0
 10
56.500000
 20
186.000000
 11
56.500000
 21
162.000000
  0
LINE
  8
0
 10
45.500000
 20
57.000000
 11
56.500000
 21
57.000000
  0
LINE
  8
0
 10
46.482483
 20
46.000000
 11
56.500000
 21
46.000000
  0
LINE
  8
0
 10
45.500000
 20
57.000000
 11
45.500000
 21
35.000000
  0
LINE
  8
0
 10
45.500000
 20
35.000000
 11
56.500000
 21
35.000000
  0
LINE
  8
0
 10
56.500000
 20
58.000000
 11
56.500000
 21
34.000000
  0
LINE
  8
0
 10
272.500000
 20
185.000000
 11
261.500000
 21
185.000000
  0
LINE
  8
0
 10
271.517517
 20
174.000000
 11
261.500000
 21
174.000000
  0
LINE
  8
0
 10
272.500000
 20
185.000000
 11
272.500000
 21
163.000000
  0
LINE
  8
0
 10
272.500000
 20
163.000000
 11
261.500000
 21
163.000000
  0
LINE
  8
0
 10
261.500000
 20
186.000000
 11
261.500000
 21
162.000000
  0
LINE
  8
0
 10
272.500000
 20
57.000000
 11
261.500000
 21
57.000000
  0
LINE
  8
0
 10
271.517517
 20
46.000000
 11
261.500000
 21
46.000000
  0
LINE
  8
0
 10
272.500000
 20
57.000000
 11
272.500000
 21
35.000000
  0
LINE
  8
0
 10
272.500000
 20
35.000000
 11
261.500000
 21
35.000000
  0
LINE
  8
0
 10
261.500000
 20
58.000000
 11
261.500000
 21
34.000000
  0
LINE
  8
0
 62
     4
 10
102.000000
 20
61.358032
 11
102.000000
 21
53.000000
  0
LINE
  8
0
 62
     4
 10
130.000000
 20
61.358032
 11
130.000000
 21
53.000000
  0
LINE
  8
0
 62
     4
 10
102.000000
 20
43.839523
 11
102.000000
 21
27.019775
  0
LINE
  8
0
 62
     4
 10
130.000000
 20
43.839523
 11
130.000000
 21
27.019775
  0
LINE
  8
0
 62
     4
 10
108.134003
 20
35.584534
 11
109.865997
 21
35.584534
  0
LINE
  8
0
 62
     4
 10
108.134003
 20
34.266907
 11
109.865997
 21
34.266907
  0
LINE
  8
0
 62
     4
 10
108.134003
 20
35.584549
 11
107.267952
 21
34.925564
  0
LINE
  8
0
 62
     4
 10
107.267914
 20
34.925526
 11
108.133972
 21
34.266876
  0
LINE
  8
0
 62
     4
 10
109.865990
 20
34.266903
 11
110.732033
 21
34.925545
  0
LINE
  8
0
 62
     4
 10
110.732071
 20
34.925549
 11
109.866020
 21
35.584534
  0
LINE
  8
0
 62
     4
 10
122.134003
 20
35.584534
 11
123.865997
 21
35.584534
  0
LINE
  8
0
 62
     4
 10
122.134003
 20
34.266907
 11
123.865997
 21
34.266907
  0
LINE
  8
0
 62
     4
 10
122.134026
 20
35.584549
 11
121.267975
 21
34.925568
  0
LINE
  8
0
 62
     4
 10
121.267929
 20
34.925495
 11
122.133987
 21
34.266846
  0
LINE
  8
0
 62
     4
 10
123.865990
 20
34.266914
 11
124.732033
 21
34.925552
  0
LINE
  8
0
 62
     4
 10
124.732071
 20
34.925552
 11
123.866020
 21
35.584538
  0
LINE
  8
0
 62
     4
 10
188.000000
 20
35.000000
 11
188.000000
 21
27.019714
  0
LINE
  8
0
 62
     4
 10
216.000000
 20
35.000000
 11
216.000000
 21
27.019714
  0
LINE
  8
0
 62
     4
 10
102.000000
 20
61.358032
 11
130.000000
 21
61.358032
  0
LINE
  8
0
 62
     4
 10
102.000000
 20
57.315323
 11
130.000000
 21
57.315323
  0
LINE
  8
0
 62
     4
 10
102.000000
 20
38.000000
 11
130.000000
 21
38.000000
  0
LINE
  8
0
 62
     4
 10
102.000000
 20
43.839523
 11
130.000000
 21
43.839523
  0
LINE
  8
0
 62
     4
 10
102.000000
 20
27.019775
 11
130.000000
 21
27.019775
  0
LINE
  8
0
 62
     4
 10
188.000000
 20
27.019714
 11
216.000000
 21
27.019714
  0
LINE
  8
0
 62
     4
 10
188.000000
 20
32.529816
 11
216.000000
 21
32.529816
  0
LINE
  8
0
 10
130.000000
 20
39.000000
 11
223.000000
 21
39.000000
  0
LINE
  8
0
 10
130.000000
 20
35.000000
 11
223.000000
 21
35.000000
  0
ARC
  8
0
 10
16.279102
 20
-130.000000
 40
11.547037
 50
134.427185
 51
225.572784
  0
ARC
  8
0
 10
49.000000
 20
-93.500000
 40
1.000000
 50
90.000000
 51
180.000000
  0
ARC
  8
0
 10
49.000000
 20
-166.500000
 40
1.000000
 50
180.000000
 51
270.000000
  0
CIRCLE
  8
0
 10
76.000000
 20
-130.000000
 40
7.950000
  0
CIRCLE
  8
0
 10
242.000000
 20
-130.000000
 40
7.950000
  0
CIRCLE
  8
0
 10
76.000000
 20
-130.000000
 40
5.150000
  0
CIRCLE
  8
0
 10
242.000000
 20
-130.000000
 40
5.150000
  0
ARC
  8
0
 10
-260.720642
 20
-110.289764
 40
0.999999
 50
58.297192
 51
147.315308
  0
CIRCLE
  8
0
 10
-230.000000
 20
-130.000000
 40
15.000000
  0
CIRCLE
  8
0
 10
-230.000000
 20
-130.000000
 40
18.000000
  0
CIRCLE
  8
0
 10
-230.000000
 20
-130.000000
 40
30.000000
  0
ARC
  8
0
 10
-230.000000
 20
-130.000000
 40
37.500000
 50
0.000000
 51
32.684067
  0
ARC
  8
0
 10
-256.516510
 20
-156.516510
 40
7.000000
 50
0.000000
 51
121.703087
  0
ARC
  8
0
 10
-256.516510
 20
-103.483490
 40
7.000000
 50
0.000000
 51
31.702862
  0
ARC
  8
0
 10
-203.483490
 20
-103.483490
 40
7.000000
 50
148.297089
 51
301.702911
  0
ARC
  8
0
 10
-230.000000
 20
-130.000000
 40
37.499996
 50
57.315914
 51
122.684113
  0
ARC
  8
0
 10
-210.289764
 20
-99.279388
 40
0.999999
 50
328.297180
 51
57.315781
  0
ARC
  8
0
 10
-199.279358
 20
-110.289764
 40
1.000000
 50
32.684219
 51
121.702805
  0
ARC
  8
0
 10
-230.000000
 20
-130.000000
 40
37.499996
 50
327.315948
 51
0.000000
  0
ARC
  8
0
 10
-203.483490
 20
-156.516510
 40
7.000000
 50
58.297085
 51
211.702911
  0
ARC
  8
0
 10
-199.279358
 20
-149.710236
 40
0.999999
 50
238.297195
 51
327.315765
  0
ARC
  8
0
 10
-210.289764
 20
-160.720627
 40
1.000000
 50
302.684235
 51
31.702808
  0
ARC
  8
0
 10
-230.000000
 20
-130.000000
 40
37.500000
 50
237.315887
 51
302.684082
  0
ARC
  8
0
 10
-256.516510
 20
-156.516510
 40
7.000000
 50
328.297089
 51
0.000000
  0
ARC
  8
0
 10
-249.710236
 20
-160.720627
 40
0.999999
 50
148.297195
 51
237.315781
  0
ARC
  8
0
 10
-260.720642
 20
-149.710236
 40
1.000013
 50
212.683746
 51
301.702820
  0
ARC
  8
0
 10
-230.000000
 20
-130.000000
 40
37.499996
 50
147.315948
 51
212.684021
  0
ARC
  8
0
 10
-256.516510
 20
-103.483490
 40
7.000001
 50
238.296951
 51
0.000000
  0
ARC
  8
0
 10
-249.710236
 20
-99.279388
 40
1.000000
 50
122.684219
 51
211.703186
  0
CIRCLE
  8
0
 10
-230.000000
 20
-130.000000
 40
45.000000
  0
CIRCLE
  8
0
 10
-294.000000
 20
-194.000000
 40
7.000000
  0
CIRCLE
  8
0
 10
-256.516510
 20
-156.516510
 40
6.500000
  0
CIRCLE
  8
0
 10
-203.483490
 20
-156.516510
 40
6.500000
  0
CIRCLE
  8
0
 10
-203.483490
 20
-103.483490
 40
6.500000
  0
CIRCLE
  8
0
 10
-256.516510
 20
-103.483490
 40
6.500000
  0
CIRCLE
  8
0
 10
-256.516510
 20
-156.516510
 40
3.430000
  0
CIRCLE
  8
0
 10
-256.516510
 20
-103.483490
 40
3.430000
  0
CIRCLE
  8
0
 10
-203.483490
 20
-156.516510
 40
3.430000
  0
CIRCLE
  8
0
 10
-203.483490
 20
-103.483490
 40
3.430000
  0
CIRCLE
  8
0
 10
-294.000000
 20
-194.000000
 40
10.500000
  0
CIRCLE
  8
0
 10
-166.000000
 20
-194.000000
 40
7.000000
  0
CIRCLE
  8
0
 10
-166.000000
 20
-194.000000
 40
10.500000
  0
CIRCLE
  8
0
 10
-166.000000
 20
-66.000000
 40
7.000000
  0
CIRCLE
  8
0
 10
-166.000000
 20
-66.000000
 40
10.500000
  0
CIRCLE
  8
0
 10
-294.000000
 20
-66.000000
 40
7.000000
  0
CIRCLE
  8
0
 10
-294.000000
 20
-66.000000
 40
10.500000
  0
CIRCLE
  8
0
 62
     2
 10
-166.000000
 20
-194.000000
 40
5.600000
  0
CIRCLE
  8
0
 62
     2
 10
-166.000000
 20
-66.000000
 40
5.600000
  0
CIRCLE
  8
0
 62
     2
 10
-294.000000
 20
-66.000000
 40
5.600000
  0
CIRCLE
  8
0
 62
     2
 10
-294.000000
 20
-194.000000
 40
5.600000
  0
CIRCLE
  8
0
 62
     2
 10
-230.000000
 20
-130.000000
 40
14.250000
  0
ARC
  8
0
  6
DASHED
 62
     1
 10
-161.041336
 20
-82.861786
 40
10.406345
 50
273.440613
 51
296.053497
  0
ARC
  8
0
  6
DASHED
 62
     1
 10
-161.041336
 20
-82.861786
 40
10.406347
 50
296.053497
 51
318.666382
  0
ARC
  8
0
  6
DASHED
 62
     1
 10
-161.041336
 20
-177.138214
 40
10.406347
 50
41.333580
 51
63.946419
  0
ARC
  8
0
  6
DASHED
 62
     1
 10
-161.041336
 20
-177.138214
 40
10.406346
 50
63.946419
 51
86.559296
  0
ARC
  8
0
 10
49.000000
 20
146.500000
 40
1.000000
 50
90.000000
 51
180.000000
  0
ARC
  8
0
 10
49.000000
 20
73.500000
 40
1.000000
 50
180.000000
 51
270.000000
  0
CIRCLE
  8
0
 62
     2
 10
242.000000
 20
110.000000
 40
10.477500
  0
CIRCLE
  8
0
 10
242.000000
 20
110.000000
 40
9.315500
  0
CIRCLE
  8
0
 62
     2
 10
76.000000
 20
110.000000
 40
10.477500
  0
CIRCLE
  8
0
 10
76.000000
 20
110.000000
 40
9.315500
  0
ARC
  8
0
 10
61.385948
 20
179.500000
 40
15.885949
 50
159.743835
 51
200.256104
  0
ARC
  8
0
 10
61.385948
 20
168.500000
 40
15.885951
 50
159.743790
 51
200.256042
  0
ARC
  8
0
 10
61.385948
 20
51.500000
 40
15.885947
 50
159.743866
 51
200.256119
  0
ARC
  8
0
 10
61.385948
 20
40.500000
 40
15.885948
 50
159.743805
 51
200.256058
  0
ARC
  8
0
 10
256.614044
 20
179.500000
 40
15.885953
 50
339.743835
 51
20.256102
  0
ARC
  8
0
 10
256.614044
 20
168.500000
 40
15.885948
 50
339.743896
 51
20.256153
  0
ARC
  8
0
 10
256.614044
 20
51.500000
 40
15.885953
 50
339.743835
 51
20.256102
  0
ARC
  8
0
 10
256.614044
 20
40.500000
 40
15.885948
 50
339.743896
 51
20.256153
  0
POLYLINE
  8
0
 66
     1
  0
VERTEX
  8
0
 10
15.000000
 20
-121.753784
  0
VERTEX
  8
0
 10
15.206180
 20
-122.653831
  0
VERTEX
  8
0
 10
15.389400
 20
-123.559601
  0
VERTEX
  8
0
 10
15.549317
 20
-124.470367
  0
VERTEX
  8
0
 10
15.685581
 20
-125.385422
  0
VERTEX
  8
0
 10
15.797848
 20
-126.304054
  0
VERTEX
  8
0
 10
15.885770
 20
-127.225540
  0
VERTEX
  8
0
 10
15.949000
 20
-128.149170
  0
VERTEX
  8
0
 10
15.987192
 20
-129.074234
  0
VERTEX
  8
0
 10
16.000000
 20
-130.000000
  0
VERTEX
  8
0
 10
15.987192
 20
-130.925766
  0
VERTEX
  8
0
 10
15.949000
 20
-131.850830
  0
VERTEX
  8
0
 10
15.885770
 20
-132.774460
  0
VERTEX
  8
0
 10
15.797848
 20
-133.695953
  0
VERTEX
  8
0
 10
15.685581
 20
-134.614578
  0
VERTEX
  8
0
 10
15.549317
 20
-135.529633
  0
VERTEX
  8
0
 10
15.389400
 20
-136.440399
  0
VERTEX
  8
0
 10
15.206180
 20
-137.346161
  0
VERTEX
  8
0
 10
15.000000
 20
-138.246216
  0
SEQEND
  0
POLYLINE
  8
0
 66
     1
  0
VERTEX
  8
0
 10
271.517517
 20
-206.701721
  0
VERTEX
  8
0
 10
271.916992
 20
-205.965103
  0
VERTEX
  8
0
 10
272.227386
 20
-205.179428
  0
VERTEX
  8
0
 10
272.428467
 20
-204.361038
  0
VERTEX
  8
0
 10
272.500000
 20
-203.526291
  0
VERTEX
  8
0
 10
272.428467
 20
-202.691544
  0
VERTEX
  8
0
 10
272.227386
 20
-201.873154
  0
VERTEX
  8
0
 10
271.916992
 20
-201.087463
  0
VERTEX
  8
0
 10
271.517517
 20
-200.350845
  0
SEQEND
  0
POLYLINE
  8
0
 66
     1
  0
VERTEX
  8
0
 10
271.517517
 20
-200.350845
  0
VERTEX
  8
0
 10
271.771301
 20
-199.467636
  0
VERTEX
  8
0
 10
271.989197
 20
-198.573334
  0
VERTEX
  8
0
 10
272.170013
 20
-197.669769
  0
VERTEX
  8
0
 10
272.312683
 20
-196.758804
  0
VERTEX
  8
0
 10
272.415985
 20
-195.842285
  0
VERTEX
  8
0
 10
272.478790
 20
-194.922073
  0
VERTEX
  8
0
 10
272.500000
 20
-194.000000
  0
VERTEX
  8
0
 10
272.478790
 20
-193.077927
  0
VERTEX
  8
0
 10
272.415985
 20
-192.157715
  0
VERTEX
  8
0
 10
272.312683
 20
-191.241196
  0
VERTEX
  8
0
 10
272.170013
 20
-190.330215
  0
VERTEX
  8
0
 10
271.989197
 20
-189.426651
  0
VERTEX
  8
0
 10
271.771301
 20
-188.532349
  0
VERTEX
  8
0
 10
271.517517
 20
-187.649139
  0
SEQEND
  0
POLYLINE
  8
0
 66
     1
  0
VERTEX
  8
0
 10
271.517517
 20
-187.649139
  0
VERTEX
  8
0
 10
271.916992
 20
-186.912521
  0
VERTEX
  8
0
 10
272.227386
 20
-186.126846
  0
VERTEX
  8
0
 10
272.428467
 20
-185.308456
  0
VERTEX
  8
0
 10
272.500000
 20
-184.473724
  0
VERTEX
  8
0
 10
272.428467
 20
-183.638977
  0
VERTEX
  8
0
 10
272.227386
 20
-182.820587
  0
VERTEX
  8
0
 10
271.916992
 20
-182.034912
  0
VERTEX
  8
0
 10
271.517517
 20
-181.298294
  0
SEQEND
  0
POLYLINE
  8
0
 66
     1
  0
VERTEX
  8
0
 10
46.482483
 20
-181.298294
  0
VERTEX
  8
0
 10
46.083008
 20
-182.034912
  0
VERTEX
  8
0
 10
45.772606
 20
-182.820587
  0
VERTEX
  8
0
 10
45.571526
 20
-183.638977
  0
VERTEX
  8
0
 10
45.500000
 20
-184.473724
  0
VERTEX
  8
0
 10
45.571526
 20
-185.308472
  0
VERTEX
  8
0
 10
45.772606
 20
-186.126862
  0
VERTEX
  8
0
 10
46.083008
 20
-186.912537
  0
VERTEX
  8
0
 10
46.482483
 20
-187.649155
  0
SEQEND
  0
POLYLINE
  8
0
 66
     1
  0
VERTEX
  8
0
 10
46.482483
 20
-200.350861
  0
VERTEX
  8
0
 10
46.083008
 20
-201.087479
  0
VERTEX
  8
0
 10
45.772606
 20
-201.873154
  0
VERTEX
  8
0
 10
45.571526
 20
-202.691544
  0
VERTEX
  8
0
 10
45.500000
 20
-203.526276
  0
VERTEX
  8
0
 10
45.571526
 20
-204.361023
  0
VERTEX
  8
0
 10
45.772606
 20
-205.179413
  0
VERTEX
  8
0
 10
46.083008
 20
-205.965103
  0
VERTEX
  8
0
 10
46.482483
 20
-206.701721
  0
SEQEND
  0
POLYLINE
  8
0
 66
     1
  0
VERTEX
  8
0
 10
46.482483
 20
-187.649155
  0
VERTEX
  8
0
 10
46.228695
 20
-188.532364
  0
VERTEX
  8
0
 10
46.010811
 20
-189.426666
  0
VERTEX
  8
0
 10
45.829975
 20
-190.330231
  0
VERTEX
  8
0
 10
45.687328
 20
-191.241196
  0
VERTEX
  8
0
 10
45.584023
 20
-192.157715
  0
VERTEX
  8
0
 10
45.521194
 20
-193.077927
  0
VERTEX
  8
0
 10
45.500000
 20
-194.000000
  0
VERTEX
  8
0
 10
45.521194
 20
-194.922073
  0
VERTEX
  8
0
 10
45.584019
 20
-195.842285
  0
VERTEX
  8
0
 10
45.687328
 20
-196.758804
  0
VERTEX
  8
0
 10
45.829971
 20
-197.669785
  0
VERTEX
  8
0
 10
46.010811
 20
-198.573349
  0
VERTEX
  8
0
 10
46.228695
 20
-199.467651
  0
VERTEX
  8
0
 10
46.482483
 20
-200.350861
  0
SEQEND
  0
POLYLINE
  8
0
 66
     1
  0
VERTEX
  8
0
 10
46.482483
 20
-53.298294
  0
VERTEX
  8
0
 10
46.083008
 20
-54.034912
  0
VERTEX
  8
0
 10
45.772606
 20
-54.820595
  0
VERTEX
  8
0
 10
45.571526
 20
-55.638981
  0
VERTEX
  8
0
 10
45.500000
 20
-56.473724
  0
VERTEX
  8
0
 10
45.571526
 20
-57.308468
  0
VERTEX
  8
0
 10
45.772606
 20
-58.126854
  0
VERTEX
  8
0
 10
46.083008
 20
-58.912537
  0
VERTEX
  8
0
 10
46.482483
 20
-59.649155
  0
SEQEND
  0
POLYLINE
  8
0
 66
     1
  0
VERTEX
  8
0
 10
46.482483
 20
-59.649155
  0
VERTEX
  8
0
 10
46.228695
 20
-60.532360
  0
VERTEX
  8
0
 10
46.010811
 20
-61.426670
  0
VERTEX
  8
0
 10
45.829975
 20
-62.330231
  0
VERTEX
  8
0
 10
45.687328
 20
-63.241196
  0
VERTEX
  8
0
 10
45.584023
 20
-64.157715
  0
VERTEX
  8
0
 10
45.521194
 20
-65.077927
  0
VERTEX
  8
0
 10
45.500000
 20
-66.000000
  0
VERTEX
  8
0
 10
45.521194
 20
-66.922073
  0
VERTEX
  8
0
 10
45.584019
 20
-67.842293
  0
VERTEX
  8
0
 10
45.687328
 20
-68.758812
  0
VERTEX
  8
0
 10
45.829971
 20
-69.669777
  0
VERTEX
  8
0
 10
46.010811
 20
-70.573341
  0
VERTEX
  8
0
 10
46.228695
 20
-71.467651
  0
VERTEX
  8
0
 10
46.482483
 20
-72.350861
  0
SEQEND
  0
POLYLINE
  8
0
 66
     1
  0
VERTEX
  8
0
 10
46.482483
 20
-72.350861
  0
VERTEX
  8
0
 10
46.083008
 20
-73.087479
  0
VERTEX
  8
0
 10
45.772606
 20
-73.873154
  0
VERTEX
  8
0
 10
45.571526
 20
-74.691544
  0
VERTEX
  8
0
 10
45.500000
 20
-75.526283
  0
VERTEX
  8
0
 10
45.571526
 20
-76.361023
  0
VERTEX
  8
0
 10
45.772606
 20
-77.179413
  0
VERTEX
  8
0
 10
46.083008
 20
-77.965088
  0
VERTEX
  8
0
 10
46.482483
 20
-78.701706
  0
SEQEND
  0
POLYLINE
  8
0
 66
     1
  0
VERTEX
  8
0
 10
271.517517
 20
-78.701721
  0
VERTEX
  8
0
 10
271.916992
 20
-77.965103
  0
VERTEX
  8
0
 10
272.227386
 20
-77.179420
  0
VERTEX
  8
0
 10
272.428467
 20
-76.361031
  0
VERTEX
  8
0
 10
272.500000
 20
-75.526283
  0
VERTEX
  8
0
 10
272.428467
 20
-74.691544
  0
VERTEX
  8
0
 10
272.227386
 20
-73.873146
  0
VERTEX
  8
0
 10
271.916992
 20
-73.087463
  0
VERTEX
  8
0
 10
271.517517
 20
-72.350845
  0
SEQEND
  0
POLYLINE
  8
0
 66
     1
  0
VERTEX
  8
0
 10
271.517517
 20
-72.350845
  0
VERTEX
  8
0
 10
271.771301
 20
-71.467644
  0
VERTEX
  8
0
 10
271.989197
 20
-70.573334
  0
VERTEX
  8
0
 10
272.170013
 20
-69.669769
  0
VERTEX
  8
0
 10
272.312683
 20
-68.758804
  0
VERTEX
  8
0
 10
272.415985
 20
-67.842285
  0
VERTEX
  8
0
 10
272.478790
 20
-66.922073
  0
VERTEX
  8
0
 10
272.500000
 20
-66.000000
  0
VERTEX
  8
0
 10
272.478790
 20
-65.077927
  0
VERTEX
  8
0
 10
272.415985
 20
-64.157707
  0
VERTEX
  8
0
 10
272.312683
 20
-63.241188
  0
VERTEX
  8
0
 10
272.170013
 20
-62.330223
  0
VERTEX
  8
0
 10
271.989197
 20
-61.426659
  0
VERTEX
  8
0
 10
271.771301
 20
-60.532345
  0
VERTEX
  8
0
 10
271.517517
 20
-59.649139
  0
SEQEND
  0
POLYLINE
  8
0
 66
     1
  0
VERTEX
  8
0
 10
271.517517
 20
-59.649139
  0
VERTEX
  8
0
 10
271.916992
 20
-58.912525
  0
VERTEX
  8
0
 10
272.227386
 20
-58.126846
  0
VERTEX
  8
0
 10
272.428467
 20
-57.308464
  0
VERTEX
  8
0
 10
272.500000
 20
-56.473724
  0
VERTEX
  8
0
 10
272.428467
 20
-55.638985
  0
VERTEX
  8
0
 10
272.227386
 20
-54.820595
  0
VERTEX
  8
0
 10
271.916992
 20
-54.034912
  0
VERTEX
  8
0
 10
271.517517
 20
-53.298294
  0
SEQEND
  0
ARC
  8
0
 62
     4
 10
123.574593
 20
-54.388687
 40
2.425406
 50
348.874969
 51
11.125019
  0
ARC
  8
0
 62
     4
 10
123.422081
 20
-54.432697
 40
2.583580
 50
11.430085
 51
43.435875
  0
ARC
  8
0
 62
     4
 10
123.000000
 20
-54.918091
 40
3.224403
 50
44.542397
 51
135.457611
  0
ARC
  8
0
 62
     4
 10
122.577919
 20
-54.432697
 40
2.583581
 50
136.564133
 51
168.569916
  0
ARC
  8
0
 62
     4
 10
122.425407
 20
-54.388687
 40
2.425406
 50
168.874985
 51
191.125015
  0
ARC
  8
0
 62
     4
 10
122.577919
 20
-54.344677
 40
2.583580
 50
191.430084
 51
223.435867
  0
ARC
  8
0
 62
     4
 10
123.000000
 20
-53.859283
 40
3.224403
 50
224.542389
 51
315.457611
  0
ARC
  8
0
 62
     4
 10
123.422081
 20
-54.344677
 40
2.583581
 50
316.564117
 51
348.569916
  0
ARC
  8
0
 62
     4
 10
123.461456
 20
-54.390747
 40
1.938541
 50
348.614258
 51
10.874549
  0
ARC
  8
0
 62
     4
 10
123.338814
 20
-54.425560
 40
2.065573
 50
11.181064
 51
43.195454
  0
ARC
  8
0
 62
     4
 10
122.998100
 20
-54.814045
 40
2.580362
 50
44.305744
 51
135.182983
  0
ARC
  8
0
 62
     4
 10
122.660873
 20
-54.422535
 40
2.065576
 50
136.293396
 51
168.307693
  0
ARC
  8
0
 62
     4
 10
122.538544
 20
-54.386627
 40
1.938541
 50
168.614243
 51
190.874542
  0
ARC
  8
0
 62
     4
 10
122.661186
 20
-54.351814
 40
2.065573
 50
191.181061
 51
223.195450
  0
ARC
  8
0
 62
     4
 10
123.001900
 20
-53.963329
 40
2.580362
 50
224.305740
 51
315.182983
  0
ARC
  8
0
 62
     4
 10
123.339127
 20
-54.354839
 40
2.065576
 50
316.293396
 51
348.307709
  0
ARC
  8
0
 62
     4
 10
109.574593
 20
-54.388687
 40
2.425406
 50
348.874969
 51
11.125019
  0
ARC
  8
0
 62
     4
 10
109.422081
 20
-54.432697
 40
2.583580
 50
11.430085
 51
43.435875
  0
ARC
  8
0
 62
     4
 10
109.000000
 20
-54.918091
 40
3.224403
 50
44.542397
 51
135.457611
  0
ARC
  8
0
 62
     4
 10
108.577919
 20
-54.432697
 40
2.583581
 50
136.564133
 51
168.569916
  0
ARC
  8
0
 62
     4
 10
108.425407
 20
-54.388687
 40
2.425406
 50
168.874985
 51
191.125015
  0
ARC
  8
0
 62
     4
 10
108.577919
 20
-54.344677
 40
2.583580
 50
191.430084
 51
223.435867
  0
ARC
  8
0
 62
     4
 10
109.000000
 20
-53.859283
 40
3.224403
 50
224.542389
 51
315.457611
  0
ARC
  8
0
 62
     4
 10
109.422081
 20
-54.344677
 40
2.583581
 50
316.564117
 51
348.569916
  0
ARC
  8
0
 62
     4
 10
109.461456
 20
-54.390747
 40
1.938541
 50
348.614258
 51
10.874549
  0
ARC
  8
0
 62
     4
 10
109.338814
 20
-54.425560
 40
2.065573
 50
11.181064
 51
43.195454
  0
ARC
  8
0
 62
     4
 10
108.998100
 20
-54.814045
 40
2.580362
 50
44.305744
 51
135.182983
  0
ARC
  8
0
 62
     4
 10
108.660873
 20
-54.422535
 40
2.065576
 50
136.293396
 51
168.307693
  0
ARC
  8
0
 62
     4
 10
108.538544
 20
-54.386627
 40
1.938541
 50
168.614243
 51
190.874542
  0
ARC
  8
0
 62
     4
 10
108.661186
 20
-54.351814
 40
2.065573
 50
191.181061
 51
223.195450
  0
ARC
  8
0
 62
     4
 10
109.001900
 20
-53.963329
 40
2.580362
 50
224.305740
 51
315.182983
  0
ARC
  8
0
 62
     4
 10
109.339127
 20
-54.354839
 40
2.065576
 50
316.293396
 51
348.307709
  0
ARC
  8
0
 62
     4
 10
209.461441
 20
-205.610931
 40
1.938545
 50
348.870056
 51
11.129944
  0
ARC
  8
0
 62
     4
 10
209.338974
 20
-205.646286
 40
2.065562
 50
11.436436
 51
43.451000
  0
ARC
  8
0
 62
     4
 10
209.000000
 20
-206.036285
 40
2.580353
 50
44.561325
 51
135.438675
  0
ARC
  8
0
 62
     4
 10
208.661026
 20
-205.646286
 40
2.065570
 50
136.548996
 51
168.563568
  0
ARC
  8
0
 62
     4
 10
208.538559
 20
-205.610931
 40
1.938545
 50
168.870056
 51
191.129944
  0
ARC
  8
0
 62
     4
 10
208.661026
 20
-205.575577
 40
2.065562
 50
191.436432
 51
223.451004
  0
ARC
  8
0
 62
     4
 10
209.000000
 20
-205.185577
 40
2.580353
 50
224.561325
 51
315.438660
  0
ARC
  8
0
 62
     4
 10
209.338974
 20
-205.575577
 40
2.065570
 50
316.549011
 51
348.563568
  0
ARC
  8
0
 62
     4
 10
209.574585
 20
-205.611877
 40
2.425414
 50
348.780121
 51
11.029921
  0
ARC
  8
0
 62
     4
 10
209.421997
 20
-205.655640
 40
2.583597
 50
11.335084
 51
43.341091
  0
ARC
  8
0
 62
     4
 10
208.999130
 20
-206.140320
 40
3.224393
 50
44.447632
 51
135.362946
  0
ARC
  8
0
 62
     4
 10
208.577850
 20
-205.654236
 40
2.583576
 50
136.469345
 51
168.475311
  0
ARC
  8
0
 62
     4
 10
208.425415
 20
-205.609985
 40
2.425414
 50
168.780136
 51
191.029922
  0
ARC
  8
0
 62
     4
 10
208.578003
 20
-205.566223
 40
2.583597
 50
191.335083
 51
223.341095
  0
ARC
  8
0
 62
     4
 10
209.000870
 20
-205.081543
 40
3.224393
 50
224.447632
 51
315.362946
  0
ARC
  8
0
 62
     4
 10
209.422150
 20
-205.567627
 40
2.583576
 50
316.469330
 51
348.475311
  0
ARC
  8
0
 62
     4
 10
195.461441
 20
-205.610931
 40
1.938545
 50
348.870056
 51
11.129944
  0
ARC
  8
0
 62
     4
 10
195.338974
 20
-205.646286
 40
2.065562
 50
11.436436
 51
43.451000
  0
ARC
  8
0
 62
     4
 10
195.000000
 20
-206.036285
 40
2.580353
 50
44.561325
 51
135.438675
  0
ARC
  8
0
 62
     4
 10
194.661026
 20
-205.646286
 40
2.065570
 50
136.548996
 51
168.563568
  0
ARC
  8
0
 62
     4
 10
194.538559
 20
-205.610931
 40
1.938545
 50
168.870056
 51
191.129944
  0
ARC
  8
0
 62
     4
 10
194.661026
 20
-205.575577
 40
2.065562
 50
191.436432
 51
223.451004
  0
ARC
  8
0
 62
     4
 10
195.000000
 20
-205.185577
 40
2.580353
 50
224.561325
 51
315.438660
  0
ARC
  8
0
 62
     4
 10
195.338974
 20
-205.575577
 40
2.065570
 50
316.549011
 51
348.563568
  0
ARC
  8
0
 62
     4
 10
195.574585
 20
-205.611877
 40
2.425414
 50
348.780121
 51
11.029921
  0
ARC
  8
0
 62
     4
 10
195.421997
 20
-205.655640
 40
2.583597
 50
11.335084
 51
43.341091
  0
ARC
  8
0
 62
     4
 10
194.999130
 20
-206.140320
 40
3.224393
 50
44.447632
 51
135.362946
  0
ARC
  8
0
 62
     4
 10
194.577850
 20
-205.654236
 40
2.583576
 50
136.469345
 51
168.475311
  0
ARC
  8
0
 62
     4
 10
194.425415
 20
-205.609985
 40
2.425414
 50
168.780136
 51
191.029922
  0
ARC
  8
0
 62
     4
 10
194.578003
 20
-205.566223
 40
2.583597
 50
191.335083
 51
223.341095
  0
ARC
  8
0
 62
     4
 10
195.000870
 20
-205.081543
 40
3.224393
 50
224.447632
 51
315.362946
  0
ARC
  8
0
 62
     4
 10
195.422150
 20
-205.567627
 40
2.583576
 50
316.469330
 51
348.475311
  0
ARC
  8
0
 62
     4
 10
198.796616
 20
-170.617661
 40
0.796600
 50
180.000000
 51
202.524292
  0
ARC
  8
0
 62
     4
 10
199.646881
 20
-170.115982
 40
1.779528
 50
206.962067
 51
246.448349
  0
ARC
  8
0
 62
     4
 10
202.000000
 20
-164.582840
 40
7.792204
 50
246.843964
 51
293.156036
  0
ARC
  8
0
 62
     4
 10
204.353119
 20
-170.115982
 40
1.779537
 50
293.551666
 51
333.037933
  0
ARC
  8
0
 62
     4
 10
205.203384
 20
-170.617661
 40
0.796607
 50
337.475708
 51
0.000000
  0
ARC
  8
0
 62
     4
 10
205.203384
 20
-168.508026
 40
0.796607
 50
337.475708
 51
22.524300
  0
ARC
  8
0
 62
     4
 10
204.353119
 20
-169.009705
 40
1.779528
 50
26.962072
 51
66.448349
  0
ARC
  8
0
 62
     4
 10
202.000000
 20
-174.542847
 40
7.792204
 50
66.843971
 51
113.156029
  0
ARC
  8
0
 62
     4
 10
199.646881
 20
-169.009705
 40
1.779537
 50
113.551651
 51
153.037933
  0
ARC
  8
0
 62
     4
 10
198.796616
 20
-168.508026
 40
0.796607
 50
157.475708
 51
202.524292
  0
ARC
  8
0
 62
     4
 10
199.646881
 20
-168.006348
 40
1.779528
 50
206.962067
 51
246.448349
  0
ARC
  8
0
 62
     4
 10
202.000000
 20
-162.473206
 40
7.792204
 50
246.843964
 51
293.156036
  0
ARC
  8
0
 62
     4
 10
204.353119
 20
-168.006348
 40
1.779537
 50
293.551666
 51
333.037933
  0
ARC
  8
0
 62
     4
 10
119.203285
 20
-89.382416
 40
0.796715
 50
0.000000
 51
22.522877
  0
ARC
  8
0
 62
     4
 10
118.353050
 20
-89.884041
 40
1.779582
 50
26.960083
 51
66.446518
  0
ARC
  8
0
 62
     4
 10
116.000000
 20
-95.416695
 40
7.791770
 50
66.842606
 51
113.157394
  0
ARC
  8
0
 62
     4
 10
113.646950
 20
-89.884041
 40
1.779578
 50
113.553482
 51
153.039917
  0
ARC
  8
0
 62
     4
 10
112.796715
 20
-89.382416
 40
0.796715
 50
157.477127
 51
180.000000
  0
ARC
  8
0
 62
     4
 10
119.203285
 20
-91.491974
 40
0.796715
 50
337.477112
 51
22.522877
  0
ARC
  8
0
 62
     4
 10
118.353050
 20
-91.993599
 40
1.779582
 50
26.960083
 51
66.446518
  0
ARC
  8
0
 62
     4
 10
116.000000
 20
-97.526253
 40
7.791770
 50
66.842606
 51
113.157394
  0
ARC
  8
0
 62
     4
 10
113.646950
 20
-91.993599
 40
1.779578
 50
113.553482
 51
153.039917
  0
ARC
  8
0
 62
     4
 10
112.796715
 20
-91.491974
 40
0.796715
 50
157.477127
 51
202.522873
  0
ARC
  8
0
 62
     4
 10
113.646950
 20
-90.990349
 40
1.779582
 50
206.960083
 51
246.446518
  0
ARC
  8
0
 62
     4
 10
116.000000
 20
-85.457695
 40
7.791770
 50
246.842606
 51
293.157410
  0
ARC
  8
0
 62
     4
 10
118.353050
 20
-90.990349
 40
1.779578
 50
293.553467
 51
333.039917
  0
ARC
  8
0
 62
     4
 10
110.921532
 20
34.923351
 40
0.478467
 50
337.421814
 51
22.447123
  0
ARC
  8
0
 62
     4
 10
110.411163
 20
34.623173
 40
1.067980
 50
26.880810
 51
66.367737
  0
ARC
  8
0
 62
     4
 10
108.995857
 20
31.307550
 40
4.673005
 50
66.766251
 51
113.102592
  0
ARC
  8
0
 62
     4
 10
107.588150
 20
34.626404
 40
1.067982
 50
113.501389
 51
152.987946
  0
ARC
  8
0
 62
     4
 10
107.078468
 20
34.927753
 40
0.478467
 50
157.421814
 51
202.447128
  0
ARC
  8
0
 62
     4
 10
107.588837
 20
35.227932
 40
1.067980
 50
206.880814
 51
246.367737
  0
ARC
  8
0
 62
     4
 10
109.004143
 20
38.543552
 40
4.673003
 50
246.766251
 51
293.102600
  0
ARC
  8
0
 62
     4
 10
110.411850
 20
35.224701
 40
1.067982
 50
293.501404
 51
332.987946
  0
ARC
  8
0
 62
     4
 10
111.400826
 20
34.925552
 40
0.599173
 50
337.508270
 51
22.491743
  0
ARC
  8
0
 62
     4
 10
110.763588
 20
34.550125
 40
1.335544
 50
26.918991
 51
66.406532
  0
ARC
  8
0
 62
     4
 10
109.000000
 20
30.409378
 40
5.836175
 50
66.810471
 51
113.189529
  0
ARC
  8
0
 62
     4
 10
107.236412
 20
34.550125
 40
1.335548
 50
113.593468
 51
153.081009
  0
ARC
  8
0
 62
     4
 10
106.599174
 20
34.925552
 40
0.599173
 50
157.508255
 51
202.491745
  0
ARC
  8
0
 62
     4
 10
107.236412
 20
35.300980
 40
1.335544
 50
206.918991
 51
246.406525
  0
ARC
  8
0
 62
     4
 10
109.000000
 20
39.441727
 40
5.836175
 50
246.810471
 51
293.189545
  0
ARC
  8
0
 62
     4
 10
110.763588
 20
35.300980
 40
1.335548
 50
293.593475
 51
333.081024
  0
ARC
  8
0
 62
     4
 10
124.921532
 20
34.923351
 40
0.478467
 50
337.421814
 51
22.447123
  0
ARC
  8
0
 62
     4
 10
124.411163
 20
34.623173
 40
1.067980
 50
26.880810
 51
66.367737
  0
ARC
  8
0
 62
     4
 10
122.995857
 20
31.307550
 40
4.673005
 50
66.766251
 51
113.102592
  0
ARC
  8
0
 62
     4
 10
121.588150
 20
34.626404
 40
1.067982
 50
113.501389
 51
152.987946
  0
ARC
  8
0
 62
     4
 10
121.078468
 20
34.927753
 40
0.478467
 50
157.421814
 51
202.447128
  0
ARC
  8
0
 62
     4
 10
121.588837
 20
35.227932
 40
1.067980
 50
206.880814
 51
246.367737
  0
ARC
  8
0
 62
     4
 10
123.004143
 20
38.543552
 40
4.673003
 50
246.766251
 51
293.102600
  0
ARC
  8
0
 62
     4
 10
124.411850
 20
35.224701
 40
1.067982
 50
293.501404
 51
332.987946
  0
ARC
  8
0
 62
     4
 10
125.400826
 20
34.925552
 40
0.599173
 50
337.508270
 51
22.491743
  0
ARC
  8
0
 62
     4
 10
124.763588
 20
34.550125
 40
1.335544
 50
26.918991
 51
66.406532
  0
ARC
  8
0
 62
     4
 10
123.000000
 20
30.409378
 40
5.836175
 50
66.810471
 51
113.189529
  0
ARC
  8
0
 62
     4
 10
121.236412
 20
34.550125
 40
1.335548
 50
113.593468
 51
153.081009
  0
ARC
  8
0
 62
     4
 10
120.599174
 20
34.925552
 40
0.599173
 50
157.508255
 51
202.491745
  0
ARC
  8
0
 62
     4
 10
121.236412
 20
35.300980
 40
1.335544
 50
206.918991
 51
246.406525
  0
ARC
  8
0
 62
     4
 10
123.000000
 20
39.441727
 40
5.836175
 50
246.810471
 51
293.189545
  0
ARC
  8
0
 62
     4
 10
124.763588
 20
35.300980
 40
1.335548
 50
293.593475
 51
333.081024
  0
ARC
  8
0
 62
     4
 10
201.439011
 20
36.880657
 40
3.446525
 50
213.083618
 51
223.423508
  0
ARC
  8
0
 62
     4
 10
202.000000
 20
37.525551
 40
4.298059
 50
224.526901
 51
315.473114
  0
ARC
  8
0
 62
     4
 10
202.560989
 20
36.880657
 40
3.446530
 50
316.576477
 51
326.931122
  0
TEXT
  8
0
 10
-369.785309
 20
256.649994
 40
9.000000
  1
SD CYLINDER
 50
0.000000
 41
1.052632
 51
0.000000
  7
STANDARD
  0
TEXT
  8
0
 10
242.014816
 20
-274.500000
 40
12.500000
  1
KOGANEI CORP.
 50
0.000000
 41
1.052632
 51
0.000000
  7
STANDARD
  0
TEXT
  8
0
 10
251.264664
 20
256.649994
 40
9.000000
  1
DATE: AUG ,1993
 50
0.000000
 41
1.052632
 51
0.000000
  7
STANDARD
  0
TEXT
  8
0
 10
-330.785309
 20
208.149994
 40
9.000000
  1
(WITH SENSOR SWITCH)
 50
0.000000
 41
1.052632
 51
0.000000
  7
STANDARD
  0
TEXT
  8
0
 10
-384.785309
 20
224.149994
 40
9.000000
  1
MODEL:KA0SDS140*100
 50
0.000000
 41
1.052632
 51
0.000000
  7
STANDARD
  0
ENDSEC
  0
EOF
