  0
SECTION
  2
HEADER
  0
ENDSEC
  0
SECTION
  2
TABLES
  0
TABLE
  2
LTYPE
 70
     4
  0
LTYPE
  2
CONTINUOUS
 70
    64
  3
Solid line
 72
    65
 73
     0
 40
0.000000
  0
LTYPE
  2
DASHED
 70
    64
  3
__ __ __ __ __ __ __ __ __ __ __ __ __ __ __
 72
    65
 73
     2
 40
3.500000
 49
2.000000
 49
-1.500000
  0
LTYPE
  2
CENTER
 70
    64
  3
____ _ ____ _ ____ _ ____ _ ____ _ ____ _ ____
 72
    65
 73
     4
 40
17.500000
 49
13.000000
 49
-1.500000
 49
1.500000
 49
-1.500000
  0
LTYPE
  2
PHANTOM
 70
    64
  3
_____ _ _ _____ _ _ _____ _ _ _____ _ _ ____  
 72
    65
 73
     6
 40
15.500000
 49
8.000000
 49
-1.500000
 49
1.500000
 49
-1.500000
 49
1.500000
 49
-1.500000
  0
LTYPE
  2
DASHED1
 70
    64
  3
__ __ __ __ __ __ __ __ __ __ __ __ __ __ __
 72
    65
 73
     2
 40
1.500000
 49
1.000000
 49
-0.500000
  0
LTYPE
  2
DASHED2
 70
    64
  3
__ __ __ __ __ __ __ __ __ __ __ __ __ __ __
 72
    65
 73
     2
 40
3.500000
 49
2.500000
 49
-1.000000
  0
LTYPE
  2
DASHED3
 70
    64
  3
__ __ __ __ __ __ __ __ __ __ __ __ __ __ __
 72
    65
 73
     2
 40
6.000000
 49
4.000000
 49
-2.000000
  0
LTYPE
  2
DASHED4
 70
    64
  3
__ __ __ __ __ __ __ __ __ __ __ __ __ __ __
 72
    65
 73
     2
 40
12.000000
 49
10.000000
 49
-2.000000
  0
LTYPE
  2
DASHED5
 70
    64
  3
__ __ __ __ __ __ __ __ __ __ __ __ __ __ __
 72
    65
 73
     2
 40
17.000000
 49
15.000000
 49
-2.000000
  0
LTYPE
  2
DASHED6
 70
    64
  3
__ __ __ __ __ __ __ __ __ __ __ __ __ __ __
 72
    65
 73
     2
 40
29.000000
 49
27.000000
 49
-2.000000
  0
LTYPE
  2
PHANTOM1
 70
    64
  3
_____ _ _ _____ _ _ _____ _ _ _____ _ _ ____  
 72
    65
 73
     6
 40
31.000000
 49
25.000000
 49
-1.500000
 49
1.000000
 49
-1.000000
 49
1.000000
 49
-1.500000
  0
LTYPE
  2
PHANTOM2
 70
    64
  3
_____ _ _ _____ _ _ _____ _ _ _____ _ _ ____  
 72
    65
 73
     6
 40
36.000000
 49
27.000000
 49
-1.500000
 49
2.500000
 49
-1.000000
 49
2.500000
 49
-1.500000
  0
LTYPE
  2
PHANTOM3
 70
    64
  3
_____ _ _ _____ _ _ _____ _ _ _____ _ _ ____  
 72
    65
 73
     6
 40
78.000000
 49
64.000000
 49
-2.000000
 49
4.000000
 49
-2.000000
 49
4.000000
 49
-2.000000
  0
LTYPE
  2
CENTER1
 70
    64
  3
____ _ ____ _ ____ _ ____ _ ____ _ ____ _ ____
 72
    65
 73
     4
 40
19.000000
 49
14.000000
 49
-1.000000
 49
3.000000
 49
-1.000000
  0
LTYPE
  2
CENTER2
 70
    64
  3
____ _ ____ _ ____ _ ____ _ ____ _ ____ _ ____
 72
    65
 73
     4
 40
28.500000
 49
25.000000
 49
-1.000000
 49
1.500000
 49
-1.000000
  0
LTYPE
  2
CENTER3
 70
    64
  3
____ _ ____ _ ____ _ ____ _ ____ _ ____ _ ____
 72
    65
 73
     4
 40
31.500000
 49
27.000000
 49
-1.000000
 49
2.500000
 49
-1.000000
  0
LTYPE
  2
CENTER4
 70
    64
  3
____ _ ____ _ ____ _ ____ _ ____ _ ____ _ ____
 72
    65
 73
     4
 40
50.000000
 49
45.000000
 49
-1.000000
 49
3.000000
 49
-1.000000
  0
LTYPE
  2
CENTER5
 70
    64
  3
____ _ ____ _ ____ _ ____ _ ____ _ ____ _ ____
 72
    65
 73
     4
 40
100.000000
 49
92.000000
 49
-2.000000
 49
4.000000
 49
-2.000000
  0
LTYPE
  2
SBK1
 70
    64
  3
______ _ _ _ ______ _ _ _ ______ _ _ _ _____  
 72
    65
 73
     8
 40
60.500000
 49
45.000000
 49
-2.000000
 49
2.500000
 49
-2.000000
 49
2.500000
 49
-2.000000
 49
2.500000
 49
-2.000000
  0
LTYPE
  2
SBK2
 70
    64
  3
______ _ _ _ ______ _ _ _ ______ _ _ _ _____  
 72
    65
 73
     8
 40
84.000000
 49
64.000000
 49
-2.000000
 49
4.000000
 49
-2.000000
 49
4.000000
 49
-2.000000
 49
4.000000
 49
-2.000000
  0
LTYPE
  2
STCH
 70
    64
  3
__ __ __ __ __ __ __ __ __ __ __ __ __ __ __
 72
    65
 73
     2
 40
3.000000
 49
1.000000
 49
-2.000000
  0
LTYPE
  2
MTCH
 70
    64
  3
_____ _ _ _____ _ _ _____ _ _ _____ _ _ ____  
 72
    65
 73
     6
 40
80.000000
 49
66.000000
 49
-2.000000
 49
4.000000
 49
-2.000000
 49
4.000000
 49
-2.000000
  0
ENDTAB
  0
TABLE
  2
LAYER
 70
     1
  0
LAYER
  2
0
 70
     0
 62
     7
  6
CONTINUOUS
  0
ENDTAB
  0
TABLE
  2
STYLE
 70
     1
  0
STYLE
  2
STANDARD
 70
     0
 40
0.000000
 41
1.000000
 50
0.000000
 71
     0
 42
0.200000
  3
txt
  4
BIGFONT
  0
ENDTAB
  0
TABLE
  2
VIEW
 70
     0
  0
ENDTAB
  0
ENDSEC
  0
SECTION
  2
BLOCKS
  0
ENDSEC
  0
SECTION
  2
ENTITIES
  0
LINE
  8
0
 10
399.799988
 20
276.250000
 11
399.799988
 21
-276.750000
  0
LINE
  8
0
 10
-399.250000
 20
276.250000
 11
-399.250000
 21
-276.750000
  0
LINE
  8
0
 10
-399.250000
 20
276.250000
 11
399.799988
 21
276.250000
  0
LINE
  8
0
 10
-399.250000
 20
-276.750000
 11
399.799988
 21
-276.750000
  0
LINE
  8
0
 10
239.799988
 20
-251.750000
 11
399.799988
 21
-251.750000
  0
LINE
  8
0
 10
239.799988
 20
251.250000
 11
399.799988
 21
251.250000
  0
LINE
  8
0
 10
-399.250000
 20
251.250000
 11
-239.250000
 21
251.250000
  0
LINE
  8
0
 10
239.799988
 20
-251.750000
 11
239.799988
 21
-276.750000
  0
LINE
  8
0
 10
239.799988
 20
251.250000
 11
239.799988
 21
276.250000
  0
LINE
  8
0
 10
-239.250000
 20
276.250000
 11
-239.250000
 21
251.250000
  0
LINE
  8
0
  6
CENTER
 62
     2
 10
-41.576790
 20
-130.000000
 11
294.399933
 21
-130.000000
  0
LINE
  8
0
 10
47.000000
 20
-102.000000
 11
47.000000
 21
-158.000000
  0
LINE
  8
0
 10
48.000000
 20
-101.000000
 11
48.000000
 21
-159.000000
  0
LINE
  8
0
 10
47.000008
 20
-102.000008
 11
48.000000
 21
-101.000023
  0
LINE
  8
0
 10
46.999996
 20
-157.999954
 11
48.000000
 21
-158.999954
  0
LINE
  8
0
 10
85.000000
 20
-39.000000
 11
85.000000
 21
-221.000000
  0
LINE
  8
0
 10
79.799988
 20
-86.000000
 11
79.799988
 21
-174.000000
  0
LINE
  8
0
 10
80.799988
 20
-85.000000
 11
80.799988
 21
-175.000000
  0
LINE
  8
0
 10
79.800034
 20
-85.999954
 11
80.799957
 21
-85.000008
  0
LINE
  8
0
 10
71.799988
 20
-97.783501
 11
71.799988
 21
-109.183495
  0
LINE
  8
0
 10
71.799988
 20
-150.816498
 11
71.799988
 21
-162.216507
  0
LINE
  8
0
 10
47.999992
 20
-100.999992
 11
71.799973
 21
-100.047997
  0
LINE
  8
0
 10
48.000000
 20
-159.000061
 11
71.799988
 21
-159.952057
  0
LINE
  8
0
 10
73.000000
 20
-93.500000
 11
73.000000
 21
-96.983498
  0
LINE
  8
0
  6
CENTER
 62
     2
 10
52.839630
 20
-58.000000
 11
326.284790
 21
-58.000000
  0
LINE
  8
0
  6
CENTER
 62
     2
 10
52.500000
 20
-202.000000
 11
322.799896
 21
-202.000000
  0
LINE
  8
0
 10
79.799980
 20
-174.000015
 11
80.800003
 21
-175.000015
  0
LINE
  8
0
  6
CENTER
 62
     2
 10
103.500000
 20
-33.750000
 11
103.500000
 21
-141.300003
  0
LINE
  8
0
 10
267.404816
 20
-129.250000
 11
277.595001
 21
-129.250000
  0
LINE
  8
0
 10
267.404816
 20
-130.750000
 11
277.595001
 21
-130.750000
  0
LINE
  8
0
  6
CENTER
 62
     2
 10
272.499908
 20
-34.368591
 11
272.499908
 21
-143.000000
  0
LINE
  8
0
 10
290.999908
 20
-39.000000
 11
290.999908
 21
-221.000000
  0
LINE
  8
0
 10
98.404907
 20
-129.250000
 11
108.595093
 21
-129.250000
  0
LINE
  8
0
 10
98.404907
 20
-130.750000
 11
108.595093
 21
-130.750000
  0
LINE
  8
0
 10
74.000000
 20
-92.500000
 11
79.799988
 21
-92.500000
  0
LINE
  8
0
 10
74.000000
 20
-167.500000
 11
79.799988
 21
-167.500000
  0
LINE
  8
0
 10
73.000000
 20
-109.983498
 11
73.000000
 21
-150.016510
  0
LINE
  8
0
 10
73.000000
 20
-163.016510
 11
73.000000
 21
-166.500000
  0
LINE
  8
0
 10
72.599991
 20
-163.016510
 11
79.799988
 21
-163.016510
  0
LINE
  8
0
 10
72.599991
 20
-150.016510
 11
79.799988
 21
-150.016510
  0
LINE
  8
0
 10
72.599991
 20
-96.983498
 11
79.799988
 21
-96.983498
  0
LINE
  8
0
 10
72.599991
 20
-109.983498
 11
79.799988
 21
-109.983498
  0
LINE
  8
0
 10
71.799995
 20
-97.783508
 11
72.599998
 21
-96.983505
  0
LINE
  8
0
 10
71.799980
 20
-109.183517
 11
72.599976
 21
-109.983513
  0
LINE
  8
0
 10
72.599968
 20
-150.016479
 11
71.799973
 21
-150.816467
  0
LINE
  8
0
 10
71.800003
 20
-162.216507
 11
72.600006
 21
-163.016510
  0
LINE
  8
0
 10
72.599968
 20
-96.983498
 11
72.599968
 21
-109.983498
  0
LINE
  8
0
 10
72.599983
 20
-150.016510
 11
72.599983
 21
-163.016510
  0
LINE
  8
0
 10
80.800011
 20
-175.000000
 11
85.000000
 21
-175.000000
  0
LINE
  8
0
 10
80.799957
 20
-85.000000
 11
85.000000
 21
-85.000000
  0
LINE
  8
0
 10
124.000000
 20
-39.000000
 11
124.000000
 21
-221.000000
  0
LINE
  8
0
 10
251.999908
 20
-39.000000
 11
251.999908
 21
-221.000000
  0
LINE
  8
0
 10
85.000000
 20
-221.000000
 11
124.000000
 21
-221.000000
  0
LINE
  8
0
 10
85.000000
 20
-39.000000
 11
124.000000
 21
-39.000000
  0
LINE
  8
0
 10
251.999908
 20
-39.000000
 11
290.999908
 21
-39.000000
  0
LINE
  8
0
 10
251.999908
 20
-221.000000
 11
290.999908
 21
-221.000000
  0
LINE
  8
0
  6
DASHED
 62
     2
 10
116.720695
 20
-39.000023
 11
116.228203
 21
-53.100029
  0
LINE
  8
0
  6
DASHED
 62
     2
 10
90.772163
 20
-53.100021
 11
90.279503
 21
-38.999996
  0
LINE
  8
0
  6
DASHED
 62
     2
 10
92.000000
 20
-40.500000
 11
115.000000
 21
-40.500000
  0
LINE
  8
0
  6
DASHED
 62
     2
 10
92.000000
 20
-40.500000
 11
92.000000
 21
-53.100006
  0
LINE
  8
0
  6
DASHED
 62
     2
 10
115.000000
 20
-40.500000
 11
115.000000
 21
-53.100006
  0
LINE
  8
0
  6
DASHED
 62
     2
 10
116.720512
 20
-39.000031
 11
115.000015
 21
-40.500031
  0
LINE
  8
0
  6
DASHED
 62
     2
 10
90.279633
 20
-38.999886
 11
92.000122
 21
-40.499886
  0
LINE
  8
0
  6
DASHED
 62
     2
 10
260.999908
 20
-40.500000
 11
260.999908
 21
-53.100006
  0
LINE
  8
0
  6
DASHED
 62
     2
 10
259.279633
 20
-38.999741
 11
261.000122
 21
-40.499741
  0
LINE
  8
0
  6
DASHED
 62
     2
 10
283.999847
 20
-53.350021
 11
284.000031
 21
-43.499985
  0
LINE
  8
0
  6
DASHED
 62
     2
 10
285.720490
 20
-39.000156
 11
284.000000
 21
-40.500160
  0
LINE
  8
0
  6
DASHED
 62
     2
 10
283.999908
 20
-40.500000
 11
283.999908
 21
-53.100006
  0
LINE
  8
0
  6
DASHED
 62
     2
 10
285.721008
 20
-39.000031
 11
285.228516
 21
-53.100044
  0
LINE
  8
0
  6
DASHED
 62
     2
 10
259.772034
 20
-53.100002
 11
259.279388
 21
-38.999996
  0
LINE
  8
0
  6
DASHED
 62
     2
 10
260.999908
 20
-40.500000
 11
283.999908
 21
-40.500000
  0
LINE
  8
0
 10
124.000000
 20
-215.000000
 11
217.000000
 21
-215.000000
  0
LINE
  8
0
 10
124.000000
 20
-45.000000
 11
131.000000
 21
-45.000000
  0
LINE
  8
0
 10
124.000000
 20
-66.000000
 11
131.000000
 21
-66.000000
  0
LINE
  8
0
 10
124.000000
 20
-50.000000
 11
131.000000
 21
-50.000000
  0
LINE
  8
0
 10
81.000000
 20
-215.499863
 11
85.000000
 21
-215.499863
  0
LINE
  8
0
 10
81.000000
 20
-188.499863
 11
85.000000
 21
-188.499863
  0
LINE
  8
0
 10
80.999908
 20
-188.149994
 11
80.999908
 21
-215.850006
  0
LINE
  8
0
 10
67.999908
 20
-190.500000
 11
67.999908
 21
-213.500000
  0
LINE
  8
0
 10
69.356781
 20
-215.849854
 11
81.000000
 21
-215.849854
  0
LINE
  8
0
 10
69.356781
 20
-188.149857
 11
81.000000
 21
-188.149857
  0
LINE
  8
0
 10
69.356781
 20
-195.074860
 11
81.000000
 21
-195.074860
  0
LINE
  8
0
 10
69.356781
 20
-208.924866
 11
81.000000
 21
-208.924866
  0
LINE
  8
0
 10
68.000038
 20
-190.500000
 11
69.356819
 21
-188.149994
  0
LINE
  8
0
 10
67.999969
 20
-213.499985
 11
69.356743
 21
-215.849991
  0
LINE
  8
0
 10
55.500000
 20
-209.999863
 11
68.000000
 21
-209.999863
  0
LINE
  8
0
 10
55.500000
 20
-193.999863
 11
68.000000
 21
-193.999863
  0
LINE
  8
0
 10
54.499908
 20
-195.000000
 11
54.499908
 21
-209.000000
  0
LINE
  8
0
 10
55.500038
 20
-193.999969
 11
54.500034
 21
-194.999985
  0
LINE
  8
0
 10
54.500057
 20
-208.999939
 11
55.500053
 21
-209.999939
  0
LINE
  8
0
 10
55.499878
 20
-194.000000
 11
55.499878
 21
-210.000000
  0
LINE
  8
0
 10
81.000000
 20
-71.500000
 11
85.000000
 21
-71.500000
  0
LINE
  8
0
 10
81.000000
 20
-44.500000
 11
85.000000
 21
-44.500000
  0
LINE
  8
0
 10
81.000000
 20
-44.149994
 11
81.000000
 21
-71.850006
  0
LINE
  8
0
 10
68.000000
 20
-46.500000
 11
68.000000
 21
-69.500000
  0
LINE
  8
0
 10
69.356773
 20
-71.850006
 11
81.000000
 21
-71.850006
  0
LINE
  8
0
 10
69.356773
 20
-44.149994
 11
81.000000
 21
-44.149994
  0
LINE
  8
0
 10
69.356773
 20
-51.074997
 11
81.000000
 21
-51.074997
  0
LINE
  8
0
 10
69.356773
 20
-64.925003
 11
81.000000
 21
-64.925003
  0
LINE
  8
0
 10
68.000000
 20
-46.499977
 11
69.356773
 21
-44.149979
  0
LINE
  8
0
 10
68.000046
 20
-69.499992
 11
69.356819
 21
-71.849991
  0
LINE
  8
0
 10
55.499996
 20
-66.000000
 11
68.000000
 21
-66.000000
  0
LINE
  8
0
 10
55.500000
 20
-50.000000
 11
68.000000
 21
-50.000000
  0
LINE
  8
0
 10
54.500000
 20
-51.000000
 11
54.500000
 21
-65.000000
  0
LINE
  8
0
 10
55.499992
 20
-50.000000
 11
54.499989
 21
-51.000004
  0
LINE
  8
0
 10
54.499981
 20
-65.000023
 11
55.499981
 21
-66.000031
  0
LINE
  8
0
 10
55.499962
 20
-50.000000
 11
55.499962
 21
-66.000000
  0
LINE
  8
0
 10
294.999908
 20
-44.500137
 11
290.999908
 21
-44.500137
  0
LINE
  8
0
 10
294.999908
 20
-71.500137
 11
290.999908
 21
-71.500137
  0
LINE
  8
0
 10
295.000000
 20
-71.850006
 11
295.000000
 21
-44.149994
  0
LINE
  8
0
 10
308.000000
 20
-69.500000
 11
308.000000
 21
-46.500000
  0
LINE
  8
0
 10
306.643127
 20
-44.150146
 11
294.999908
 21
-44.150146
  0
LINE
  8
0
 10
306.643127
 20
-71.850143
 11
294.999908
 21
-71.850143
  0
LINE
  8
0
 10
306.643127
 20
-64.925140
 11
294.999908
 21
-64.925140
  0
LINE
  8
0
 10
306.643127
 20
-51.075134
 11
294.999908
 21
-51.075134
  0
LINE
  8
0
 10
308.000153
 20
-69.500206
 11
306.643372
 21
-71.850220
  0
LINE
  8
0
 10
307.999939
 20
-46.499882
 11
306.643188
 21
-44.149879
  0
LINE
  8
0
 10
320.499908
 20
-50.000137
 11
307.999908
 21
-50.000137
  0
LINE
  8
0
 10
320.499908
 20
-66.000137
 11
307.999908
 21
-66.000137
  0
LINE
  8
0
 10
321.500000
 20
-65.000000
 11
321.500000
 21
-51.000000
  0
LINE
  8
0
 10
320.499786
 20
-65.999931
 11
321.499786
 21
-64.999931
  0
LINE
  8
0
 10
321.499695
 20
-51.000172
 11
320.499725
 21
-50.000168
  0
LINE
  8
0
 10
320.500031
 20
-66.000000
 11
320.500031
 21
-50.000000
  0
LINE
  8
0
 10
294.999908
 20
-188.500137
 11
290.999908
 21
-188.500137
  0
LINE
  8
0
 10
294.999908
 20
-215.500137
 11
290.999908
 21
-215.500137
  0
LINE
  8
0
 10
295.000000
 20
-215.850006
 11
295.000000
 21
-188.149994
  0
LINE
  8
0
 10
308.000000
 20
-213.500000
 11
308.000000
 21
-190.500000
  0
LINE
  8
0
 10
306.643127
 20
-188.150146
 11
294.999908
 21
-188.150146
  0
LINE
  8
0
 10
306.643127
 20
-215.850143
 11
294.999908
 21
-215.850143
  0
LINE
  8
0
 10
306.643127
 20
-208.925140
 11
294.999908
 21
-208.925140
  0
LINE
  8
0
 10
306.643127
 20
-195.075134
 11
294.999908
 21
-195.075134
  0
LINE
  8
0
 10
308.000153
 20
-213.500259
 11
306.643372
 21
-215.850266
  0
LINE
  8
0
 10
308.000000
 20
-190.499878
 11
306.643250
 21
-188.149918
  0
LINE
  8
0
 10
320.499908
 20
-194.000137
 11
307.999908
 21
-194.000137
  0
LINE
  8
0
 10
320.499908
 20
-210.000137
 11
307.999908
 21
-210.000137
  0
LINE
  8
0
 10
321.500000
 20
-209.000000
 11
321.500000
 21
-195.000000
  0
LINE
  8
0
 10
320.499725
 20
-209.999863
 11
321.499725
 21
-208.999863
  0
LINE
  8
0
 10
321.499847
 20
-195.000015
 11
320.499847
 21
-194.000046
  0
LINE
  8
0
 10
320.500031
 20
-210.000000
 11
320.500031
 21
-194.000000
  0
LINE
  8
0
 10
124.000000
 20
-210.000000
 11
217.000000
 21
-210.000000
  0
LINE
  8
0
 10
124.000000
 20
-194.000000
 11
217.000000
 21
-194.000000
  0
LINE
  8
0
 10
27.464096
 20
-110.000000
 11
47.000000
 21
-110.000000
  0
LINE
  8
0
 10
27.464104
 20
-150.000000
 11
47.000000
 21
-150.000000
  0
LINE
  8
0
 10
-34.250000
 20
-148.000000
 11
24.000000
 21
-148.000000
  0
LINE
  8
0
 10
-34.250000
 20
-112.000000
 11
24.000000
 21
-112.000000
  0
LINE
  8
0
 10
-35.000000
 20
-112.750000
 11
-35.000000
 21
-147.250000
  0
LINE
  8
0
 10
21.000000
 20
-112.000000
 11
21.000000
 21
-148.000000
  0
LINE
  8
0
 10
24.000000
 20
-112.000000
 11
24.000000
 21
-148.000000
  0
LINE
  8
0
 10
24.000006
 20
-148.000031
 11
27.464115
 21
-150.000031
  0
LINE
  8
0
 10
24.000006
 20
-112.000000
 11
27.464100
 21
-110.000008
  0
LINE
  8
0
 10
27.464111
 20
-110.000000
 11
27.464111
 21
-121.282204
  0
LINE
  8
0
 10
38.000000
 20
-121.282204
 11
38.000000
 21
-138.717804
  0
LINE
  8
0
 10
27.464096
 20
-121.282204
 11
38.000000
 21
-121.282204
  0
LINE
  8
0
 10
27.464100
 20
-138.717804
 11
38.000000
 21
-138.717804
  0
LINE
  8
0
 62
     2
 10
38.000015
 20
-121.282211
 11
27.464111
 21
-138.717819
  0
LINE
  8
0
 62
     2
 10
27.464090
 20
-121.282211
 11
38.000000
 21
-138.717804
  0
LINE
  8
0
 10
27.464111
 20
-138.717804
 11
27.464111
 21
-150.000000
  0
LINE
  8
0
 62
     2
 10
-35.000000
 20
-147.250000
 11
21.000000
 21
-147.250000
  0
LINE
  8
0
 62
     2
 10
21.000013
 20
-147.249969
 11
22.607204
 21
-147.999985
  0
LINE
  8
0
 62
     2
 10
54.499908
 20
-195.399872
 11
68.000000
 21
-195.399872
  0
LINE
  8
0
 62
     2
 10
54.499908
 20
-208.599869
 11
68.000000
 21
-208.599869
  0
LINE
  8
0
 62
     2
 10
54.500000
 20
-51.399994
 11
68.000000
 21
-51.399994
  0
LINE
  8
0
 62
     2
 10
54.500000
 20
-64.599998
 11
68.000000
 21
-64.599998
  0
LINE
  8
0
 62
     2
 10
321.500000
 20
-51.400131
 11
307.999908
 21
-51.400131
  0
LINE
  8
0
 62
     2
 10
321.500000
 20
-64.600136
 11
307.999908
 21
-64.600136
  0
LINE
  8
0
 62
     2
 10
321.500000
 20
-195.400131
 11
307.999908
 21
-195.400131
  0
LINE
  8
0
 62
     2
 10
321.500000
 20
-208.600143
 11
307.999908
 21
-208.600143
  0
LINE
  8
0
 62
     2
 10
21.000008
 20
-112.750031
 11
22.607195
 21
-112.000000
  0
LINE
  8
0
 62
     2
 10
-35.000000
 20
-112.750000
 11
21.000000
 21
-112.750000
  0
LINE
  8
0
 10
-35.000008
 20
-112.750015
 11
-34.250008
 21
-112.000015
  0
LINE
  8
0
 10
-35.000004
 20
-147.250015
 11
-34.250011
 21
-148.000015
  0
LINE
  8
0
 10
-34.250000
 20
-112.000000
 11
-34.250000
 21
-148.000000
  0
LINE
  8
0
 62
     4
 10
131.000000
 20
-41.300003
 11
159.000000
 21
-41.300003
  0
LINE
  8
0
 62
     4
 10
131.000000
 20
-63.600357
 11
159.000000
 21
-63.600357
  0
LINE
  8
0
 62
     4
 10
131.000000
 20
-79.728638
 11
159.000000
 21
-79.728638
  0
LINE
  8
0
 62
     4
 10
131.000000
 20
-86.056725
 11
142.428375
 21
-86.056725
  0
LINE
  8
0
 62
     4
 10
131.000000
 20
-41.300003
 11
131.000000
 21
-86.056725
  0
LINE
  8
0
 62
     4
 10
159.000000
 20
-41.300003
 11
159.000000
 21
-83.706284
  0
LINE
  8
0
 62
     4
 10
151.134003
 20
-46.206085
 11
152.865997
 21
-46.206085
  0
LINE
  8
0
 62
     4
 10
151.134003
 20
-48.882126
 11
152.865997
 21
-48.882126
  0
LINE
  8
0
 62
     4
 10
151.133972
 20
-46.206070
 11
150.267929
 21
-47.544086
  0
LINE
  8
0
 62
     4
 10
150.268051
 20
-47.544064
 11
151.134094
 21
-48.882084
  0
LINE
  8
0
 62
     4
 10
152.865921
 20
-46.206120
 11
153.731979
 21
-47.544136
  0
LINE
  8
0
 62
     4
 10
152.866058
 20
-48.882160
 11
153.732117
 21
-47.544140
  0
LINE
  8
0
 62
     4
 10
137.134003
 20
-46.206085
 11
138.865997
 21
-46.206085
  0
LINE
  8
0
 62
     4
 10
137.134003
 20
-48.882126
 11
138.865997
 21
-48.882126
  0
LINE
  8
0
 62
     4
 10
137.133972
 20
-46.206059
 11
136.267914
 21
-47.544090
  0
LINE
  8
0
 62
     4
 10
136.268036
 20
-47.544060
 11
137.134079
 21
-48.882080
  0
LINE
  8
0
 62
     4
 10
138.865936
 20
-46.206116
 11
139.731979
 21
-47.544132
  0
LINE
  8
0
 62
     4
 10
138.866043
 20
-48.882141
 11
139.732101
 21
-47.544109
  0
LINE
  8
0
 62
     4
 10
217.000000
 20
-173.943268
 11
228.429993
 21
-173.943268
  0
LINE
  8
0
 62
     4
 10
217.000000
 20
-180.271362
 11
245.000000
 21
-180.271362
  0
LINE
  8
0
 62
     4
 10
217.000000
 20
-196.399643
 11
245.000000
 21
-196.399643
  0
LINE
  8
0
 62
     4
 10
217.000000
 20
-218.699997
 11
245.000000
 21
-218.699997
  0
LINE
  8
0
 62
     4
 10
237.134003
 20
-211.117874
 11
238.865997
 21
-211.117874
  0
LINE
  8
0
 62
     4
 10
237.134003
 20
-213.793915
 11
238.865997
 21
-213.793915
  0
LINE
  8
0
 62
     4
 10
245.000000
 20
-173.943268
 11
245.000000
 21
-218.699997
  0
LINE
  8
0
 62
     4
 10
217.000000
 20
-173.943268
 11
217.000000
 21
-175.404938
  0
LINE
  8
0
 62
     4
 10
237.133911
 20
-211.117798
 11
236.267853
 21
-212.455856
  0
LINE
  8
0
 62
     4
 10
236.267960
 20
-212.455887
 11
237.134033
 21
-213.793930
  0
LINE
  8
0
 62
     4
 10
238.866013
 20
-213.793900
 11
239.732071
 21
-212.455887
  0
LINE
  8
0
 62
     4
 10
239.732040
 20
-212.455872
 11
238.866013
 21
-211.117874
  0
LINE
  8
0
 62
     4
 10
223.134003
 20
-211.117874
 11
224.865997
 21
-211.117874
  0
LINE
  8
0
 62
     4
 10
223.134003
 20
-213.793915
 11
224.865997
 21
-213.793915
  0
LINE
  8
0
 62
     4
 10
223.133926
 20
-211.117813
 11
222.267883
 21
-212.455826
  0
LINE
  8
0
 62
     4
 10
222.267929
 20
-212.455902
 11
223.134003
 21
-213.793945
  0
LINE
  8
0
 62
     4
 10
224.865997
 20
-213.793915
 11
225.732056
 21
-212.455902
  0
LINE
  8
0
 62
     4
 10
225.732010
 20
-212.455887
 11
224.865982
 21
-211.117889
  0
LINE
  8
0
 62
     4
 10
227.000000
 20
-175.329300
 11
227.000000
 21
-177.425552
  0
LINE
  8
0
 62
     4
 10
235.000000
 20
-175.329300
 11
235.000000
 21
-177.425552
  0
LINE
  8
0
 62
     4
 10
233.571625
 20
-173.943268
 11
245.000000
 21
-173.943268
  0
LINE
  8
0
 62
     4
 10
129.500000
 20
-81.079033
 11
129.500000
 21
-85.111099
  0
LINE
  8
0
 62
     4
 10
246.500000
 20
-174.888901
 11
246.500000
 21
-178.920959
  0
LINE
  8
0
 62
     4
 10
143.238022
 20
-85.642799
 11
146.761917
 21
-84.698570
  0
LINE
  8
0
 62
     4
 10
143.238037
 20
-84.698563
 11
146.761932
 21
-85.642784
  0
LINE
  8
0
 62
     4
 10
221.500000
 20
-176.024902
 11
227.000000
 21
-176.024902
  0
LINE
  8
0
 62
     4
 10
221.500000
 20
-174.216888
 11
227.845612
 21
-174.216888
  0
LINE
  8
0
 62
     4
 10
221.500000
 20
-174.216888
 11
221.500000
 21
-176.293716
  0
LINE
  8
0
 62
     4
 10
234.153870
 20
-174.216888
 11
245.000000
 21
-174.216888
  0
LINE
  8
0
 62
     4
 10
235.000000
 20
-176.024902
 11
245.000000
 21
-176.024902
  0
LINE
  8
0
 62
     4
 10
217.000000
 20
-176.293716
 11
227.000000
 21
-176.293716
  0
LINE
  8
0
 62
     4
 10
192.000000
 20
-175.404938
 11
221.500000
 21
-175.404938
  0
LINE
  8
0
 62
     4
 10
195.000000
 20
-178.404938
 11
217.000000
 21
-178.404938
  0
LINE
  8
0
 62
     4
 10
192.000046
 20
-175.404953
 11
195.000031
 21
-178.404938
  0
LINE
  8
0
 62
     4
 10
235.000000
 20
-176.293716
 11
245.000000
 21
-176.293716
  0
LINE
  8
0
 62
     4
 10
217.000000
 20
-174.395279
 11
221.500000
 21
-174.395279
  0
LINE
  8
0
 62
     4
 10
217.000000
 20
-176.293716
 11
217.000000
 21
-218.699997
  0
LINE
  8
0
 62
     4
 10
141.000000
 20
-82.574440
 11
141.000000
 21
-84.670700
  0
LINE
  8
0
 62
     4
 10
149.000000
 20
-82.574440
 11
149.000000
 21
-84.670700
  0
LINE
  8
0
 62
     4
 10
147.570007
 20
-86.056725
 11
159.000000
 21
-86.056725
  0
LINE
  8
0
 62
     4
 10
229.238022
 20
-175.301376
 11
232.761902
 21
-174.357147
  0
LINE
  8
0
 62
     4
 10
229.238098
 20
-174.357162
 11
232.761978
 21
-175.301376
  0
LINE
  8
0
 62
     4
 10
245.000015
 20
-174.216904
 11
246.500000
 21
-174.888916
  0
LINE
  8
0
 62
     4
 10
245.000000
 20
-176.024826
 11
246.500000
 21
-176.244827
  0
LINE
  8
0
 62
     4
 10
244.999985
 20
-179.592911
 11
246.499985
 21
-178.920929
  0
LINE
  8
0
 62
     4
 10
154.500000
 20
-83.706284
 11
154.500000
 21
-85.783112
  0
LINE
  8
0
 62
     4
 10
130.999969
 20
-80.407013
 11
129.499969
 21
-81.079010
  0
LINE
  8
0
 62
     4
 10
131.000000
 20
-83.975090
 11
141.000000
 21
-83.975090
  0
LINE
  8
0
 62
     4
 10
131.000000
 20
-85.783112
 11
141.846161
 21
-85.783112
  0
LINE
  8
0
 62
     4
 10
129.500000
 20
-83.755089
 11
131.000015
 21
-83.975082
  0
LINE
  8
0
 62
     4
 10
131.000015
 20
-85.783104
 11
129.500015
 21
-85.111099
  0
LINE
  8
0
 62
     4
 10
149.000000
 20
-83.975090
 11
154.500000
 21
-83.975090
  0
LINE
  8
0
 62
     4
 10
148.154388
 20
-85.783112
 11
154.500000
 21
-85.783112
  0
LINE
  8
0
 62
     4
 10
131.000000
 20
-83.706284
 11
141.000000
 21
-83.706284
  0
LINE
  8
0
 62
     4
 10
149.000000
 20
-83.706284
 11
159.000000
 21
-83.706284
  0
LINE
  8
0
 62
     4
 10
154.500000
 20
-85.604721
 11
159.000000
 21
-85.604721
  0
LINE
  8
0
 62
     4
 10
159.000000
 20
-81.595062
 11
182.267944
 21
-81.595062
  0
LINE
  8
0
 62
     4
 10
154.500000
 20
-84.595062
 11
184.000000
 21
-84.595062
  0
LINE
  8
0
 62
     4
 10
159.000000
 20
-84.595062
 11
159.000000
 21
-86.056725
  0
LINE
  8
0
 62
     4
 10
184.000076
 20
-84.594994
 11
182.268036
 21
-81.595016
  0
LINE
  8
0
 10
245.000000
 20
-194.000000
 11
251.999908
 21
-194.000000
  0
LINE
  8
0
 10
245.000000
 20
-210.000000
 11
251.999908
 21
-210.000000
  0
LINE
  8
0
 10
245.000000
 20
-215.000000
 11
251.999908
 21
-215.000000
  0
LINE
  8
0
 10
159.000000
 20
-45.000000
 11
251.999908
 21
-45.000000
  0
LINE
  8
0
 10
159.000000
 20
-50.000000
 11
251.999908
 21
-50.000000
  0
LINE
  8
0
 10
159.000000
 20
-66.000000
 11
251.999908
 21
-66.000000
  0
LINE
  8
0
  6
CENTER
 62
     2
 10
-332.826416
 20
-130.000000
 11
-133.090500
 21
-130.000000
  0
LINE
  8
0
  6
CENTER
 62
     2
 10
-235.000000
 20
-33.827896
 11
-235.000000
 21
-227.810089
  0
LINE
  8
0
 10
-262.413177
 20
-153.170578
 11
-259.067108
 21
-154.067154
  0
LINE
  8
0
 10
-263.966095
 20
-158.966125
 11
-260.620026
 21
-159.862701
  0
LINE
  8
0
 10
-264.862488
 20
-155.619812
 11
-263.965912
 21
-158.965897
  0
LINE
  8
0
 10
-259.066925
 20
-154.067001
 11
-258.170380
 21
-157.413025
  0
LINE
  8
0
 10
-260.619843
 20
-159.862579
 11
-258.170380
 21
-157.413132
  0
LINE
  8
0
 10
-264.862488
 20
-155.620010
 11
-262.412994
 21
-153.170517
  0
LINE
  8
0
 10
-260.619843
 20
-100.137329
 11
-258.170349
 21
-102.586830
  0
LINE
  8
0
 10
-258.170502
 20
-102.586952
 11
-259.067108
 21
-105.933029
  0
LINE
  8
0
 10
-263.966217
 20
-101.033936
 11
-264.862793
 21
-104.379990
  0
LINE
  8
0
 10
-260.619934
 20
-100.137375
 11
-263.966003
 21
-101.033951
  0
LINE
  8
0
 10
-259.067017
 20
-105.932945
 11
-262.413025
 21
-106.829506
  0
LINE
  8
0
 10
-264.862396
 20
-104.380005
 11
-262.412964
 21
-106.829460
  0
LINE
  8
0
 10
-207.586792
 20
-153.170349
 11
-205.137299
 21
-155.619843
  0
LINE
  8
0
 10
-205.137482
 20
-155.619873
 11
-206.034058
 21
-158.965958
  0
LINE
  8
0
 10
-210.933136
 20
-154.066986
 11
-211.829712
 21
-157.413025
  0
LINE
  8
0
 10
-207.586868
 20
-153.170410
 11
-210.932938
 21
-154.066986
  0
LINE
  8
0
 10
-206.034012
 20
-158.965988
 11
-209.380035
 21
-159.862549
  0
LINE
  8
0
 10
-211.829453
 20
-157.413010
 11
-209.379990
 21
-159.862488
  0
LINE
  8
0
 10
-211.829437
 20
-102.586960
 11
-209.379944
 21
-100.137466
  0
LINE
  8
0
 10
-209.380081
 20
-100.137489
 11
-206.034012
 21
-101.034073
  0
LINE
  8
0
 10
-210.933044
 20
-105.932983
 11
-207.586945
 21
-106.829575
  0
LINE
  8
0
 10
-211.829544
 20
-102.586891
 11
-210.932968
 21
-105.932968
  0
LINE
  8
0
 10
-206.033859
 20
-101.033997
 11
-205.137299
 21
-104.380013
  0
LINE
  8
0
 10
-207.586823
 20
-106.829536
 11
-205.137344
 21
-104.380066
  0
LINE
  8
0
 10
-326.000000
 20
-39.000000
 11
-144.000000
 21
-39.000000
  0
LINE
  8
0
 10
-326.000000
 20
-221.000000
 11
-144.000000
 21
-221.000000
  0
LINE
  8
0
 10
-144.000000
 20
-39.000000
 11
-144.000000
 21
-221.000000
  0
LINE
  8
0
 10
-326.000000
 20
-39.000000
 11
-326.000000
 21
-221.000000
  0
LINE
  8
0
  6
CENTER
 62
     2
 10
-307.000000
 20
-187.213333
 11
-307.000000
 21
-217.026672
  0
LINE
  8
0
  6
CENTER
 62
     2
 10
-321.455475
 20
-202.000000
 11
-293.569427
 21
-202.000000
  0
LINE
  8
0
 10
-319.000000
 20
-195.071793
 11
-319.000000
 21
-208.928192
  0
LINE
  8
0
 10
-295.000000
 20
-195.071793
 11
-295.000000
 21
-208.928192
  0
LINE
  8
0
 10
-295.000061
 20
-208.928192
 11
-307.000031
 21
-215.856384
  0
LINE
  8
0
 10
-307.000031
 20
-188.143539
 11
-319.000031
 21
-195.071747
  0
LINE
  8
0
 10
-318.999908
 20
-208.928162
 11
-306.999939
 21
-215.856339
  0
LINE
  8
0
 10
-306.999969
 20
-188.143524
 11
-294.999939
 21
-195.071716
  0
LINE
  8
0
 10
-318.999969
 20
-64.928139
 11
-306.999969
 21
-71.856323
  0
LINE
  8
0
 10
-306.999969
 20
-44.143578
 11
-294.999908
 21
-51.071800
  0
LINE
  8
0
  6
CENTER
 62
     2
 10
-307.000000
 20
-43.213333
 11
-307.000000
 21
-73.026665
  0
LINE
  8
0
  6
CENTER
 62
     2
 10
-321.455475
 20
-58.000000
 11
-293.569427
 21
-58.000000
  0
LINE
  8
0
 10
-319.000000
 20
-51.071793
 11
-319.000000
 21
-64.928192
  0
LINE
  8
0
 10
-295.000000
 20
-51.071793
 11
-295.000000
 21
-64.928192
  0
LINE
  8
0
 10
-295.000092
 20
-64.928139
 11
-307.000092
 21
-71.856354
  0
LINE
  8
0
 10
-307.000061
 20
-44.143490
 11
-319.000061
 21
-51.071705
  0
LINE
  8
0
 10
-174.999969
 20
-64.928185
 11
-163.000000
 21
-71.856369
  0
LINE
  8
0
 10
-162.999985
 20
-44.143585
 11
-150.999985
 21
-51.071781
  0
LINE
  8
0
  6
CENTER
 62
     2
 10
-163.000000
 20
-43.213333
 11
-163.000000
 21
-73.026665
  0
LINE
  8
0
  6
CENTER
 62
     2
 10
-177.455475
 20
-58.000000
 11
-149.569427
 21
-58.000000
  0
LINE
  8
0
 10
-175.000000
 20
-51.071793
 11
-175.000000
 21
-64.928192
  0
LINE
  8
0
 10
-151.000000
 20
-51.071793
 11
-151.000000
 21
-64.928192
  0
LINE
  8
0
 10
-151.000061
 20
-64.928131
 11
-163.000046
 21
-71.856331
  0
LINE
  8
0
 10
-163.000061
 20
-44.143528
 11
-175.000061
 21
-51.071743
  0
LINE
  8
0
 10
-174.999954
 20
-208.928146
 11
-162.999985
 21
-215.856323
  0
LINE
  8
0
 10
-162.999969
 20
-188.143539
 11
-150.999954
 21
-195.071747
  0
LINE
  8
0
  6
CENTER
 62
     2
 10
-163.000000
 20
-187.213333
 11
-163.000000
 21
-217.026672
  0
LINE
  8
0
  6
CENTER
 62
     2
 10
-177.455475
 20
-202.000000
 11
-149.569427
 21
-202.000000
  0
LINE
  8
0
 10
-175.000000
 20
-195.071793
 11
-175.000000
 21
-208.928192
  0
LINE
  8
0
 10
-151.000000
 20
-195.071793
 11
-151.000000
 21
-208.928192
  0
LINE
  8
0
 10
-151.000000
 20
-208.928192
 11
-163.000000
 21
-215.856400
  0
LINE
  8
0
 10
-163.000015
 20
-188.143555
 11
-175.000015
 21
-195.071762
  0
LINE
  8
0
 10
-253.000000
 20
-121.282204
 11
-253.000000
 21
-138.717804
  0
LINE
  8
0
 10
-217.000000
 20
-121.282204
 11
-217.000000
 21
-138.717804
  0
LINE
  8
0
  6
DASHED
 62
     1
 10
-174.878342
 20
-51.018181
 11
-166.290192
 21
-67.966454
  0
LINE
  8
0
  6
DASHED
 62
     1
 10
-152.909943
 20
-61.186325
 11
-166.290146
 21
-67.966438
  0
LINE
  8
0
  6
DASHED
 62
     1
 10
-178.892380
 20
-53.052216
 11
-162.168106
 21
-86.056747
  0
LINE
  8
0
  6
DASHED
 62
     1
 10
-155.699997
 20
-41.299992
 11
-161.498093
 21
-44.238041
  0
LINE
  8
0
  6
DASHED
 62
     1
 10
-149.679916
 20
-79.728622
 11
-157.529648
 21
-83.706291
  0
LINE
  8
0
  6
DASHED
 62
     1
 10
-161.498108
 20
-44.238075
 11
-152.909958
 21
-61.186348
  0
LINE
  8
0
  6
DASHED
 62
     1
 10
-144.399841
 20
-63.600368
 11
-149.679932
 21
-79.728638
  0
LINE
  8
0
  6
DASHED
 62
     1
 10
-174.878296
 20
-51.018150
 11
-178.892365
 21
-53.052185
  0
LINE
  8
0
  6
DASHED
 62
     1
 10
-162.993713
 20
-82.215088
 11
-161.185684
 21
-85.783142
  0
LINE
  8
0
  6
DASHED
 62
     1
 10
-159.247269
 20
-80.316635
 11
-162.993729
 21
-82.215065
  0
LINE
  8
0
  6
DASHED
 62
     1
 10
-161.276108
 20
-85.604721
 11
-162.168121
 21
-86.056725
  0
LINE
  8
0
  6
CENTER
 62
     1
 10
-155.607071
 20
-81.305756
 11
-152.821259
 21
-86.803436
  0
LINE
  8
0
  6
DASHED
 62
     1
 10
-178.892380
 20
-53.052216
 11
-162.168106
 21
-86.056747
  0
LINE
  8
0
  6
DASHED
 62
     1
 10
-151.284332
 20
-80.765854
 11
-161.185699
 21
-85.783142
  0
LINE
  8
0
  6
DASHED
 62
     1
 10
-159.247284
 20
-80.316650
 11
-157.529663
 21
-83.706306
  0
LINE
  8
0
  6
CENTER
 62
     1
 10
-152.020630
 20
-47.282967
 11
-165.229721
 21
-53.976368
  0
LINE
  8
0
  6
DASHED
 62
     1
 10
-161.099747
 20
-51.883614
 11
-157.067673
 21
-53.203636
  0
LINE
  8
0
  6
DASHED
 62
     1
 10
-159.779816
 20
-47.851532
 11
-161.099823
 21
-51.883591
  0
LINE
  8
0
  6
DASHED
 62
     1
 10
-159.418854
 20
-48.341297
 11
-160.043747
 21
-48.657944
  0
LINE
  8
0
  6
DASHED
 62
     1
 10
-157.249237
 20
-52.622997
 11
-157.874130
 21
-52.939644
  0
LINE
  8
0
  6
DASHED
 62
     1
 10
-155.700012
 20
-41.300007
 11
-144.399811
 21
-63.600368
  0
LINE
  8
0
  6
DASHED
 62
     1
 10
-159.690063
 20
-47.806080
 11
-159.779755
 21
-47.851524
  0
LINE
  8
0
  6
DASHED
 62
     1
 10
-156.978043
 20
-53.158195
 11
-157.067719
 21
-53.203640
  0
LINE
  8
0
  6
DASHED
 62
     1
 10
-162.321762
 20
-82.435097
 11
-160.965744
 21
-85.111137
  0
LINE
  8
0
  6
DASHED
 62
     1
 10
-159.645691
 20
-81.079063
 11
-158.289658
 21
-83.755104
  0
LINE
  8
0
  6
DASHED
 62
     1
 10
-158.289627
 20
-83.755074
 11
-160.965668
 21
-85.111092
  0
LINE
  8
0
  6
DASHED
 62
     1
 10
-159.645645
 20
-81.079033
 11
-162.321701
 21
-82.435059
  0
LINE
  8
0
  6
DASHED
 62
     1
 10
-162.321701
 20
-82.435081
 11
-162.993713
 21
-82.215080
  0
LINE
  8
0
  6
DASHED
 62
     1
 10
-160.965683
 20
-85.111092
 11
-161.185684
 21
-85.783104
  0
LINE
  8
0
  6
DASHED
 62
     1
 10
-159.425659
 20
-80.407013
 11
-159.645660
 21
-81.079025
  0
LINE
  8
0
  6
DASHED
 62
     1
 10
-150.332764
 20
-82.862091
 11
-157.471146
 21
-86.479301
  0
LINE
  8
0
  6
DASHED
 62
     1
 10
-158.289642
 20
-83.755096
 11
-157.617630
 21
-83.975105
  0
LINE
  8
0
  6
DASHED
 62
     1
 10
-159.425659
 20
-80.407043
 11
-157.617630
 21
-83.975105
  0
LINE
  8
0
  6
DASHED
 62
     1
 10
-158.598846
 20
-84.472298
 11
-158.327652
 21
-85.007507
  0
LINE
  8
0
  6
DASHED
 62
     1
 10
-151.284363
 20
-80.765862
 11
-151.013153
 21
-81.301071
  0
LINE
  8
0
  6
DASHED
 62
     1
 10
-151.013107
 20
-81.301033
 11
-158.327637
 21
-85.007500
  0
LINE
  8
0
  6
DASHED
 62
     1
 10
-158.372253
 20
-85.030128
 11
-157.471176
 21
-86.479324
  0
LINE
  8
0
  6
DASHED
 62
     1
 10
-150.968536
 20
-81.278442
 11
-150.332794
 21
-82.862091
  0
LINE
  8
0
  6
DASHED
 62
     1
 10
-174.878235
 20
-208.981766
 11
-166.289948
 21
-192.033524
  0
LINE
  8
0
  6
DASHED
 62
     1
 10
-152.909836
 20
-198.813690
 11
-166.289963
 21
-192.033478
  0
LINE
  8
0
  6
DASHED
 62
     1
 10
-178.892334
 20
-206.947678
 11
-162.167801
 21
-173.943283
  0
LINE
  8
0
  6
DASHED
 62
     1
 10
-155.700058
 20
-218.700104
 11
-161.498123
 21
-215.761993
  0
LINE
  8
0
  6
DASHED
 62
     1
 10
-149.679687
 20
-180.271469
 11
-157.529358
 21
-176.293747
  0
LINE
  8
0
  6
DASHED
 62
     1
 10
-161.498154
 20
-215.761932
 11
-152.909897
 21
-198.813736
  0
LINE
  8
0
  6
DASHED
 62
     1
 10
-144.399490
 20
-196.399689
 11
-149.679459
 21
-180.271362
  0
LINE
  8
0
  6
DASHED
 62
     1
 10
-174.878204
 20
-208.981644
 11
-178.892242
 21
-206.947556
  0
LINE
  8
0
  6
DASHED
 62
     1
 10
-162.993469
 20
-177.784897
 11
-161.185410
 21
-174.216873
  0
LINE
  8
0
  6
DASHED
 62
     1
 10
-159.247009
 20
-179.683395
 11
-162.993469
 21
-177.784927
  0
LINE
  8
0
  6
DASHED
 62
     1
 10
-161.275833
 20
-174.395325
 11
-162.167862
 21
-173.943298
  0
LINE
  8
0
  6
CENTER
 62
     1
 10
-155.606827
 20
-178.694260
 11
-152.820969
 21
-173.196609
  0
LINE
  8
0
  6
DASHED
 62
     1
 10
-178.892334
 20
-206.947678
 11
-162.167801
 21
-173.943283
  0
LINE
  8
0
  6
DASHED
 62
     1
 10
-151.283997
 20
-179.234100
 11
-161.185303
 21
-174.216736
  0
LINE
  8
0
  6
DASHED
 62
     1
 10
-159.246964
 20
-179.683350
 11
-157.529312
 21
-176.293701
  0
LINE
  8
0
  6
CENTER
 62
     1
 10
-152.020599
 20
-212.717102
 11
-165.229645
 21
-206.023621
  0
LINE
  8
0
  6
DASHED
 62
     1
 10
-161.099655
 20
-208.116455
 11
-157.067566
 21
-206.796478
  0
LINE
  8
0
  6
DASHED
 62
     1
 10
-159.779800
 20
-212.148468
 11
-161.099808
 21
-208.116409
  0
LINE
  8
0
  6
DASHED
 62
     1
 10
-159.418793
 20
-211.658539
 11
-160.043655
 21
-211.341904
  0
LINE
  8
0
  6
DASHED
 62
     1
 10
-157.249252
 20
-207.377182
 11
-157.874161
 21
-207.060532
  0
LINE
  8
0
  6
DASHED
 62
     1
 10
-155.700043
 20
-218.700089
 11
-144.399673
 21
-196.399765
  0
LINE
  8
0
  6
DASHED
 62
     1
 10
-159.690125
 20
-212.194000
 11
-159.779816
 21
-212.148560
  0
LINE
  8
0
  6
DASHED
 62
     1
 10
-156.977997
 20
-206.841904
 11
-157.067688
 21
-206.796463
  0
LINE
  8
0
  6
DASHED
 62
     1
 10
-162.321426
 20
-177.564911
 11
-160.965378
 21
-174.888870
  0
LINE
  8
0
  6
DASHED
 62
     1
 10
-159.645370
 20
-178.920944
 11
-158.289337
 21
-176.244888
  0
LINE
  8
0
  6
DASHED
 62
     1
 10
-158.289337
 20
-176.244919
 11
-160.965378
 21
-174.888916
  0
LINE
  8
0
  6
DASHED
 62
     1
 10
-159.645370
 20
-178.920853
 11
-162.321396
 21
-177.564804
  0
LINE
  8
0
  6
DASHED
 62
     1
 10
-162.321457
 20
-177.564835
 11
-162.993484
 21
-177.784866
  0
LINE
  8
0
  6
DASHED
 62
     1
 10
-160.965469
 20
-174.888916
 11
-161.185471
 21
-174.216919
  0
LINE
  8
0
  6
DASHED
 62
     1
 10
-159.425339
 20
-179.592926
 11
-159.645340
 21
-178.920898
  0
LINE
  8
0
  6
DASHED
 62
     1
 10
-150.332489
 20
-177.137970
 11
-157.470810
 21
-173.520691
  0
LINE
  8
0
  6
DASHED
 62
     1
 10
-158.289398
 20
-176.244873
 11
-157.617371
 21
-176.024872
  0
LINE
  8
0
  6
DASHED
 62
     1
 10
-159.425430
 20
-179.592972
 11
-157.617386
 21
-176.024933
  0
LINE
  8
0
  6
DASHED
 62
     1
 10
-158.598602
 20
-175.527710
 11
-158.327362
 21
-174.992508
  0
LINE
  8
0
  6
DASHED
 62
     1
 10
-151.284073
 20
-179.234222
 11
-151.012833
 21
-178.699036
  0
LINE
  8
0
  6
DASHED
 62
     1
 10
-151.012787
 20
-178.698914
 11
-158.327271
 21
-174.992355
  0
LINE
  8
0
  6
DASHED
 62
     1
 10
-158.371964
 20
-174.969971
 11
-157.470856
 21
-173.520782
  0
LINE
  8
0
  6
DASHED
 62
     1
 10
-150.968185
 20
-178.721588
 11
-150.332428
 21
-177.137939
  0
LINE
  8
0
  6
CENTER
 62
     2
 10
-41.576790
 20
110.000000
 11
294.399933
 21
110.000000
  0
LINE
  8
0
 10
47.000000
 20
138.000000
 11
47.000000
 21
82.000000
  0
LINE
  8
0
 10
48.000000
 20
139.000000
 11
48.000000
 21
81.000000
  0
LINE
  8
0
 10
47.000011
 20
138.000000
 11
48.000008
 21
138.999985
  0
LINE
  8
0
 10
46.999973
 20
81.999985
 11
47.999977
 21
80.999985
  0
LINE
  8
0
 10
85.000000
 20
201.000000
 11
85.000000
 21
19.000000
  0
LINE
  8
0
 10
79.799988
 20
154.000000
 11
79.799988
 21
66.000000
  0
LINE
  8
0
 10
80.799988
 20
155.000000
 11
80.799988
 21
65.000000
  0
LINE
  8
0
 10
79.800056
 20
153.999985
 11
80.799980
 21
154.999939
  0
LINE
  8
0
 10
71.799988
 20
142.216492
 11
71.799988
 21
130.816498
  0
LINE
  8
0
 10
71.799988
 20
89.183502
 11
71.799988
 21
77.783493
  0
LINE
  8
0
 10
47.999996
 20
138.999954
 11
71.799965
 21
139.951950
  0
LINE
  8
0
 10
48.000004
 20
80.999985
 11
71.799988
 21
80.047981
  0
LINE
  8
0
 10
73.000000
 20
146.500000
 11
73.000000
 21
143.016510
  0
LINE
  8
0
  6
CENTER
 62
     2
 10
52.839630
 20
182.000000
 11
326.284790
 21
182.000000
  0
LINE
  8
0
  6
CENTER
 62
     2
 10
52.500000
 20
38.000000
 11
322.799896
 21
38.000000
  0
LINE
  8
0
 10
79.799980
 20
65.999977
 11
80.799995
 21
64.999977
  0
LINE
  8
0
  6
CENTER
 62
     2
 10
272.499908
 20
125.000000
 11
272.499908
 21
95.000000
  0
LINE
  8
0
 10
290.999908
 20
201.000000
 11
290.999908
 21
19.000000
  0
LINE
  8
0
 10
74.000000
 20
147.500000
 11
79.799988
 21
147.500000
  0
LINE
  8
0
 10
74.000000
 20
72.500000
 11
79.799988
 21
72.500000
  0
LINE
  8
0
 10
73.000000
 20
130.016510
 11
73.000000
 21
89.983490
  0
LINE
  8
0
 10
73.000000
 20
76.983490
 11
73.000000
 21
73.500000
  0
LINE
  8
0
 10
72.599991
 20
76.983490
 11
79.799988
 21
76.983490
  0
LINE
  8
0
 10
72.599991
 20
89.983490
 11
79.799988
 21
89.983490
  0
LINE
  8
0
 10
72.599991
 20
143.016510
 11
79.799988
 21
143.016510
  0
LINE
  8
0
 10
72.599991
 20
130.016510
 11
79.799988
 21
130.016510
  0
LINE
  8
0
 10
71.799995
 20
142.216537
 11
72.599991
 21
143.016525
  0
LINE
  8
0
 10
71.799973
 20
130.816483
 11
72.599960
 21
130.016479
  0
LINE
  8
0
 10
72.599953
 20
89.983513
 11
71.799957
 21
89.183517
  0
LINE
  8
0
 10
71.800011
 20
77.783508
 11
72.600014
 21
76.983498
  0
LINE
  8
0
 10
72.599968
 20
143.016510
 11
72.599968
 21
130.016510
  0
LINE
  8
0
 10
72.599983
 20
89.983490
 11
72.599983
 21
76.983490
  0
LINE
  8
0
 10
80.800011
 20
65.000000
 11
85.000000
 21
65.000000
  0
LINE
  8
0
 10
80.799957
 20
155.000000
 11
85.000000
 21
155.000000
  0
LINE
  8
0
 10
124.000000
 20
201.000000
 11
124.000000
 21
19.000000
  0
LINE
  8
0
 10
251.999908
 20
201.000000
 11
251.999908
 21
19.000000
  0
LINE
  8
0
 10
85.000000
 20
19.000000
 11
124.000000
 21
19.000000
  0
LINE
  8
0
 10
85.000000
 20
201.000000
 11
124.000000
 21
201.000000
  0
LINE
  8
0
 10
251.999908
 20
201.000000
 11
290.999908
 21
201.000000
  0
LINE
  8
0
 10
251.999908
 20
19.000000
 11
290.999908
 21
19.000000
  0
LINE
  8
0
 10
124.000000
 20
25.000000
 11
131.000000
 21
25.000000
  0
LINE
  8
0
 10
124.000000
 20
195.000000
 11
251.999908
 21
195.000000
  0
LINE
  8
0
 10
124.000000
 20
174.000000
 11
251.999908
 21
174.000000
  0
LINE
  8
0
 10
124.000000
 20
190.000000
 11
251.999908
 21
190.000000
  0
LINE
  8
0
 10
80.999908
 20
24.500137
 11
85.000000
 21
24.500137
  0
LINE
  8
0
 10
80.999908
 20
51.500137
 11
85.000000
 21
51.500137
  0
LINE
  8
0
 10
55.500000
 20
30.000137
 11
68.000000
 21
30.000137
  0
LINE
  8
0
 10
55.500000
 20
46.000137
 11
68.000000
 21
46.000137
  0
LINE
  8
0
 10
54.499908
 20
45.000000
 11
54.499908
 21
31.000000
  0
LINE
  8
0
 10
55.500038
 20
45.999992
 11
54.500034
 21
44.999992
  0
LINE
  8
0
 10
54.500061
 20
31.000046
 11
55.500057
 21
30.000042
  0
LINE
  8
0
 10
55.499878
 20
46.000000
 11
55.499878
 21
30.000000
  0
LINE
  8
0
 10
81.000000
 20
168.500000
 11
85.000000
 21
168.500000
  0
LINE
  8
0
 10
81.000000
 20
195.500000
 11
85.000000
 21
195.500000
  0
LINE
  8
0
 10
55.499996
 20
174.000000
 11
68.000000
 21
174.000000
  0
LINE
  8
0
 10
55.500000
 20
190.000000
 11
68.000000
 21
190.000000
  0
LINE
  8
0
 10
54.500000
 20
189.000000
 11
54.500000
 21
175.000000
  0
LINE
  8
0
 10
55.499989
 20
189.999985
 11
54.499989
 21
188.999985
  0
LINE
  8
0
 10
54.499966
 20
174.999954
 11
55.499966
 21
173.999954
  0
LINE
  8
0
 10
55.499962
 20
190.000000
 11
55.499962
 21
174.000000
  0
LINE
  8
0
 10
294.999908
 20
195.499863
 11
290.999908
 21
195.499863
  0
LINE
  8
0
 10
294.999908
 20
168.499863
 11
290.999908
 21
168.499863
  0
LINE
  8
0
 10
320.499908
 20
189.999863
 11
307.999908
 21
189.999863
  0
LINE
  8
0
 10
320.499908
 20
173.999863
 11
307.999908
 21
173.999863
  0
LINE
  8
0
 10
321.500000
 20
175.000000
 11
321.500000
 21
189.000000
  0
LINE
  8
0
 10
320.499786
 20
174.000107
 11
321.499756
 21
175.000076
  0
LINE
  8
0
 10
321.499695
 20
188.999832
 11
320.499695
 21
189.999832
  0
LINE
  8
0
 10
320.500031
 20
174.000000
 11
320.500031
 21
190.000000
  0
LINE
  8
0
 10
294.999908
 20
51.499863
 11
290.999908
 21
51.499863
  0
LINE
  8
0
 10
294.999908
 20
24.499863
 11
290.999908
 21
24.499863
  0
LINE
  8
0
 10
320.499908
 20
45.999863
 11
307.999908
 21
45.999863
  0
LINE
  8
0
 10
320.499908
 20
29.999863
 11
307.999908
 21
29.999863
  0
LINE
  8
0
 10
321.500000
 20
31.000000
 11
321.500000
 21
45.000000
  0
LINE
  8
0
 10
320.499695
 20
30.000107
 11
321.499695
 21
31.000109
  0
LINE
  8
0
 10
321.499817
 20
44.999973
 11
320.499847
 21
45.999954
  0
LINE
  8
0
 10
320.500031
 20
30.000000
 11
320.500031
 21
46.000000
  0
LINE
  8
0
 10
124.000000
 20
30.000000
 11
131.000000
 21
30.000000
  0
LINE
  8
0
 10
124.000000
 20
46.000000
 11
251.999908
 21
46.000000
  0
LINE
  8
0
 10
39.154701
 20
130.000000
 11
47.000000
 21
130.000000
  0
LINE
  8
0
 10
-34.250000
 20
92.000000
 11
38.000000
 21
92.000000
  0
LINE
  8
0
 10
-34.250000
 20
128.000000
 11
38.000000
 21
128.000000
  0
LINE
  8
0
 10
-35.000000
 20
127.250000
 11
-35.000000
 21
92.750000
  0
LINE
  8
0
 10
21.000000
 20
128.000000
 11
21.000000
 21
92.000000
  0
LINE
  8
0
 10
24.000000
 20
128.000000
 11
24.000000
 21
92.000000
  0
LINE
  8
0
 10
27.464111
 20
128.000000
 11
27.464111
 21
92.000000
  0
LINE
  8
0
 62
     2
 10
-35.000000
 20
92.750000
 11
21.000000
 21
92.750000
  0
LINE
  8
0
 62
     2
 10
21.000011
 20
92.750015
 11
22.607203
 21
91.999992
  0
LINE
  8
0
 62
     2
 10
54.499908
 20
44.600128
 11
68.000000
 21
44.600128
  0
LINE
  8
0
 62
     2
 10
54.499908
 20
31.400131
 11
68.000000
 21
31.400131
  0
LINE
  8
0
 62
     2
 10
54.500000
 20
188.600006
 11
68.000000
 21
188.600006
  0
LINE
  8
0
 62
     2
 10
54.500000
 20
175.399994
 11
68.000000
 21
175.399994
  0
LINE
  8
0
 62
     2
 10
321.500000
 20
188.599869
 11
307.999908
 21
188.599869
  0
LINE
  8
0
 62
     2
 10
321.500000
 20
175.399872
 11
307.999908
 21
175.399872
  0
LINE
  8
0
 62
     2
 10
321.500000
 20
44.599869
 11
307.999908
 21
44.599869
  0
LINE
  8
0
 62
     2
 10
321.500000
 20
31.399857
 11
307.999908
 21
31.399857
  0
LINE
  8
0
 62
     2
 10
20.999996
 20
127.249969
 11
22.607191
 21
128.000000
  0
LINE
  8
0
 62
     2
 10
-35.000000
 20
127.250000
 11
21.000000
 21
127.250000
  0
LINE
  8
0
 10
-35.000050
 20
127.250046
 11
-34.250046
 21
128.000046
  0
LINE
  8
0
 10
-35.000011
 20
92.750000
 11
-34.250019
 21
92.000000
  0
LINE
  8
0
 10
-34.250000
 20
128.000000
 11
-34.250000
 21
92.000000
  0
LINE
  8
0
 10
38.000000
 20
127.999992
 11
39.154705
 21
130.000000
  0
LINE
  8
0
 10
38.000004
 20
92.000008
 11
39.154709
 21
90.000000
  0
LINE
  8
0
 10
39.154701
 20
90.000000
 11
47.000000
 21
90.000000
  0
LINE
  8
0
  6
CENTER
 62
     2
 10
103.500000
 20
125.000000
 11
103.500000
 21
95.000000
  0
LINE
  8
0
 10
68.000000
 20
194.000000
 11
81.000000
 21
194.000000
  0
LINE
  8
0
 10
69.071793
 20
182.000000
 11
81.000000
 21
182.000000
  0
LINE
  8
0
 10
68.000000
 20
194.000000
 11
68.000000
 21
170.000000
  0
LINE
  8
0
 10
68.000000
 20
170.000000
 11
81.000000
 21
170.000000
  0
LINE
  8
0
 10
81.000000
 20
195.500000
 11
81.000000
 21
168.500000
  0
LINE
  8
0
 10
67.999908
 20
50.000000
 11
80.999908
 21
50.000000
  0
LINE
  8
0
 10
69.071701
 20
38.000000
 11
80.999908
 21
38.000000
  0
LINE
  8
0
 10
67.999908
 20
49.999996
 11
67.999908
 21
26.000000
  0
LINE
  8
0
 10
67.999908
 20
26.000000
 11
80.999908
 21
26.000000
  0
LINE
  8
0
 10
80.999908
 20
51.500137
 11
80.999908
 21
24.500137
  0
LINE
  8
0
 10
307.999908
 20
194.000000
 11
294.999908
 21
194.000000
  0
LINE
  8
0
 10
306.928101
 20
182.000000
 11
294.999908
 21
182.000000
  0
LINE
  8
0
 10
307.999908
 20
194.000000
 11
307.999908
 21
170.000000
  0
LINE
  8
0
 10
307.999908
 20
170.000000
 11
294.999908
 21
170.000000
  0
LINE
  8
0
 10
294.999908
 20
195.500000
 11
294.999908
 21
168.500000
  0
LINE
  8
0
 10
308.000000
 20
50.000000
 11
295.000000
 21
50.000000
  0
LINE
  8
0
 10
306.928223
 20
38.000000
 11
295.000000
 21
38.000000
  0
LINE
  8
0
 10
308.000000
 20
49.999996
 11
308.000000
 21
26.000000
  0
LINE
  8
0
 10
308.000000
 20
26.000000
 11
295.000000
 21
26.000000
  0
LINE
  8
0
 10
295.000000
 20
51.500137
 11
295.000000
 21
24.500137
  0
LINE
  8
0
 62
     4
 10
131.000000
 20
53.892365
 11
159.000000
 21
53.892365
  0
LINE
  8
0
 62
     4
 10
131.000000
 20
49.878311
 11
159.000000
 21
49.878311
  0
LINE
  8
0
 62
     4
 10
131.000000
 20
36.498093
 11
159.000000
 21
36.498093
  0
LINE
  8
0
 62
     4
 10
131.000000
 20
30.700012
 11
159.000000
 21
30.700012
  0
LINE
  8
0
 62
     4
 10
131.000000
 20
19.399811
 11
159.000000
 21
19.399811
  0
LINE
  8
0
 62
     4
 10
131.000000
 20
53.892365
 11
131.000000
 21
46.000000
  0
LINE
  8
0
 62
     4
 10
159.000000
 20
53.892365
 11
159.000000
 21
46.000000
  0
LINE
  8
0
 62
     4
 10
131.000000
 20
36.498093
 11
131.000000
 21
19.399811
  0
LINE
  8
0
 62
     4
 10
159.000000
 20
36.498093
 11
159.000000
 21
19.399811
  0
LINE
  8
0
 62
     4
 10
151.134003
 20
28.213959
 11
152.865997
 21
28.213959
  0
LINE
  8
0
 62
     4
 10
151.134003
 20
26.857941
 11
152.865997
 21
26.857941
  0
LINE
  8
0
 62
     4
 10
151.134018
 20
28.213928
 11
150.267975
 21
27.535917
  0
LINE
  8
0
 62
     4
 10
151.134003
 20
26.857924
 11
150.267960
 21
27.535936
  0
LINE
  8
0
 62
     4
 10
152.866058
 20
28.214029
 11
153.732117
 21
27.536018
  0
LINE
  8
0
 62
     4
 10
152.866028
 20
26.857985
 11
153.732086
 21
27.535997
  0
LINE
  8
0
 62
     4
 10
137.134003
 20
28.213959
 11
138.865997
 21
28.213959
  0
LINE
  8
0
 62
     4
 10
137.134003
 20
26.857941
 11
138.865997
 21
26.857941
  0
LINE
  8
0
 62
     4
 10
137.134033
 20
28.213943
 11
136.267990
 21
27.535933
  0
LINE
  8
0
 62
     4
 10
137.134003
 20
26.857948
 11
136.267960
 21
27.535961
  0
LINE
  8
0
 62
     4
 10
138.866058
 20
28.214010
 11
139.732117
 21
27.535999
  0
LINE
  8
0
 62
     4
 10
138.866013
 20
26.857967
 11
139.732056
 21
27.535980
  0
LINE
  8
0
 62
     4
 10
217.000000
 20
25.000000
 11
217.000000
 21
19.399811
  0
LINE
  8
0
 62
     4
 10
245.000000
 20
25.000000
 11
245.000000
 21
19.399811
  0
LINE
  8
0
 62
     4
 10
217.000000
 20
24.679825
 11
245.000000
 21
24.679825
  0
LINE
  8
0
 62
     4
 10
217.000000
 20
19.399811
 11
245.000000
 21
19.399811
  0
LINE
  8
0
 10
159.000000
 20
30.000000
 11
251.999908
 21
30.000000
  0
LINE
  8
0
 10
159.000000
 20
25.000000
 11
251.999908
 21
25.000000
  0
ARC
  8
0
 10
74.000000
 20
-93.500000
 40
1.000000
 50
90.000000
 51
180.000000
  0
ARC
  8
0
 10
74.000000
 20
-166.500000
 40
1.000000
 50
180.000000
 51
270.000000
  0
CIRCLE
  8
0
 10
103.500000
 20
-130.000000
 40
7.950000
  0
CIRCLE
  8
0
 10
272.499908
 20
-130.000000
 40
7.950000
  0
CIRCLE
  8
0
 10
103.500000
 20
-130.000000
 40
5.150000
  0
CIRCLE
  8
0
 10
272.499908
 20
-130.000000
 40
5.150000
  0
ARC
  8
0
 10
73.096527
 20
-191.612488
 40
5.096536
 50
137.204651
 51
222.795410
  0
ARC
  8
0
 10
86.351044
 20
-202.000000
 40
18.351048
 50
157.829620
 51
202.170425
  0
ARC
  8
0
 10
73.096527
 20
-212.387497
 40
5.096536
 50
137.204651
 51
222.795410
  0
ARC
  8
0
 10
73.096535
 20
-68.387497
 40
5.096536
 50
137.204651
 51
222.795349
  0
ARC
  8
0
 10
86.351051
 20
-58.000000
 40
18.351051
 50
157.829590
 51
202.170395
  0
ARC
  8
0
 10
73.096535
 20
-47.612488
 40
5.096536
 50
137.204651
 51
222.795441
  0
ARC
  8
0
 10
302.903381
 20
-47.612503
 40
5.096522
 50
317.204559
 51
42.795471
  0
ARC
  8
0
 10
289.648865
 20
-58.000000
 40
18.351065
 50
337.829620
 51
22.170425
  0
ARC
  8
0
 10
302.903381
 20
-68.387512
 40
5.096525
 50
317.204529
 51
42.795536
  0
ARC
  8
0
 10
302.903381
 20
-191.612503
 40
5.096525
 50
317.204529
 51
42.795471
  0
ARC
  8
0
 10
289.648865
 20
-202.000000
 40
18.351061
 50
337.829651
 51
22.170437
  0
ARC
  8
0
 10
302.903381
 20
-212.387512
 40
5.096525
 50
317.204529
 51
42.795471
  0
ARC
  8
0
 10
36.701717
 20
-130.000000
 40
12.701718
 50
136.658310
 51
223.341675
  0
ARC
  8
0
 10
13.416679
 20
-130.000000
 40
26.083323
 50
340.474335
 51
19.525663
  0
ARC
  8
0
 10
-265.720642
 20
-110.289772
 40
0.999999
 50
58.297192
 51
147.315308
  0
CIRCLE
  8
0
 10
-235.000000
 20
-130.000000
 40
30.000000
  0
ARC
  8
0
 10
-235.000000
 20
-130.000000
 40
37.500000
 50
0.000000
 51
32.684067
  0
ARC
  8
0
 10
-261.516510
 20
-156.516510
 40
7.000000
 50
0.000000
 51
121.703087
  0
ARC
  8
0
 10
-261.516510
 20
-103.483498
 40
7.000000
 50
0.000000
 51
31.702862
  0
ARC
  8
0
 10
-208.483490
 20
-103.483498
 40
7.000000
 50
148.297089
 51
301.702911
  0
ARC
  8
0
 10
-235.000000
 20
-130.000000
 40
37.499996
 50
57.315914
 51
122.684113
  0
ARC
  8
0
 10
-215.289764
 20
-99.279381
 40
0.999999
 50
328.297180
 51
57.315781
  0
ARC
  8
0
 10
-204.279358
 20
-110.289772
 40
1.000000
 50
32.684219
 51
121.702805
  0
ARC
  8
0
 10
-235.000000
 20
-130.000000
 40
37.499996
 50
327.315948
 51
0.000000
  0
ARC
  8
0
 10
-208.483490
 20
-156.516510
 40
7.000000
 50
58.297085
 51
211.702911
  0
ARC
  8
0
 10
-204.279358
 20
-149.710236
 40
0.999999
 50
238.297195
 51
327.315765
  0
ARC
  8
0
 10
-215.289764
 20
-160.720627
 40
1.000000
 50
302.684235
 51
31.702808
  0
ARC
  8
0
 10
-235.000000
 20
-130.000000
 40
37.500000
 50
237.315887
 51
302.684082
  0
ARC
  8
0
 10
-261.516510
 20
-156.516510
 40
7.000000
 50
328.297089
 51
0.000000
  0
ARC
  8
0
 10
-254.710236
 20
-160.720627
 40
0.999999
 50
148.297195
 51
237.315781
  0
ARC
  8
0
 10
-265.720642
 20
-149.710236
 40
1.000013
 50
212.683746
 51
301.702820
  0
ARC
  8
0
 10
-235.000000
 20
-130.000000
 40
37.499996
 50
147.315948
 51
212.684021
  0
ARC
  8
0
 10
-261.516510
 20
-103.483498
 40
7.000001
 50
238.296951
 51
0.000000
  0
ARC
  8
0
 10
-254.710236
 20
-99.279381
 40
1.000000
 50
122.684219
 51
211.703186
  0
CIRCLE
  8
0
 10
-235.000000
 20
-130.000000
 40
45.000000
  0
CIRCLE
  8
0
 10
-261.516510
 20
-156.516510
 40
6.500000
  0
CIRCLE
  8
0
 10
-208.483490
 20
-156.516510
 40
6.500000
  0
CIRCLE
  8
0
 10
-208.483490
 20
-103.483498
 40
6.500000
  0
CIRCLE
  8
0
 10
-261.516510
 20
-103.483498
 40
6.500000
  0
CIRCLE
  8
0
 10
-307.000000
 20
-202.000000
 40
8.000000
  0
CIRCLE
  8
0
 10
-163.000000
 20
-202.000000
 40
8.000000
  0
CIRCLE
  8
0
 10
-163.000000
 20
-58.000000
 40
8.000000
  0
CIRCLE
  8
0
 10
-307.000000
 20
-58.000000
 40
8.000000
  0
CIRCLE
  8
0
 10
-307.000000
 20
-202.000000
 40
11.500000
  0
CIRCLE
  8
0
 10
-307.000000
 20
-58.000000
 40
11.500000
  0
CIRCLE
  8
0
 10
-163.000000
 20
-58.000000
 40
11.500000
  0
CIRCLE
  8
0
 10
-163.000000
 20
-202.000000
 40
11.500000
  0
CIRCLE
  8
0
 10
-235.000000
 20
-130.000000
 40
20.000000
  0
CIRCLE
  8
0
 10
-235.000000
 20
-130.000000
 40
18.000000
  0
CIRCLE
  8
0
 62
     2
 10
-307.000000
 20
-202.000000
 40
6.600000
  0
CIRCLE
  8
0
 62
     2
 10
-163.000000
 20
-202.000000
 40
6.600000
  0
CIRCLE
  8
0
 62
     2
 10
-163.000000
 20
-58.000000
 40
6.600000
  0
CIRCLE
  8
0
 62
     2
 10
-307.000000
 20
-58.000000
 40
6.600000
  0
CIRCLE
  8
0
 62
     2
 10
-235.000000
 20
-130.000000
 40
17.250000
  0
CIRCLE
  8
0
  6
DASHED
 62
     1
 10
-160.305664
 20
-176.904938
 40
1.500000
  0
ARC
  8
0
  6
DASHED
 62
     1
 10
-158.244095
 20
-76.101700
 40
10.406347
 50
274.259674
 51
296.872589
  0
ARC
  8
0
  6
DASHED
 62
     1
 10
-158.244095
 20
-76.101700
 40
10.406348
 50
296.872589
 51
319.485443
  0
ARC
  8
0
  6
DASHED
 62
     1
 10
-158.243866
 20
-183.898285
 40
10.406356
 50
63.126972
 51
85.739830
  0
ARC
  8
0
  6
DASHED
 62
     1
 10
-158.243866
 20
-183.898285
 40
10.406342
 50
40.514133
 51
63.126972
  0
ARC
  8
0
 10
74.000000
 20
146.500000
 40
1.000000
 50
90.000000
 51
180.000000
  0
ARC
  8
0
 10
74.000000
 20
73.500000
 40
1.000000
 50
180.000000
 51
270.000000
  0
CIRCLE
  8
0
 62
     2
 10
272.499908
 20
110.000000
 40
13.220500
  0
CIRCLE
  8
0
 10
272.499908
 20
110.000000
 40
12.058500
  0
CIRCLE
  8
0
 62
     2
 10
103.500000
 20
110.000000
 40
13.220500
  0
CIRCLE
  8
0
 10
103.500000
 20
110.000000
 40
12.058500
  0
ARC
  8
0
 10
85.330116
 20
188.000000
 40
17.330120
 50
159.743835
 51
200.256119
  0
ARC
  8
0
 10
85.330116
 20
176.000000
 40
17.330118
 50
159.743774
 51
200.256058
  0
ARC
  8
0
 10
85.330025
 20
44.000000
 40
17.330120
 50
159.743851
 51
200.256134
  0
ARC
  8
0
 10
85.330025
 20
32.000000
 40
17.330118
 50
159.743790
 51
200.256073
  0
ARC
  8
0
 10
290.669800
 20
188.000000
 40
17.330128
 50
339.743835
 51
20.256109
  0
ARC
  8
0
 10
290.669800
 20
176.000000
 40
17.330122
 50
339.743896
 51
20.256157
  0
ARC
  8
0
 10
290.669891
 20
44.000000
 40
17.330128
 50
339.743835
 51
20.256109
  0
ARC
  8
0
 10
290.669891
 20
32.000000
 40
17.330122
 50
339.743896
 51
20.256157
  0
ARC
  8
0
 62
     4
 10
152.485703
 20
-47.546104
 40
1.914294
 50
348.562897
 51
10.964089
  0
ARC
  8
0
 62
     4
 10
152.356628
 20
-47.583027
 40
2.048065
 50
11.291389
 51
43.421455
  0
ARC
  8
0
 62
     4
 10
151.998138
 20
-47.994659
 40
2.591920
 50
44.583500
 51
134.943298
  0
ARC
  8
0
 62
     4
 10
151.643066
 20
-47.580078
 40
2.048071
 50
136.105499
 51
168.235626
  0
ARC
  8
0
 62
     4
 10
151.514297
 20
-47.542091
 40
1.914294
 50
168.562912
 51
190.964096
  0
ARC
  8
0
 62
     4
 10
151.643372
 20
-47.505169
 40
2.048065
 50
191.291382
 51
223.421463
  0
ARC
  8
0
 62
     4
 10
152.001862
 20
-47.093536
 40
2.591920
 50
224.583496
 51
314.943298
  0
ARC
  8
0
 62
     4
 10
152.356934
 20
-47.508118
 40
2.048071
 50
316.105499
 51
348.235626
  0
ARC
  8
0
 62
     4
 10
152.608276
 20
-47.545269
 40
2.391720
 50
348.686523
 51
11.093255
  0
ARC
  8
0
 62
     4
 10
152.446732
 20
-47.591877
 40
2.559255
 50
11.421346
 51
43.555843
  0
ARC
  8
0
 62
     4
 10
151.998917
 20
-48.108498
 40
3.240448
 50
44.719799
 51
135.060043
  0
ARC
  8
0
 62
     4
 10
151.553085
 20
-47.590157
 40
2.559263
 50
136.223984
 51
168.358383
  0
ARC
  8
0
 62
     4
 10
151.391724
 20
-47.542927
 40
2.391720
 50
168.686523
 51
191.093262
  0
ARC
  8
0
 62
     4
 10
151.553268
 20
-47.496319
 40
2.559255
 50
191.421341
 51
223.555847
  0
ARC
  8
0
 62
     4
 10
152.001083
 20
-46.979698
 40
3.240448
 50
224.719803
 51
315.060059
  0
ARC
  8
0
 62
     4
 10
152.446915
 20
-47.498039
 40
2.559263
 50
316.223969
 51
348.358398
  0
ARC
  8
0
 62
     4
 10
138.485703
 20
-47.546104
 40
1.914294
 50
348.562897
 51
10.964089
  0
ARC
  8
0
 62
     4
 10
138.356628
 20
-47.583027
 40
2.048065
 50
11.291389
 51
43.421455
  0
ARC
  8
0
 62
     4
 10
137.998138
 20
-47.994659
 40
2.591920
 50
44.583500
 51
134.943298
  0
ARC
  8
0
 62
     4
 10
137.643066
 20
-47.580078
 40
2.048071
 50
136.105499
 51
168.235626
  0
ARC
  8
0
 62
     4
 10
137.514297
 20
-47.542091
 40
1.914294
 50
168.562912
 51
190.964096
  0
ARC
  8
0
 62
     4
 10
137.643372
 20
-47.505169
 40
2.048065
 50
191.291382
 51
223.421463
  0
ARC
  8
0
 62
     4
 10
138.001862
 20
-47.093536
 40
2.591920
 50
224.583496
 51
314.943298
  0
ARC
  8
0
 62
     4
 10
138.356934
 20
-47.508118
 40
2.048071
 50
316.105499
 51
348.235626
  0
ARC
  8
0
 62
     4
 10
138.608276
 20
-47.545269
 40
2.391720
 50
348.686523
 51
11.093255
  0
ARC
  8
0
 62
     4
 10
138.446732
 20
-47.591877
 40
2.559255
 50
11.421346
 51
43.555843
  0
ARC
  8
0
 62
     4
 10
137.998917
 20
-48.108498
 40
3.240448
 50
44.719799
 51
135.060043
  0
ARC
  8
0
 62
     4
 10
137.553085
 20
-47.590157
 40
2.559263
 50
136.223984
 51
168.358383
  0
ARC
  8
0
 62
     4
 10
137.391724
 20
-47.542927
 40
2.391720
 50
168.686523
 51
191.093262
  0
ARC
  8
0
 62
     4
 10
137.553268
 20
-47.496319
 40
2.559255
 50
191.421341
 51
223.555847
  0
ARC
  8
0
 62
     4
 10
138.001083
 20
-46.979698
 40
3.240448
 50
224.719803
 51
315.060059
  0
ARC
  8
0
 62
     4
 10
138.446915
 20
-47.498039
 40
2.559263
 50
316.223969
 51
348.358398
  0
ARC
  8
0
 62
     4
 10
238.488068
 20
-212.455154
 40
1.911927
 50
348.880890
 51
11.296212
  0
ARC
  8
0
 62
     4
 10
238.358582
 20
-212.493011
 40
2.046359
 50
11.625474
 51
43.767052
  0
ARC
  8
0
 62
     4
 10
238.000702
 20
-212.908936
 40
2.593054
 50
44.933960
 51
135.242935
  0
ARC
  8
0
 62
     4
 10
237.641541
 20
-212.494110
 40
2.046359
 50
136.410034
 51
168.551575
  0
ARC
  8
0
 62
     4
 10
237.511932
 20
-212.456650
 40
1.911927
 50
168.880905
 51
191.296219
  0
ARC
  8
0
 62
     4
 10
237.641418
 20
-212.418793
 40
2.046359
 50
191.625473
 51
223.767044
  0
ARC
  8
0
 62
     4
 10
237.999298
 20
-212.002869
 40
2.593054
 50
224.933960
 51
315.242950
  0
ARC
  8
0
 62
     4
 10
238.358459
 20
-212.417694
 40
2.046359
 50
316.410034
 51
348.551575
  0
ARC
  8
0
 62
     4
 10
238.610138
 20
-212.455902
 40
2.389861
 50
348.792297
 51
11.207698
  0
ARC
  8
0
 62
     4
 10
238.448196
 20
-212.502991
 40
2.557909
 50
11.537300
 51
43.679096
  0
ARC
  8
0
 62
     4
 10
238.000000
 20
-213.022263
 40
3.241346
 50
44.846088
 51
135.153915
  0
ARC
  8
0
 62
     4
 10
237.551804
 20
-212.502991
 40
2.557910
 50
136.320908
 51
168.462708
  0
ARC
  8
0
 62
     4
 10
237.389862
 20
-212.455902
 40
2.389861
 50
168.792297
 51
191.207703
  0
ARC
  8
0
 62
     4
 10
237.551804
 20
-212.408813
 40
2.557909
 50
191.537292
 51
223.679092
  0
ARC
  8
0
 62
     4
 10
238.000000
 20
-211.889542
 40
3.241346
 50
224.846085
 51
315.153900
  0
ARC
  8
0
 62
     4
 10
238.448196
 20
-212.408813
 40
2.557910
 50
316.320892
 51
348.462708
  0
ARC
  8
0
 62
     4
 10
224.488068
 20
-212.455154
 40
1.911927
 50
348.880890
 51
11.296212
  0
ARC
  8
0
 62
     4
 10
224.358582
 20
-212.493011
 40
2.046359
 50
11.625474
 51
43.767052
  0
ARC
  8
0
 62
     4
 10
224.000702
 20
-212.908936
 40
2.593054
 50
44.933960
 51
135.242935
  0
ARC
  8
0
 62
     4
 10
223.641541
 20
-212.494110
 40
2.046359
 50
136.410034
 51
168.551575
  0
ARC
  8
0
 62
     4
 10
223.511932
 20
-212.456650
 40
1.911927
 50
168.880905
 51
191.296219
  0
ARC
  8
0
 62
     4
 10
223.641418
 20
-212.418793
 40
2.046359
 50
191.625473
 51
223.767044
  0
ARC
  8
0
 62
     4
 10
223.999298
 20
-212.002869
 40
2.593054
 50
224.933960
 51
315.242950
  0
ARC
  8
0
 62
     4
 10
224.358459
 20
-212.417694
 40
2.046359
 50
316.410034
 51
348.551575
  0
ARC
  8
0
 62
     4
 10
224.610138
 20
-212.455902
 40
2.389861
 50
348.792297
 51
11.207698
  0
ARC
  8
0
 62
     4
 10
224.448196
 20
-212.502991
 40
2.557909
 50
11.537300
 51
43.679096
  0
ARC
  8
0
 62
     4
 10
224.000000
 20
-213.022263
 40
3.241346
 50
44.846088
 51
135.153915
  0
ARC
  8
0
 62
     4
 10
223.551804
 20
-212.502991
 40
2.557910
 50
136.320908
 51
168.462708
  0
ARC
  8
0
 62
     4
 10
223.389862
 20
-212.455902
 40
2.389861
 50
168.792297
 51
191.207703
  0
ARC
  8
0
 62
     4
 10
223.551804
 20
-212.408813
 40
2.557909
 50
191.537292
 51
223.679092
  0
ARC
  8
0
 62
     4
 10
224.000000
 20
-211.889542
 40
3.241346
 50
224.846085
 51
315.153900
  0
ARC
  8
0
 62
     4
 10
224.448196
 20
-212.408813
 40
2.557910
 50
316.320892
 51
348.462708
  0
ARC
  8
0
 62
     4
 10
227.841919
 20
-177.425552
 40
0.841919
 50
180.000000
 51
201.902451
  0
ARC
  8
0
 62
     4
 10
228.680161
 20
-176.944977
 40
1.803842
 50
206.137177
 51
245.629211
  0
ARC
  8
0
 62
     4
 10
231.000000
 20
-171.644531
 40
7.589610
 50
246.188232
 51
293.811768
  0
ARC
  8
0
 62
     4
 10
233.319839
 20
-176.944977
 40
1.803845
 50
294.370789
 51
333.862823
  0
ARC
  8
0
 62
     4
 10
234.158081
 20
-177.425552
 40
0.841912
 50
338.097534
 51
0.000000
  0
ARC
  8
0
 62
     4
 10
234.158081
 20
-175.329300
 40
0.841912
 50
338.097534
 51
21.902452
  0
ARC
  8
0
 62
     4
 10
233.319839
 20
-175.809875
 40
1.803842
 50
26.137182
 51
65.629211
  0
ARC
  8
0
 62
     4
 10
231.000000
 20
-181.110321
 40
7.589610
 50
66.188225
 51
113.811775
  0
ARC
  8
0
 62
     4
 10
228.680161
 20
-175.809875
 40
1.803845
 50
114.370789
 51
153.862823
  0
ARC
  8
0
 62
     4
 10
227.841919
 20
-175.329300
 40
0.841912
 50
158.097549
 51
201.902451
  0
ARC
  8
0
 62
     4
 10
228.680161
 20
-174.848724
 40
1.803842
 50
206.137177
 51
245.629211
  0
ARC
  8
0
 62
     4
 10
231.000000
 20
-169.548279
 40
7.589610
 50
246.188232
 51
293.811768
  0
ARC
  8
0
 62
     4
 10
233.319839
 20
-174.848724
 40
1.803845
 50
294.370789
 51
333.862823
  0
ARC
  8
0
 62
     4
 10
148.158081
 20
-82.574440
 40
0.841919
 50
0.000000
 51
21.902452
  0
ARC
  8
0
 62
     4
 10
147.319839
 20
-83.055008
 40
1.803839
 50
26.136965
 51
65.629211
  0
ARC
  8
0
 62
     4
 10
145.000000
 20
-88.355453
 40
7.589610
 50
66.188225
 51
113.811775
  0
ARC
  8
0
 62
     4
 10
142.680161
 20
-83.055008
 40
1.803845
 50
114.370789
 51
153.863037
  0
ARC
  8
0
 62
     4
 10
141.841919
 20
-82.574440
 40
0.841912
 50
158.097549
 51
180.000000
  0
ARC
  8
0
 62
     4
 10
148.158081
 20
-84.670700
 40
0.841912
 50
338.097534
 51
21.902452
  0
ARC
  8
0
 62
     4
 10
147.319839
 20
-85.151268
 40
1.803839
 50
26.136965
 51
65.629211
  0
ARC
  8
0
 62
     4
 10
145.000000
 20
-90.451714
 40
7.589610
 50
66.188225
 51
113.811775
  0
ARC
  8
0
 62
     4
 10
142.680161
 20
-85.151268
 40
1.803845
 50
114.370789
 51
153.863037
  0
ARC
  8
0
 62
     4
 10
141.841919
 20
-84.670700
 40
0.841912
 50
158.097549
 51
201.902451
  0
ARC
  8
0
 62
     4
 10
142.680161
 20
-84.190132
 40
1.803839
 50
206.136963
 51
245.629211
  0
ARC
  8
0
 62
     4
 10
145.000000
 20
-78.889687
 40
7.589610
 50
246.188232
 51
293.811768
  0
ARC
  8
0
 62
     4
 10
147.319839
 20
-84.190132
 40
1.803845
 50
294.370789
 51
333.863037
  0
ARC
  8
0
 62
     4
 10
153.895157
 20
27.533684
 40
0.504842
 50
338.022369
 51
21.840158
  0
ARC
  8
0
 62
     4
 10
153.391785
 20
27.245796
 40
1.082149
 50
26.077648
 51
65.569809
  0
ARC
  8
0
 62
     4
 10
151.995850
 20
24.065620
 40
4.555133
 50
66.127281
 51
113.735725
  0
ARC
  8
0
 62
     4
 10
150.607513
 20
27.249126
 40
1.082136
 50
114.292786
 51
153.784882
  0
ARC
  8
0
 62
     4
 10
150.104843
 20
27.538216
 40
0.504842
 50
158.022369
 51
201.840164
  0
ARC
  8
0
 62
     4
 10
150.608215
 20
27.826103
 40
1.082149
 50
206.077652
 51
245.569809
  0
ARC
  8
0
 62
     4
 10
152.004150
 20
31.006279
 40
4.555133
 50
246.127274
 51
293.735718
  0
ARC
  8
0
 62
     4
 10
153.392487
 20
27.822773
 40
1.082136
 50
294.292786
 51
333.784882
  0
ARC
  8
0
 62
     4
 10
154.368958
 20
27.535950
 40
0.631041
 50
338.090668
 51
21.909334
  0
ARC
  8
0
 62
     4
 10
153.740173
 20
27.175339
 40
1.352667
 50
26.146509
 51
65.638969
  0
ARC
  8
0
 62
     4
 10
152.000000
 20
23.198006
 40
5.693936
 50
66.195984
 51
113.804016
  0
ARC
  8
0
 62
     4
 10
150.259827
 20
27.175339
 40
1.352662
 50
114.361031
 51
153.853485
  0
ARC
  8
0
 62
     4
 10
149.631042
 20
27.535950
 40
0.631041
 50
158.090668
 51
201.909332
  0
ARC
  8
0
 62
     4
 10
150.259827
 20
27.896561
 40
1.352667
 50
206.146515
 51
245.638962
  0
ARC
  8
0
 62
     4
 10
152.000000
 20
31.873894
 40
5.693936
 50
246.195984
 51
293.804016
  0
ARC
  8
0
 62
     4
 10
153.740173
 20
27.896561
 40
1.352662
 50
294.361023
 51
333.853485
  0
ARC
  8
0
 62
     4
 10
139.895157
 20
27.533684
 40
0.504842
 50
338.022369
 51
21.840158
  0
ARC
  8
0
 62
     4
 10
139.391785
 20
27.245796
 40
1.082149
 50
26.077648
 51
65.569809
  0
ARC
  8
0
 62
     4
 10
137.995850
 20
24.065620
 40
4.555133
 50
66.127281
 51
113.735725
  0
ARC
  8
0
 62
     4
 10
136.607513
 20
27.249126
 40
1.082136
 50
114.292786
 51
153.784882
  0
ARC
  8
0
 62
     4
 10
136.104843
 20
27.538216
 40
0.504842
 50
158.022369
 51
201.840164
  0
ARC
  8
0
 62
     4
 10
136.608215
 20
27.826103
 40
1.082149
 50
206.077652
 51
245.569809
  0
ARC
  8
0
 62
     4
 10
138.004150
 20
31.006279
 40
4.555133
 50
246.127274
 51
293.735718
  0
ARC
  8
0
 62
     4
 10
139.392487
 20
27.822773
 40
1.082136
 50
294.292786
 51
333.784882
  0
ARC
  8
0
 62
     4
 10
140.368958
 20
27.535950
 40
0.631041
 50
338.090668
 51
21.909334
  0
ARC
  8
0
 62
     4
 10
139.740173
 20
27.175339
 40
1.352667
 50
26.146509
 51
65.638969
  0
ARC
  8
0
 62
     4
 10
138.000000
 20
23.198006
 40
5.693936
 50
66.195984
 51
113.804016
  0
ARC
  8
0
 62
     4
 10
136.259827
 20
27.175339
 40
1.352662
 50
114.361031
 51
153.853485
  0
ARC
  8
0
 62
     4
 10
135.631042
 20
27.535950
 40
0.631041
 50
158.090668
 51
201.909332
  0
ARC
  8
0
 62
     4
 10
136.259827
 20
27.896561
 40
1.352667
 50
206.146515
 51
245.638962
  0
ARC
  8
0
 62
     4
 10
138.000000
 20
31.873894
 40
5.693936
 50
246.195984
 51
293.804016
  0
ARC
  8
0
 62
     4
 10
139.740173
 20
27.896561
 40
1.352662
 50
294.361023
 51
333.853485
  0
TEXT
  8
0
 10
-369.785309
 20
256.649994
 40
9.000000
  1
SD CYLINDER
 50
0.000000
 41
1.052632
 51
0.000000
  7
STANDARD
  0
TEXT
  8
0
 10
242.014816
 20
-274.500000
 40
12.500000
  1
KOGANEI CORP.
 50
0.000000
 41
1.052632
 51
0.000000
  7
STANDARD
  0
TEXT
  8
0
 10
251.264664
 20
256.649994
 40
9.000000
  1
DATE: AUG ,1993
 50
0.000000
 41
1.052632
 51
0.000000
  7
STANDARD
  0
TEXT
  8
0
 10
-330.785309
 20
208.149994
 40
9.000000
  1
(WITH SENSOR SWITCH)
 50
0.000000
 41
1.052632
 51
0.000000
  7
STANDARD
  0
TEXT
  8
0
 10
-384.785309
 20
224.149994
 40
9.000000
  1
MODEL:KA0SDS160*100
 50
0.000000
 41
1.052632
 51
0.000000
  7
STANDARD
  0
ENDSEC
  0
EOF
