  0
SECTION
  2
HEADER
  0
ENDSEC
  0
SECTION
  2
TABLES
  0
TABLE
  2
LTYPE
 70
     4
  0
LTYPE
  2
CONTINUOUS
 70
    64
  3
Solid line
 72
    65
 73
     0
 40
0.000000
  0
LTYPE
  2
DASHED
 70
    64
  3
__ __ __ __ __ __ __ __ __ __ __ __ __ __ __
 72
    65
 73
     2
 40
3.500000
 49
2.000000
 49
-1.500000
  0
LTYPE
  2
CENTER
 70
    64
  3
____ _ ____ _ ____ _ ____ _ ____ _ ____ _ ____
 72
    65
 73
     4
 40
17.500000
 49
13.000000
 49
-1.500000
 49
1.500000
 49
-1.500000
  0
LTYPE
  2
PHANTOM
 70
    64
  3
_____ _ _ _____ _ _ _____ _ _ _____ _ _ ____  
 72
    65
 73
     6
 40
15.500000
 49
8.000000
 49
-1.500000
 49
1.500000
 49
-1.500000
 49
1.500000
 49
-1.500000
  0
LTYPE
  2
DASHED1
 70
    64
  3
__ __ __ __ __ __ __ __ __ __ __ __ __ __ __
 72
    65
 73
     2
 40
1.500000
 49
1.000000
 49
-0.500000
  0
LTYPE
  2
DASHED2
 70
    64
  3
__ __ __ __ __ __ __ __ __ __ __ __ __ __ __
 72
    65
 73
     2
 40
3.500000
 49
2.500000
 49
-1.000000
  0
LTYPE
  2
DASHED3
 70
    64
  3
__ __ __ __ __ __ __ __ __ __ __ __ __ __ __
 72
    65
 73
     2
 40
6.000000
 49
4.000000
 49
-2.000000
  0
LTYPE
  2
DASHED4
 70
    64
  3
__ __ __ __ __ __ __ __ __ __ __ __ __ __ __
 72
    65
 73
     2
 40
12.000000
 49
10.000000
 49
-2.000000
  0
LTYPE
  2
DASHED5
 70
    64
  3
__ __ __ __ __ __ __ __ __ __ __ __ __ __ __
 72
    65
 73
     2
 40
17.000000
 49
15.000000
 49
-2.000000
  0
LTYPE
  2
DASHED6
 70
    64
  3
__ __ __ __ __ __ __ __ __ __ __ __ __ __ __
 72
    65
 73
     2
 40
29.000000
 49
27.000000
 49
-2.000000
  0
LTYPE
  2
PHANTOM1
 70
    64
  3
_____ _ _ _____ _ _ _____ _ _ _____ _ _ ____  
 72
    65
 73
     6
 40
31.000000
 49
25.000000
 49
-1.500000
 49
1.000000
 49
-1.000000
 49
1.000000
 49
-1.500000
  0
LTYPE
  2
PHANTOM2
 70
    64
  3
_____ _ _ _____ _ _ _____ _ _ _____ _ _ ____  
 72
    65
 73
     6
 40
36.000000
 49
27.000000
 49
-1.500000
 49
2.500000
 49
-1.000000
 49
2.500000
 49
-1.500000
  0
LTYPE
  2
PHANTOM3
 70
    64
  3
_____ _ _ _____ _ _ _____ _ _ _____ _ _ ____  
 72
    65
 73
     6
 40
78.000000
 49
64.000000
 49
-2.000000
 49
4.000000
 49
-2.000000
 49
4.000000
 49
-2.000000
  0
LTYPE
  2
CENTER1
 70
    64
  3
____ _ ____ _ ____ _ ____ _ ____ _ ____ _ ____
 72
    65
 73
     4
 40
19.000000
 49
14.000000
 49
-1.000000
 49
3.000000
 49
-1.000000
  0
LTYPE
  2
CENTER2
 70
    64
  3
____ _ ____ _ ____ _ ____ _ ____ _ ____ _ ____
 72
    65
 73
     4
 40
28.500000
 49
25.000000
 49
-1.000000
 49
1.500000
 49
-1.000000
  0
LTYPE
  2
CENTER3
 70
    64
  3
____ _ ____ _ ____ _ ____ _ ____ _ ____ _ ____
 72
    65
 73
     4
 40
31.500000
 49
27.000000
 49
-1.000000
 49
2.500000
 49
-1.000000
  0
LTYPE
  2
CENTER4
 70
    64
  3
____ _ ____ _ ____ _ ____ _ ____ _ ____ _ ____
 72
    65
 73
     4
 40
50.000000
 49
45.000000
 49
-1.000000
 49
3.000000
 49
-1.000000
  0
LTYPE
  2
CENTER5
 70
    64
  3
____ _ ____ _ ____ _ ____ _ ____ _ ____ _ ____
 72
    65
 73
     4
 40
100.000000
 49
92.000000
 49
-2.000000
 49
4.000000
 49
-2.000000
  0
LTYPE
  2
SBK1
 70
    64
  3
______ _ _ _ ______ _ _ _ ______ _ _ _ _____  
 72
    65
 73
     8
 40
60.500000
 49
45.000000
 49
-2.000000
 49
2.500000
 49
-2.000000
 49
2.500000
 49
-2.000000
 49
2.500000
 49
-2.000000
  0
LTYPE
  2
SBK2
 70
    64
  3
______ _ _ _ ______ _ _ _ ______ _ _ _ _____  
 72
    65
 73
     8
 40
84.000000
 49
64.000000
 49
-2.000000
 49
4.000000
 49
-2.000000
 49
4.000000
 49
-2.000000
 49
4.000000
 49
-2.000000
  0
LTYPE
  2
STCH
 70
    64
  3
__ __ __ __ __ __ __ __ __ __ __ __ __ __ __
 72
    65
 73
     2
 40
3.000000
 49
1.000000
 49
-2.000000
  0
LTYPE
  2
MTCH
 70
    64
  3
_____ _ _ _____ _ _ _____ _ _ _____ _ _ ____  
 72
    65
 73
     6
 40
80.000000
 49
66.000000
 49
-2.000000
 49
4.000000
 49
-2.000000
 49
4.000000
 49
-2.000000
  0
ENDTAB
  0
TABLE
  2
LAYER
 70
     1
  0
LAYER
  2
0
 70
     0
 62
     7
  6
CONTINUOUS
  0
ENDTAB
  0
TABLE
  2
STYLE
 70
     1
  0
STYLE
  2
STANDARD
 70
     0
 40
0.000000
 41
1.000000
 50
0.000000
 71
     0
 42
0.200000
  3
txt
  4
BIGFONT
  0
ENDTAB
  0
TABLE
  2
VIEW
 70
     0
  0
ENDTAB
  0
ENDSEC
  0
SECTION
  2
BLOCKS
  0
ENDSEC
  0
SECTION
  2
ENTITIES
  0
LINE
  8
0
 10
399.799988
 20
276.250000
 11
399.799988
 21
-276.750000
  0
LINE
  8
0
 10
-399.250000
 20
276.250000
 11
-399.250000
 21
-276.750000
  0
LINE
  8
0
 10
-399.250000
 20
276.250000
 11
399.799988
 21
276.250000
  0
LINE
  8
0
 10
-399.250000
 20
-276.750000
 11
399.799988
 21
-276.750000
  0
LINE
  8
0
 10
239.799988
 20
-251.750000
 11
399.799988
 21
-251.750000
  0
LINE
  8
0
 10
239.799988
 20
251.250000
 11
399.799988
 21
251.250000
  0
LINE
  8
0
 10
-399.250000
 20
251.250000
 11
-239.250000
 21
251.250000
  0
LINE
  8
0
 10
239.799988
 20
-251.750000
 11
239.799988
 21
-276.750000
  0
LINE
  8
0
 10
239.799988
 20
251.250000
 11
239.799988
 21
276.250000
  0
LINE
  8
0
 10
-239.250000
 20
276.250000
 11
-239.250000
 21
251.250000
  0
LINE
  8
0
 10
-35.000000
 20
-108.250000
 11
-35.000000
 21
-151.750000
  0
LINE
  8
0
 10
-34.250000
 20
-152.500000
 11
31.000000
 21
-152.500000
  0
LINE
  8
0
 10
28.000000
 20
-107.500000
 11
28.000000
 21
-152.500000
  0
LINE
  8
0
 10
-34.250000
 20
-107.500000
 11
31.000000
 21
-107.500000
  0
LINE
  8
0
 62
     2
 10
-35.000000
 20
-108.250000
 11
28.000000
 21
-108.250000
  0
LINE
  8
0
 62
     2
 10
28.000015
 20
-108.250038
 11
29.607227
 21
-107.500000
  0
LINE
  8
0
 10
100.000000
 20
-17.000000
 11
100.000000
 21
-243.000000
  0
LINE
  8
0
  6
CENTER
 62
     2
 10
118.500000
 20
-13.534714
 11
118.500000
 21
-38.182831
  0
LINE
  8
0
 10
287.404907
 20
-129.250000
 11
297.595093
 21
-129.250000
  0
LINE
  8
0
 10
287.404907
 20
-130.750000
 11
297.595093
 21
-130.750000
  0
LINE
  8
0
  6
CENTER
 62
     2
 10
292.500000
 20
-13.585709
 11
292.500000
 21
-38.182831
  0
LINE
  8
0
 10
311.000000
 20
-17.000000
 11
311.000000
 21
-243.000000
  0
LINE
  8
0
 10
113.404907
 20
-129.250000
 11
123.595093
 21
-129.250000
  0
LINE
  8
0
 10
113.404907
 20
-130.750000
 11
123.595093
 21
-130.750000
  0
LINE
  8
0
 10
139.000000
 20
-17.000000
 11
139.000000
 21
-243.000000
  0
LINE
  8
0
 10
272.000000
 20
-17.000000
 11
272.000000
 21
-243.000000
  0
LINE
  8
0
  6
DASHED
 62
     2
 10
305.721588
 20
-17.000088
 11
305.229095
 21
-31.100101
  0
LINE
  8
0
  6
DASHED
 62
     2
 10
279.772003
 20
-31.100071
 11
279.279327
 21
-17.000048
  0
LINE
  8
0
  6
DASHED
 62
     2
 10
281.000000
 20
-18.500000
 11
304.000000
 21
-18.500000
  0
LINE
  8
0
  6
DASHED
 62
     2
 10
281.000000
 20
-18.500000
 11
281.000000
 21
-31.100006
  0
LINE
  8
0
  6
DASHED
 62
     2
 10
304.000000
 20
-18.500000
 11
304.000000
 21
-31.100006
  0
LINE
  8
0
  6
DASHED
 62
     2
 10
305.720642
 20
-17.000168
 11
304.000183
 21
-18.500149
  0
LINE
  8
0
  6
DASHED
 62
     2
 10
279.280060
 20
-16.999348
 11
281.000549
 21
-18.499350
  0
LINE
  8
0
 10
90.000000
 20
-73.500000
 11
90.000000
 21
-186.500000
  0
LINE
  8
0
 10
91.000000
 20
-72.500000
 11
91.000000
 21
-187.500000
  0
LINE
  8
0
 10
91.000000
 20
-187.500000
 11
100.000000
 21
-187.500000
  0
LINE
  8
0
 10
91.000000
 20
-72.500000
 11
100.000000
 21
-72.500000
  0
LINE
  8
0
 10
90.000000
 20
-73.499992
 11
91.000000
 21
-72.499992
  0
LINE
  8
0
 10
90.000008
 20
-186.500000
 11
91.000008
 21
-187.500000
  0
LINE
  8
0
 10
60.000000
 20
-97.000000
 11
60.000000
 21
-163.000000
  0
LINE
  8
0
 10
87.000000
 20
-84.000000
 11
87.000000
 21
-88.766022
  0
LINE
  8
0
 10
88.000000
 20
-83.000000
 11
90.000000
 21
-83.000000
  0
LINE
  8
0
 10
88.000000
 20
-177.000000
 11
90.000000
 21
-177.000000
  0
LINE
  8
0
 10
80.000000
 20
-95.259468
 11
61.038452
 21
-95.961746
  0
LINE
  8
0
 10
61.038445
 20
-164.038467
 11
79.999985
 21
-164.740753
  0
LINE
  8
0
 10
81.000000
 20
-155.233978
 11
90.000000
 21
-155.233978
  0
LINE
  8
0
 10
81.000000
 20
-171.233978
 11
90.000000
 21
-171.233978
  0
LINE
  8
0
 10
80.000000
 20
-156.233978
 11
80.000000
 21
-170.233978
  0
LINE
  8
0
 10
79.999977
 20
-156.233963
 11
80.999977
 21
-155.233963
  0
LINE
  8
0
 10
80.999992
 20
-171.233994
 11
79.999992
 21
-170.233994
  0
LINE
  8
0
 10
81.000000
 20
-155.233978
 11
81.000000
 21
-171.233978
  0
LINE
  8
0
 10
81.000000
 20
-104.766022
 11
90.000000
 21
-104.766022
  0
LINE
  8
0
 10
80.000000
 20
-89.766022
 11
80.000000
 21
-103.766022
  0
LINE
  8
0
 10
80.999985
 20
-104.766037
 11
79.999985
 21
-103.766037
  0
LINE
  8
0
 10
81.000000
 20
-88.766022
 11
81.000000
 21
-104.766022
  0
LINE
  8
0
 10
79.999985
 20
-89.766014
 11
80.999985
 21
-88.766014
  0
LINE
  8
0
 10
81.000000
 20
-88.766022
 11
90.000000
 21
-88.766022
  0
LINE
  8
0
 10
87.000000
 20
-171.233978
 11
87.000000
 21
-176.000000
  0
LINE
  8
0
 10
87.000000
 20
-104.766022
 11
87.000000
 21
-155.233978
  0
LINE
  8
0
  6
DASHED
 62
     2
 10
105.279861
 20
-16.999626
 11
107.000351
 21
-18.499626
  0
LINE
  8
0
  6
DASHED
 62
     2
 10
131.720978
 20
-17.000063
 11
131.228485
 21
-31.100069
  0
LINE
  8
0
  6
DASHED
 62
     2
 10
105.772057
 20
-31.100042
 11
105.279396
 21
-17.000019
  0
LINE
  8
0
  6
DASHED
 62
     2
 10
107.000000
 20
-18.500000
 11
130.000000
 21
-18.500000
  0
LINE
  8
0
  6
DASHED
 62
     2
 10
107.000000
 20
-18.500000
 11
107.000000
 21
-31.100006
  0
LINE
  8
0
  6
DASHED
 62
     2
 10
130.000000
 20
-18.500000
 11
130.000000
 21
-31.100006
  0
LINE
  8
0
  6
DASHED
 62
     2
 10
131.720428
 20
-16.999947
 11
129.999939
 21
-18.499947
  0
LINE
  8
0
 10
60.000008
 20
-97.000015
 11
61.038460
 21
-95.961555
  0
LINE
  8
0
 10
59.999882
 20
-163.000092
 11
61.038338
 21
-164.038544
  0
LINE
  8
0
 10
61.038452
 20
-95.961548
 11
61.038452
 21
-164.038467
  0
LINE
  8
0
 10
28.000000
 20
-107.500000
 11
28.000000
 21
-152.500000
  0
LINE
  8
0
 10
31.000000
 20
-107.500000
 11
31.000000
 21
-152.500000
  0
LINE
  8
0
 10
35.330124
 20
-155.000000
 11
60.000000
 21
-155.000000
  0
LINE
  8
0
 10
35.330124
 20
-105.000000
 11
60.000000
 21
-105.000000
  0
LINE
  8
0
 10
30.999998
 20
-152.499954
 11
35.330139
 21
-154.999969
  0
LINE
  8
0
 10
30.999990
 20
-107.499985
 11
35.330112
 21
-104.999985
  0
LINE
  8
0
 10
35.330124
 20
-155.000000
 11
35.330124
 21
-139.797958
  0
LINE
  8
0
 10
35.330124
 20
-120.202042
 11
35.330124
 21
-105.000000
  0
LINE
  8
0
 10
35.330139
 20
-120.202042
 11
48.000000
 21
-120.202042
  0
LINE
  8
0
 10
35.330124
 20
-139.797958
 11
48.000000
 21
-139.797958
  0
LINE
  8
0
 10
48.000000
 20
-120.202042
 11
48.000000
 21
-139.797958
  0
LINE
  8
0
 62
     2
 10
35.330097
 20
-139.797913
 11
47.999966
 21
-120.202003
  0
LINE
  8
0
 62
     2
 10
35.330189
 20
-120.202003
 11
48.000065
 21
-139.797928
  0
LINE
  8
0
 10
100.000000
 20
-17.000000
 11
139.000000
 21
-17.000000
  0
LINE
  8
0
 10
100.000000
 20
-243.000000
 11
139.000000
 21
-243.000000
  0
LINE
  8
0
 10
272.000000
 20
-17.000000
 11
311.000000
 21
-17.000000
  0
LINE
  8
0
 10
272.000000
 20
-243.000000
 11
311.000000
 21
-243.000000
  0
LINE
  8
0
 10
345.000000
 20
-49.000153
 11
332.099976
 21
-49.000153
  0
LINE
  8
0
 10
345.000000
 20
-29.000153
 11
332.099976
 21
-29.000153
  0
LINE
  8
0
 10
346.000000
 20
-48.000000
 11
346.000000
 21
-30.000000
  0
LINE
  8
0
 10
345.000000
 20
-49.000000
 11
345.000000
 21
-29.000000
  0
LINE
  8
0
 10
344.999908
 20
-48.999882
 11
345.999878
 21
-47.999905
  0
LINE
  8
0
 10
345.999847
 20
-30.000166
 11
344.999847
 21
-29.000143
  0
LINE
  8
0
 10
316.100006
 20
-56.320496
 11
316.100006
 21
-21.679504
  0
LINE
  8
0
 10
316.100006
 20
-22.500153
 11
311.000000
 21
-22.500153
  0
LINE
  8
0
 10
316.100006
 20
-55.500153
 11
311.000000
 21
-55.500153
  0
LINE
  8
0
 10
330.471558
 20
-56.320648
 11
316.100006
 21
-56.320648
  0
LINE
  8
0
 10
330.471558
 20
-21.679657
 11
316.100006
 21
-21.679657
  0
LINE
  8
0
 10
332.099976
 20
-53.500000
 11
332.099976
 21
-24.500000
  0
LINE
  8
0
 10
330.599976
 20
-47.660400
 11
316.100006
 21
-47.660400
  0
LINE
  8
0
 10
330.471558
 20
-30.339905
 11
316.100006
 21
-30.339905
  0
LINE
  8
0
 10
332.100372
 20
-53.500134
 11
330.471954
 21
-56.320637
  0
LINE
  8
0
 10
332.100067
 20
-24.499876
 11
330.471649
 21
-21.679373
  0
LINE
  8
0
 10
78.900070
 20
-53.499943
 11
80.528488
 21
-56.320435
  0
LINE
  8
0
 10
66.000000
 20
-29.000000
 11
78.899994
 21
-29.000000
  0
LINE
  8
0
 10
66.000000
 20
-49.000000
 11
78.899994
 21
-49.000000
  0
LINE
  8
0
 10
65.000000
 20
-30.000000
 11
65.000000
 21
-48.000000
  0
LINE
  8
0
 10
66.000000
 20
-29.000000
 11
66.000000
 21
-49.000000
  0
LINE
  8
0
 10
66.000015
 20
-28.999998
 11
65.000015
 21
-30.000000
  0
LINE
  8
0
 10
64.999947
 20
-48.000042
 11
65.999947
 21
-49.000042
  0
LINE
  8
0
 10
94.899994
 20
-21.679504
 11
94.899994
 21
-56.320496
  0
LINE
  8
0
 10
94.899994
 20
-55.500000
 11
100.000000
 21
-55.500000
  0
LINE
  8
0
 10
94.899994
 20
-22.500000
 11
100.000000
 21
-22.500000
  0
LINE
  8
0
 10
80.528412
 20
-21.679504
 11
94.899994
 21
-21.679504
  0
LINE
  8
0
 10
80.528412
 20
-56.320496
 11
94.899994
 21
-56.320496
  0
LINE
  8
0
 10
78.899994
 20
-24.500000
 11
78.899994
 21
-53.500000
  0
LINE
  8
0
 10
80.399994
 20
-30.339752
 11
94.899994
 21
-30.339752
  0
LINE
  8
0
 10
80.528412
 20
-47.660248
 11
94.899994
 21
-47.660248
  0
LINE
  8
0
 10
78.900024
 20
-24.499992
 11
80.528442
 21
-21.679489
  0
LINE
  8
0
 10
78.900055
 20
-235.500000
 11
80.528458
 21
-238.320480
  0
LINE
  8
0
 10
66.000000
 20
-211.000000
 11
78.899994
 21
-211.000000
  0
LINE
  8
0
 10
66.000000
 20
-231.000000
 11
78.899994
 21
-231.000000
  0
LINE
  8
0
 10
65.000000
 20
-212.000000
 11
65.000000
 21
-230.000000
  0
LINE
  8
0
 10
66.000000
 20
-211.000000
 11
66.000000
 21
-231.000000
  0
LINE
  8
0
 10
65.999954
 20
-210.999969
 11
64.999947
 21
-211.999969
  0
LINE
  8
0
 10
65.000008
 20
-230.000000
 11
66.000008
 21
-231.000000
  0
LINE
  8
0
 10
94.899994
 20
-203.679504
 11
94.899994
 21
-238.320496
  0
LINE
  8
0
 10
94.899994
 20
-237.500000
 11
100.000000
 21
-237.500000
  0
LINE
  8
0
 10
94.899994
 20
-204.500000
 11
100.000000
 21
-204.500000
  0
LINE
  8
0
 10
80.528412
 20
-203.679504
 11
94.899994
 21
-203.679504
  0
LINE
  8
0
 10
80.528412
 20
-238.320496
 11
94.899994
 21
-238.320496
  0
LINE
  8
0
 10
78.899994
 20
-206.500000
 11
78.899994
 21
-235.500000
  0
LINE
  8
0
 10
80.399994
 20
-212.339752
 11
94.899994
 21
-212.339752
  0
LINE
  8
0
 10
80.528412
 20
-229.660248
 11
94.899994
 21
-229.660248
  0
LINE
  8
0
 10
78.900055
 20
-206.500046
 11
80.528458
 21
-203.679565
  0
LINE
  8
0
 10
345.000000
 20
-231.000153
 11
332.099976
 21
-231.000153
  0
LINE
  8
0
 10
345.000000
 20
-211.000153
 11
332.099976
 21
-211.000153
  0
LINE
  8
0
 10
346.000000
 20
-230.000000
 11
346.000000
 21
-212.000000
  0
LINE
  8
0
 10
345.000000
 20
-231.000000
 11
345.000000
 21
-211.000000
  0
LINE
  8
0
 10
344.999756
 20
-230.999832
 11
345.999786
 21
-229.999802
  0
LINE
  8
0
 10
345.999908
 20
-211.999985
 11
344.999908
 21
-211.000000
  0
LINE
  8
0
 10
316.100006
 20
-238.320496
 11
316.100006
 21
-203.679504
  0
LINE
  8
0
 10
316.100006
 20
-204.500153
 11
311.000000
 21
-204.500153
  0
LINE
  8
0
 10
316.100006
 20
-237.500153
 11
311.000000
 21
-237.500153
  0
LINE
  8
0
 10
330.471558
 20
-238.320648
 11
316.100006
 21
-238.320648
  0
LINE
  8
0
 10
330.471558
 20
-203.679657
 11
316.100006
 21
-203.679657
  0
LINE
  8
0
 10
332.099976
 20
-235.500000
 11
332.099976
 21
-206.500000
  0
LINE
  8
0
 10
330.599976
 20
-229.660400
 11
316.100006
 21
-229.660400
  0
LINE
  8
0
 10
330.471558
 20
-212.339905
 11
316.100006
 21
-212.339905
  0
LINE
  8
0
 10
332.100433
 20
-235.500244
 11
330.472015
 21
-238.320755
  0
LINE
  8
0
 10
332.100067
 20
-206.499939
 11
330.471649
 21
-203.679443
  0
LINE
  8
0
 10
139.000000
 20
-231.000000
 11
272.000000
 21
-231.000000
  0
LINE
  8
0
 10
139.000000
 20
-211.000000
 11
272.000000
 21
-211.000000
  0
LINE
  8
0
 10
139.000000
 20
-29.000000
 11
272.000000
 21
-29.000000
  0
LINE
  8
0
 10
139.000000
 20
-49.000000
 11
272.000000
 21
-49.000000
  0
LINE
  8
0
  6
CENTER
 62
     2
 10
-41.099396
 20
-130.000000
 11
316.694366
 21
-130.000000
  0
LINE
  8
0
 10
139.000000
 20
-236.500000
 11
272.000000
 21
-236.500000
  0
LINE
  8
0
 10
139.000000
 20
-23.500000
 11
272.000000
 21
-23.500000
  0
LINE
  8
0
 62
     2
 10
65.000000
 20
-229.600006
 11
78.899994
 21
-229.600006
  0
LINE
  8
0
 62
     2
 10
65.000000
 20
-212.399994
 11
78.899994
 21
-212.399994
  0
LINE
  8
0
 62
     2
 10
65.000000
 20
-30.399994
 11
78.899994
 21
-30.399994
  0
LINE
  8
0
 62
     2
 10
65.000000
 20
-47.600006
 11
78.899994
 21
-47.600006
  0
LINE
  8
0
 62
     2
 10
346.000000
 20
-30.400146
 11
332.099976
 21
-30.400146
  0
LINE
  8
0
 62
     2
 10
346.000000
 20
-47.600159
 11
332.099976
 21
-47.600159
  0
LINE
  8
0
 62
     2
 10
346.000000
 20
-212.400146
 11
332.099976
 21
-212.400146
  0
LINE
  8
0
 62
     2
 10
346.000000
 20
-229.600159
 11
332.099976
 21
-229.600159
  0
LINE
  8
0
  6
CENTER
 62
     2
 10
118.500000
 20
-115.422211
 11
118.500000
 21
-141.300003
  0
LINE
  8
0
  6
CENTER
 62
     2
 10
292.500000
 20
-115.422211
 11
292.500000
 21
-140.202637
  0
LINE
  8
0
  6
CENTER
 62
     2
 10
52.881363
 20
-39.000000
 11
359.933350
 21
-39.000000
  0
LINE
  8
0
  6
CENTER
 62
     2
 10
52.881363
 20
-221.000000
 11
359.933350
 21
-221.000000
  0
LINE
  8
0
 10
-35.000004
 20
-108.250008
 11
-34.249996
 21
-107.500000
  0
LINE
  8
0
 10
-34.250000
 20
-107.500000
 11
-34.250000
 21
-152.500000
  0
LINE
  8
0
 62
     2
 10
-35.000000
 20
-151.750000
 11
28.000000
 21
-151.750000
  0
LINE
  8
0
 10
-34.999973
 20
-151.749924
 11
-34.249966
 21
-152.499924
  0
LINE
  8
0
 62
     2
 10
27.999989
 20
-151.749954
 11
29.607201
 21
-152.499985
  0
LINE
  8
0
  6
CENTER
 62
     2
 10
-349.333862
 20
-130.000000
 11
-108.500000
 21
-130.000000
  0
LINE
  8
0
  6
CENTER
 62
     2
 10
-230.000000
 20
-11.086060
 11
-230.000000
 21
-250.275970
  0
LINE
  8
0
 10
-195.570450
 20
-158.772507
 11
-192.304489
 21
-162.038483
  0
LINE
  8
0
 10
-201.227371
 20
-164.429398
 11
-197.961365
 21
-167.695419
  0
LINE
  8
0
 10
-192.305023
 20
-162.038513
 11
-193.500488
 21
-166.500000
  0
LINE
  8
0
 10
-200.032440
 20
-159.967926
 11
-201.227875
 21
-164.429337
  0
LINE
  8
0
 10
-197.961487
 20
-167.695557
 11
-193.500061
 21
-166.500122
  0
LINE
  8
0
 10
-200.031998
 20
-159.968140
 11
-195.570602
 21
-158.772720
  0
LINE
  8
0
 10
-201.227310
 20
-95.570724
 11
-197.961334
 21
-92.304749
  0
LINE
  8
0
 10
-195.570358
 20
-101.227509
 11
-192.304367
 21
-97.961510
  0
LINE
  8
0
 10
-197.961349
 20
-92.304611
 11
-193.499893
 21
-93.500061
  0
LINE
  8
0
 10
-200.031921
 20
-100.031967
 11
-195.570526
 21
-101.227394
  0
LINE
  8
0
 10
-192.304565
 20
-97.961456
 11
-193.499985
 21
-93.500031
  0
LINE
  8
0
 10
-200.031967
 20
-100.032036
 11
-201.227402
 21
-95.570610
  0
LINE
  8
0
 10
-264.429291
 20
-101.227234
 11
-267.695251
 21
-97.961266
  0
LINE
  8
0
 10
-258.772400
 20
-95.570396
 11
-262.038391
 21
-92.304382
  0
LINE
  8
0
 10
-267.695648
 20
-97.961342
 11
-266.500183
 21
-93.499924
  0
LINE
  8
0
 10
-259.968109
 20
-100.031914
 11
-258.772675
 21
-95.570511
  0
LINE
  8
0
 10
-262.038513
 20
-92.304604
 11
-266.499908
 21
-93.500031
  0
LINE
  8
0
 10
-259.968018
 20
-100.031998
 11
-264.429413
 21
-101.227425
  0
LINE
  8
0
 10
-258.772583
 20
-164.429535
 11
-262.038574
 21
-167.695496
  0
LINE
  8
0
 10
-264.429321
 20
-158.772537
 11
-267.695343
 21
-162.038544
  0
LINE
  8
0
 10
-262.038605
 20
-167.695572
 11
-266.500061
 21
-166.500122
  0
LINE
  8
0
 10
-259.968048
 20
-159.968155
 11
-264.429443
 21
-158.772720
  0
LINE
  8
0
 10
-267.695312
 20
-162.038467
 11
-266.499878
 21
-166.499878
  0
LINE
  8
0
 10
-259.967529
 20
-159.967850
 11
-258.772095
 21
-164.429276
  0
LINE
  8
0
 10
-207.000000
 20
-120.202042
 11
-207.000000
 21
-139.797958
  0
LINE
  8
0
 10
-253.000000
 20
-120.202042
 11
-253.000000
 21
-139.797958
  0
LINE
  8
0
 10
-117.000000
 20
-17.000000
 11
-117.000000
 21
-243.000000
  0
LINE
  8
0
 10
-343.000000
 20
-17.000000
 11
-343.000000
 21
-243.000000
  0
LINE
  8
0
 10
-343.000000
 20
-243.000000
 11
-117.000000
 21
-243.000000
  0
LINE
  8
0
 10
-343.000000
 20
-17.000000
 11
-117.000000
 21
-17.000000
  0
LINE
  8
0
 10
-124.000000
 20
-212.339752
 11
-124.000000
 21
-229.660248
  0
LINE
  8
0
 10
-154.000000
 20
-212.339752
 11
-154.000000
 21
-229.660248
  0
LINE
  8
0
 10
-139.000061
 20
-203.679657
 11
-124.000046
 21
-212.339920
  0
LINE
  8
0
 10
-154.000061
 20
-229.660416
 11
-139.000015
 21
-238.320709
  0
LINE
  8
0
 10
-139.000061
 20
-238.320541
 11
-124.000046
 21
-229.660278
  0
LINE
  8
0
 10
-154.000046
 20
-212.339752
 11
-139.000031
 21
-203.679489
  0
LINE
  8
0
 10
-124.000000
 20
-30.339752
 11
-124.000000
 21
-47.660248
  0
LINE
  8
0
 10
-154.000000
 20
-30.339737
 11
-154.000000
 21
-47.660248
  0
LINE
  8
0
 10
-139.000015
 20
-21.679462
 11
-123.999992
 21
-30.339725
  0
LINE
  8
0
 10
-154.000031
 20
-47.660255
 11
-139.000015
 21
-56.320518
  0
LINE
  8
0
 10
-139.000092
 20
-56.320351
 11
-124.000069
 21
-47.660088
  0
LINE
  8
0
 10
-154.000122
 20
-30.339474
 11
-139.000122
 21
-21.679218
  0
LINE
  8
0
 10
-306.000000
 20
-212.339752
 11
-306.000000
 21
-229.660248
  0
LINE
  8
0
 10
-336.000000
 20
-212.339737
 11
-336.000000
 21
-229.660248
  0
LINE
  8
0
 10
-321.000153
 20
-203.679749
 11
-306.000153
 21
-212.340012
  0
LINE
  8
0
 10
-336.000122
 20
-229.660477
 11
-321.000122
 21
-238.320724
  0
LINE
  8
0
 10
-321.000122
 20
-238.320450
 11
-306.000122
 21
-229.660202
  0
LINE
  8
0
 10
-336.000153
 20
-212.339722
 11
-321.000153
 21
-203.679474
  0
LINE
  8
0
 10
-306.000000
 20
-30.339752
 11
-306.000000
 21
-47.660248
  0
LINE
  8
0
 10
-336.000000
 20
-30.339737
 11
-336.000000
 21
-47.660248
  0
LINE
  8
0
 10
-321.000122
 20
-21.679554
 11
-306.000122
 21
-30.339809
  0
LINE
  8
0
 10
-336.000122
 20
-47.660332
 11
-321.000061
 21
-56.320618
  0
LINE
  8
0
 10
-321.000092
 20
-56.320377
 11
-306.000061
 21
-47.660099
  0
LINE
  8
0
 10
-336.000183
 20
-30.339474
 11
-321.000183
 21
-21.679228
  0
LINE
  8
0
  6
CENTER
 62
     2
 10
-321.000000
 20
-16.500000
 11
-321.000000
 21
-61.500000
  0
LINE
  8
0
  6
CENTER
 62
     2
 10
-343.500000
 20
-39.000000
 11
-298.500000
 21
-39.000000
  0
LINE
  8
0
  6
CENTER
 62
     2
 10
-139.000000
 20
-16.500000
 11
-139.000000
 21
-61.500000
  0
LINE
  8
0
  6
CENTER
 62
     2
 10
-116.500000
 20
-39.000000
 11
-161.500000
 21
-39.000000
  0
LINE
  8
0
  6
CENTER
 62
     2
 10
-321.000000
 20
-243.500000
 11
-321.000000
 21
-198.500000
  0
LINE
  8
0
  6
CENTER
 62
     2
 10
-343.500000
 20
-221.000000
 11
-298.500000
 21
-221.000000
  0
LINE
  8
0
  6
CENTER
 62
     2
 10
-139.000000
 20
-243.500000
 11
-139.000000
 21
-198.500000
  0
LINE
  8
0
  6
CENTER
 62
     2
 10
-116.500000
 20
-221.000000
 11
-161.500000
 21
-221.000000
  0
LINE
  8
0
 10
100.000000
 20
238.000000
 11
100.000000
 21
12.000000
  0
LINE
  8
0
 10
311.000000
 20
238.000000
 11
311.000000
 21
12.000000
  0
LINE
  8
0
 10
139.000000
 20
238.000000
 11
139.000000
 21
12.000000
  0
LINE
  8
0
 10
272.000000
 20
238.000000
 11
272.000000
 21
12.000000
  0
LINE
  8
0
 10
90.000000
 20
181.500000
 11
90.000000
 21
68.500000
  0
LINE
  8
0
 10
91.000000
 20
182.500000
 11
91.000000
 21
67.500000
  0
LINE
  8
0
 10
91.000000
 20
67.500000
 11
100.000000
 21
67.500000
  0
LINE
  8
0
 10
91.000000
 20
182.500000
 11
100.000000
 21
182.500000
  0
LINE
  8
0
 10
90.000008
 20
181.500015
 11
91.000008
 21
182.500015
  0
LINE
  8
0
 10
89.999985
 20
68.499977
 11
90.999985
 21
67.499977
  0
LINE
  8
0
 10
60.000000
 20
158.000000
 11
60.000000
 21
92.000000
  0
LINE
  8
0
 10
87.000000
 20
171.000000
 11
87.000000
 21
166.233978
  0
LINE
  8
0
 10
88.000000
 20
172.000000
 11
90.000000
 21
172.000000
  0
LINE
  8
0
 10
88.000000
 20
78.000000
 11
90.000000
 21
78.000000
  0
LINE
  8
0
 10
80.000015
 20
159.740402
 11
61.038471
 21
159.038116
  0
LINE
  8
0
 10
61.038448
 20
90.961433
 11
79.999992
 21
90.259155
  0
LINE
  8
0
 10
81.000000
 20
99.766022
 11
90.000000
 21
99.766022
  0
LINE
  8
0
 10
81.000000
 20
83.766022
 11
90.000000
 21
83.766022
  0
LINE
  8
0
 10
80.000000
 20
98.766022
 11
80.000000
 21
84.766022
  0
LINE
  8
0
 10
79.999985
 20
98.766052
 11
80.999985
 21
99.766052
  0
LINE
  8
0
 10
80.999977
 20
83.765976
 11
79.999977
 21
84.765984
  0
LINE
  8
0
 10
81.000000
 20
99.766022
 11
81.000000
 21
83.766022
  0
LINE
  8
0
 10
81.000000
 20
150.233978
 11
90.000000
 21
150.233978
  0
LINE
  8
0
 10
80.000000
 20
165.233978
 11
80.000000
 21
151.233978
  0
LINE
  8
0
 10
80.999977
 20
150.233932
 11
79.999977
 21
151.233932
  0
LINE
  8
0
 10
81.000000
 20
166.233978
 11
81.000000
 21
150.233978
  0
LINE
  8
0
 10
80.000015
 20
165.233932
 11
81.000015
 21
166.233932
  0
LINE
  8
0
 10
81.000000
 20
166.233978
 11
90.000000
 21
166.233978
  0
LINE
  8
0
 10
87.000000
 20
83.766022
 11
87.000000
 21
79.000000
  0
LINE
  8
0
 10
87.000000
 20
150.233978
 11
87.000000
 21
99.766022
  0
LINE
  8
0
 10
60.000008
 20
157.999985
 11
61.038460
 21
159.038437
  0
LINE
  8
0
 10
59.999832
 20
91.999809
 11
61.038288
 21
90.961357
  0
LINE
  8
0
 10
61.038452
 20
159.038452
 11
61.038452
 21
90.961533
  0
LINE
  8
0
 10
31.000000
 20
147.500000
 11
31.000000
 21
102.500000
  0
LINE
  8
0
 10
49.154686
 20
100.000000
 11
60.000000
 21
100.000000
  0
LINE
  8
0
 10
49.154697
 20
150.000000
 11
60.000000
 21
150.000000
  0
LINE
  8
0
 10
31.000017
 20
102.500107
 11
31.866175
 21
102.000031
  0
LINE
  8
0
 10
30.999966
 20
147.500076
 11
31.865898
 21
148.000015
  0
LINE
  8
0
 10
35.330124
 20
102.000000
 11
35.330124
 21
148.000000
  0
LINE
  8
0
 10
100.000000
 20
238.000000
 11
139.000000
 21
238.000000
  0
LINE
  8
0
 10
100.000000
 20
12.000000
 11
139.000000
 21
12.000000
  0
LINE
  8
0
 10
272.000000
 20
238.000000
 11
311.000000
 21
238.000000
  0
LINE
  8
0
 10
272.000000
 20
12.000000
 11
311.000000
 21
12.000000
  0
LINE
  8
0
 10
316.100006
 20
232.499847
 11
311.000000
 21
232.499847
  0
LINE
  8
0
 10
316.100006
 20
199.499847
 11
311.000000
 21
199.499847
  0
LINE
  8
0
 10
94.899994
 20
199.500000
 11
100.000000
 21
199.500000
  0
LINE
  8
0
 10
94.899994
 20
232.500000
 11
100.000000
 21
232.500000
  0
LINE
  8
0
 10
66.000000
 20
44.000000
 11
78.899994
 21
44.000000
  0
LINE
  8
0
 10
66.000000
 20
24.000000
 11
78.899994
 21
24.000000
  0
LINE
  8
0
 10
65.000000
 20
43.000000
 11
65.000000
 21
25.000000
  0
LINE
  8
0
 10
66.000000
 20
44.000000
 11
66.000000
 21
24.000000
  0
LINE
  8
0
 10
65.999954
 20
44.000015
 11
64.999954
 21
43.000011
  0
LINE
  8
0
 10
64.999977
 20
25.000002
 11
65.999985
 21
24.000002
  0
LINE
  8
0
 10
94.899994
 20
17.500000
 11
100.000000
 21
17.500000
  0
LINE
  8
0
 10
94.899994
 20
50.500000
 11
100.000000
 21
50.500000
  0
LINE
  8
0
 10
316.100006
 20
50.499847
 11
311.000000
 21
50.499847
  0
LINE
  8
0
 10
316.100006
 20
17.499847
 11
311.000000
 21
17.499847
  0
LINE
  8
0
 10
139.000000
 20
24.000000
 11
272.000000
 21
24.000000
  0
LINE
  8
0
 10
139.000000
 20
44.000000
 11
272.000000
 21
44.000000
  0
LINE
  8
0
 10
139.000000
 20
226.000000
 11
272.000000
 21
226.000000
  0
LINE
  8
0
 10
139.000000
 20
206.000000
 11
272.000000
 21
206.000000
  0
LINE
  8
0
  6
CENTER
 62
     2
 10
-41.099396
 20
125.000000
 11
316.694366
 21
125.000000
  0
LINE
  8
0
 10
139.000000
 20
18.500000
 11
272.000000
 21
18.500000
  0
LINE
  8
0
 10
139.000000
 20
231.500000
 11
272.000000
 21
231.500000
  0
LINE
  8
0
 62
     2
 10
65.000000
 20
25.399994
 11
78.899994
 21
25.399994
  0
LINE
  8
0
 62
     2
 10
65.000000
 20
42.600006
 11
78.899994
 21
42.600006
  0
LINE
  8
0
  6
CENTER
 62
     2
 10
118.500000
 20
139.577789
 11
118.500000
 21
109.709595
  0
LINE
  8
0
  6
CENTER
 62
     2
 10
292.500000
 20
139.577789
 11
292.500000
 21
109.709595
  0
LINE
  8
0
 10
94.899994
 20
18.999992
 11
78.899994
 21
18.999992
  0
LINE
  8
0
 10
94.899994
 20
33.999992
 11
80.239738
 21
33.999992
  0
LINE
  8
0
 10
94.899994
 20
17.500000
 11
94.899994
 21
50.500000
  0
LINE
  8
0
 10
94.899994
 20
48.999992
 11
78.899994
 21
48.999992
  0
LINE
  8
0
 10
78.899994
 20
18.999992
 11
78.899994
 21
48.999992
  0
LINE
  8
0
 10
66.000000
 20
206.000000
 11
78.899994
 21
206.000000
  0
LINE
  8
0
 10
66.000000
 20
226.000000
 11
78.899994
 21
226.000000
  0
LINE
  8
0
 10
65.000000
 20
207.000000
 11
65.000000
 21
225.000000
  0
LINE
  8
0
 10
66.000000
 20
206.000000
 11
66.000000
 21
226.000000
  0
LINE
  8
0
 10
65.999969
 20
206.000046
 11
64.999969
 21
207.000046
  0
LINE
  8
0
 10
65.000008
 20
225.000000
 11
66.000008
 21
226.000000
  0
LINE
  8
0
 62
     2
 10
65.000000
 20
224.600006
 11
78.899994
 21
224.600006
  0
LINE
  8
0
 62
     2
 10
65.000000
 20
207.399994
 11
78.899994
 21
207.399994
  0
LINE
  8
0
 10
94.899994
 20
231.000000
 11
78.899994
 21
231.000000
  0
LINE
  8
0
 10
94.899994
 20
216.000000
 11
80.239738
 21
216.000000
  0
LINE
  8
0
 10
94.899994
 20
201.000000
 11
78.899994
 21
201.000000
  0
LINE
  8
0
 10
78.899994
 20
231.000000
 11
78.899994
 21
201.000000
  0
LINE
  8
0
 10
345.000000
 20
44.000000
 11
332.100006
 21
44.000000
  0
LINE
  8
0
 10
345.000000
 20
24.000000
 11
332.100006
 21
24.000000
  0
LINE
  8
0
 10
346.000000
 20
43.000000
 11
346.000000
 21
25.000000
  0
LINE
  8
0
 10
345.000000
 20
44.000000
 11
345.000000
 21
24.000000
  0
LINE
  8
0
 10
345.000092
 20
44.000031
 11
346.000092
 21
43.000027
  0
LINE
  8
0
 10
345.999969
 20
25.000006
 11
344.999969
 21
23.999983
  0
LINE
  8
0
 62
     2
 10
346.000000
 20
25.399994
 11
332.100006
 21
25.399994
  0
LINE
  8
0
 62
     2
 10
346.000000
 20
42.600006
 11
332.100006
 21
42.600006
  0
LINE
  8
0
 10
316.100006
 20
18.999992
 11
332.100006
 21
18.999992
  0
LINE
  8
0
 10
316.100006
 20
33.999992
 11
330.760254
 21
33.999992
  0
LINE
  8
0
 10
316.100006
 20
48.999992
 11
332.100006
 21
48.999992
  0
LINE
  8
0
 10
332.100006
 20
18.999992
 11
332.100006
 21
48.999992
  0
LINE
  8
0
 10
345.000000
 20
206.000000
 11
332.100006
 21
206.000000
  0
LINE
  8
0
 10
345.000000
 20
226.000000
 11
332.100006
 21
226.000000
  0
LINE
  8
0
 10
346.000000
 20
207.000000
 11
346.000000
 21
225.000000
  0
LINE
  8
0
 10
345.000000
 20
206.000000
 11
345.000000
 21
226.000000
  0
LINE
  8
0
 10
345.000061
 20
206.000031
 11
346.000061
 21
207.000031
  0
LINE
  8
0
 10
345.999969
 20
224.999969
 11
344.999969
 21
225.999969
  0
LINE
  8
0
 62
     2
 10
346.000000
 20
224.600006
 11
332.100006
 21
224.600006
  0
LINE
  8
0
 62
     2
 10
346.000000
 20
207.399994
 11
332.100006
 21
207.399994
  0
LINE
  8
0
 10
316.100006
 20
231.000000
 11
332.100006
 21
231.000000
  0
LINE
  8
0
 10
316.100006
 20
216.000000
 11
330.760254
 21
216.000000
  0
LINE
  8
0
 10
316.100006
 20
201.000000
 11
332.100006
 21
201.000000
  0
LINE
  8
0
 10
332.100006
 20
231.000000
 11
332.100006
 21
201.000000
  0
LINE
  8
0
 10
94.899994
 20
232.500000
 11
94.899994
 21
199.500000
  0
LINE
  8
0
 10
316.100006
 20
232.499847
 11
316.100006
 21
199.499847
  0
LINE
  8
0
 10
316.100006
 20
50.499847
 11
316.100006
 21
17.499847
  0
LINE
  8
0
 10
31.866173
 20
102.000000
 11
48.000000
 21
102.000000
  0
LINE
  8
0
 10
31.865913
 20
148.000000
 11
48.000000
 21
148.000000
  0
LINE
  8
0
 10
48.000008
 20
147.999985
 11
49.154709
 21
150.000000
  0
LINE
  8
0
 10
47.999992
 20
102.000000
 11
49.154686
 21
100.000000
  0
LINE
  8
0
  6
CENTER
 62
     2
 10
52.881363
 20
216.000000
 11
359.933350
 21
216.000000
  0
LINE
  8
0
  6
CENTER
 62
     2
 10
52.881363
 20
34.000000
 11
359.933350
 21
34.000000
  0
LINE
  8
0
 10
-35.000000
 20
146.750000
 11
-35.000000
 21
103.250000
  0
LINE
  8
0
 10
-34.250000
 20
102.500000
 11
31.000000
 21
102.500000
  0
LINE
  8
0
 10
28.000000
 20
147.500000
 11
28.000000
 21
102.500000
  0
LINE
  8
0
 10
-34.250000
 20
147.500000
 11
31.000000
 21
147.500000
  0
LINE
  8
0
 62
     2
 10
28.000010
 20
103.250061
 11
29.607222
 21
102.500031
  0
LINE
  8
0
 62
     2
 10
-35.000000
 20
146.750000
 11
28.000000
 21
146.750000
  0
LINE
  8
0
 62
     2
 10
28.000019
 20
146.749939
 11
29.607229
 21
147.499969
  0
LINE
  8
0
 10
-35.000004
 20
146.749985
 11
-34.249996
 21
147.500000
  0
LINE
  8
0
 10
-34.250000
 20
147.500000
 11
-34.250000
 21
102.500000
  0
LINE
  8
0
 62
     2
 10
-35.000000
 20
103.250000
 11
28.000000
 21
103.250000
  0
LINE
  8
0
 10
-35.000019
 20
103.249977
 11
-34.250011
 21
102.499977
  0
CIRCLE
  8
0
 10
118.500000
 20
-130.000000
 40
7.950000
  0
CIRCLE
  8
0
 10
292.500000
 20
-130.000000
 40
7.950000
  0
CIRCLE
  8
0
 10
118.500000
 20
-130.000000
 40
5.150000
  0
CIRCLE
  8
0
 10
292.500000
 20
-130.000000
 40
5.150000
  0
ARC
  8
0
 10
88.000000
 20
-176.000000
 40
1.000000
 50
180.000000
 51
270.000000
  0
ARC
  8
0
 10
88.000000
 20
-84.000000
 40
1.000000
 50
90.000000
 51
180.000000
  0
ARC
  8
0
 10
47.454468
 20
-130.000000
 40
15.588446
 50
141.057571
 51
218.942398
  0
ARC
  8
0
 10
16.750000
 20
-130.000000
 40
32.749996
 50
342.591980
 51
17.408018
  0
ARC
  8
0
 10
325.528656
 20
-51.990372
 40
6.571341
 50
318.780914
 51
41.219090
  0
ARC
  8
0
 10
308.257294
 20
-39.000000
 40
23.842703
 50
338.701721
 51
21.298334
  0
ARC
  8
0
 10
325.528687
 20
-26.009628
 40
6.571318
 50
318.780731
 51
41.219280
  0
ARC
  8
0
 10
85.471344
 20
-26.009628
 40
6.571336
 50
138.780853
 51
221.219131
  0
ARC
  8
0
 10
102.742706
 20
-39.000000
 40
23.842712
 50
158.701691
 51
201.298309
  0
ARC
  8
0
 10
85.471329
 20
-51.990372
 40
6.571329
 50
138.780823
 51
221.219177
  0
ARC
  8
0
 10
85.471344
 20
-208.009628
 40
6.571337
 50
138.780838
 51
221.219162
  0
ARC
  8
0
 10
102.742706
 20
-221.000000
 40
23.842716
 50
158.701675
 51
201.298294
  0
ARC
  8
0
 10
85.471329
 20
-233.990356
 40
6.571332
 50
138.780792
 51
221.219208
  0
ARC
  8
0
 10
325.528687
 20
-208.009628
 40
6.571320
 50
318.780701
 51
41.219292
  0
ARC
  8
0
 10
325.528687
 20
-233.990356
 40
6.571343
 50
318.780884
 51
41.219116
  0
ARC
  8
0
 10
308.257294
 20
-221.000000
 40
23.842703
 50
338.701691
 51
21.298334
  0
CIRCLE
  8
0
 10
-230.000000
 20
-130.000000
 40
57.500000
  0
ARC
  8
0
 10
-196.766022
 20
-163.234070
 40
10.000008
 50
56.944412
 51
213.055389
  0
CIRCLE
  8
0
 10
-196.766022
 20
-163.234070
 40
8.000000
  0
CIRCLE
  8
0
 10
-196.765930
 20
-96.766022
 40
8.000000
  0
CIRCLE
  8
0
 10
-263.233978
 20
-96.765930
 40
8.000000
  0
CIRCLE
  8
0
 10
-263.234070
 20
-163.233978
 40
8.000000
  0
ARC
  8
0
 10
-190.765991
 20
-105.985596
 40
0.999995
 50
31.470470
 51
123.055977
  0
ARC
  8
0
 10
-190.766052
 20
-154.014526
 40
1.000009
 50
236.944504
 51
328.530365
  0
ARC
  8
0
 10
-230.000000
 20
-130.000000
 40
46.999996
 50
328.529846
 51
31.470057
  0
ARC
  8
0
 10
-196.765930
 20
-96.766022
 40
9.999995
 50
146.944366
 51
303.055420
  0
ARC
  8
0
 10
-205.985474
 20
-90.766052
 40
1.000005
 50
326.944855
 51
58.530128
  0
ARC
  8
0
 10
-230.000000
 20
-130.000000
 40
46.999996
 50
58.529835
 51
121.470055
  0
ARC
  8
0
 10
-254.014404
 20
-90.765991
 40
1.000006
 50
121.470619
 51
213.055969
  0
ARC
  8
0
 10
-263.233978
 20
-96.765930
 40
10.000001
 50
236.944382
 51
33.055431
  0
ARC
  8
0
 10
-269.233948
 20
-105.985489
 40
0.999994
 50
56.944996
 51
148.529907
  0
ARC
  8
0
 10
-230.000000
 20
-130.000000
 40
47.000011
 50
148.529846
 51
211.470062
  0
ARC
  8
0
 10
-269.234009
 20
-154.014404
 40
0.999999
 50
211.470840
 51
303.056702
  0
ARC
  8
0
 10
-263.234070
 20
-163.233978
 40
10.000008
 50
326.944397
 51
123.055397
  0
ARC
  8
0
 10
-254.014526
 20
-169.233948
 40
1.000009
 50
146.944504
 51
238.530365
  0
ARC
  8
0
 10
-230.000000
 20
-130.000000
 40
46.999996
 50
238.529831
 51
301.470062
  0
ARC
  8
0
 10
-205.985596
 20
-169.234009
 40
0.999999
 50
301.470856
 51
33.055973
  0
CIRCLE
  8
0
 10
-230.000000
 20
-130.000000
 40
25.000000
  0
CIRCLE
  8
0
 10
-230.000000
 20
-130.000000
 40
22.500000
  0
CIRCLE
  8
0
 10
-230.000000
 20
-130.000000
 40
35.000000
  0
CIRCLE
  8
0
 10
-139.000000
 20
-221.000000
 40
14.500000
  0
CIRCLE
  8
0
 10
-139.000000
 20
-221.000000
 40
10.000000
  0
CIRCLE
  8
0
 10
-139.000000
 20
-39.000000
 40
14.500000
  0
CIRCLE
  8
0
 10
-139.000000
 20
-39.000000
 40
10.000000
  0
CIRCLE
  8
0
 10
-321.000000
 20
-221.000000
 40
14.500000
  0
CIRCLE
  8
0
 10
-321.000000
 20
-221.000000
 40
10.000000
  0
CIRCLE
  8
0
 10
-321.000000
 20
-39.000000
 40
10.000000
  0
CIRCLE
  8
0
 10
-321.000000
 20
-39.000000
 40
14.500000
  0
CIRCLE
  8
0
 62
     2
 10
-139.000000
 20
-221.000000
 40
8.600000
  0
CIRCLE
  8
0
 62
     2
 10
-321.000000
 20
-221.000000
 40
8.600000
  0
CIRCLE
  8
0
 62
     2
 10
-139.000000
 20
-39.000000
 40
8.600000
  0
CIRCLE
  8
0
 62
     2
 10
-321.000000
 20
-39.000000
 40
8.600000
  0
CIRCLE
  8
0
 62
     2
 10
-230.000000
 20
-130.000000
 40
21.750000
  0
ARC
  8
0
 10
88.000000
 20
79.000000
 40
1.000000
 50
180.000000
 51
270.000000
  0
ARC
  8
0
 10
88.000000
 20
171.000000
 40
1.000000
 50
90.000000
 51
180.000000
  0
CIRCLE
  8
0
 62
     2
 10
118.500000
 20
125.000000
 40
13.220500
  0
CIRCLE
  8
0
 62
     2
 10
292.500000
 20
125.000000
 40
13.220500
  0
CIRCLE
  8
0
 10
118.500000
 20
125.000000
 40
12.058500
  0
CIRCLE
  8
0
 10
292.500000
 20
125.000000
 40
12.058500
  0
ARC
  8
0
 10
100.562637
 20
41.500000
 40
21.662642
 50
159.743805
 51
200.256088
  0
ARC
  8
0
 10
100.562637
 20
26.500000
 40
21.662642
 50
159.743805
 51
200.256088
  0
ARC
  8
0
 10
100.562637
 20
208.500000
 40
21.662645
 50
159.743835
 51
200.256119
  0
ARC
  8
0
 10
100.562637
 20
223.500000
 40
21.662645
 50
159.743835
 51
200.256119
  0
ARC
  8
0
 10
310.437378
 20
41.500000
 40
21.662647
 50
339.743866
 51
20.256145
  0
ARC
  8
0
 10
310.437378
 20
26.500000
 40
21.662647
 50
339.743866
 51
20.256145
  0
ARC
  8
0
 10
310.437378
 20
208.500000
 40
21.662653
 50
339.743835
 51
20.256126
  0
ARC
  8
0
 10
310.437378
 20
223.500000
 40
21.662653
 50
339.743835
 51
20.256126
  0
TEXT
  8
0
 10
-369.785309
 20
256.649994
 40
9.000000
  1
SD CYLINDER
 50
0.000000
 41
1.052632
 51
0.000000
  7
STANDARD
  0
TEXT
  8
0
 10
242.014816
 20
-274.500000
 40
12.500000
  1
KOGANEI CORP.
 50
0.000000
 41
1.052632
 51
0.000000
  7
STANDARD
  0
TEXT
  8
0
 10
251.264664
 20
256.649994
 40
9.000000
  1
DATE: AUG ,1993
 50
0.000000
 41
1.052632
 51
0.000000
  7
STANDARD
  0
TEXT
  8
0
 10
-384.785309
 20
224.149994
 40
9.000000
  1
MODEL:KA0SD200*100
 50
0.000000
 41
1.052632
 51
0.000000
  7
STANDARD
  0
ENDSEC
  0
EOF
