  0
SECTION
  2
HEADER
  0
ENDSEC
  0
SECTION
  2
TABLES
  0
TABLE
  2
LTYPE
 70
     4
  0
LTYPE
  2
CONTINUOUS
 70
    64
  3
Solid line
 72
    65
 73
     0
 40
0.000000
  0
LTYPE
  2
DASHED
 70
    64
  3
__ __ __ __ __ __ __ __ __ __ __ __ __ __ __
 72
    65
 73
     2
 40
3.500000
 49
2.000000
 49
-1.500000
  0
LTYPE
  2
CENTER
 70
    64
  3
____ _ ____ _ ____ _ ____ _ ____ _ ____ _ ____
 72
    65
 73
     4
 40
17.500000
 49
13.000000
 49
-1.500000
 49
1.500000
 49
-1.500000
  0
LTYPE
  2
PHANTOM
 70
    64
  3
_____ _ _ _____ _ _ _____ _ _ _____ _ _ ____  
 72
    65
 73
     6
 40
15.500000
 49
8.000000
 49
-1.500000
 49
1.500000
 49
-1.500000
 49
1.500000
 49
-1.500000
  0
LTYPE
  2
DASHED1
 70
    64
  3
__ __ __ __ __ __ __ __ __ __ __ __ __ __ __
 72
    65
 73
     2
 40
1.500000
 49
1.000000
 49
-0.500000
  0
LTYPE
  2
DASHED2
 70
    64
  3
__ __ __ __ __ __ __ __ __ __ __ __ __ __ __
 72
    65
 73
     2
 40
3.500000
 49
2.500000
 49
-1.000000
  0
LTYPE
  2
DASHED3
 70
    64
  3
__ __ __ __ __ __ __ __ __ __ __ __ __ __ __
 72
    65
 73
     2
 40
6.000000
 49
4.000000
 49
-2.000000
  0
LTYPE
  2
DASHED4
 70
    64
  3
__ __ __ __ __ __ __ __ __ __ __ __ __ __ __
 72
    65
 73
     2
 40
12.000000
 49
10.000000
 49
-2.000000
  0
LTYPE
  2
DASHED5
 70
    64
  3
__ __ __ __ __ __ __ __ __ __ __ __ __ __ __
 72
    65
 73
     2
 40
17.000000
 49
15.000000
 49
-2.000000
  0
LTYPE
  2
DASHED6
 70
    64
  3
__ __ __ __ __ __ __ __ __ __ __ __ __ __ __
 72
    65
 73
     2
 40
29.000000
 49
27.000000
 49
-2.000000
  0
LTYPE
  2
PHANTOM1
 70
    64
  3
_____ _ _ _____ _ _ _____ _ _ _____ _ _ ____  
 72
    65
 73
     6
 40
31.000000
 49
25.000000
 49
-1.500000
 49
1.000000
 49
-1.000000
 49
1.000000
 49
-1.500000
  0
LTYPE
  2
PHANTOM2
 70
    64
  3
_____ _ _ _____ _ _ _____ _ _ _____ _ _ ____  
 72
    65
 73
     6
 40
36.000000
 49
27.000000
 49
-1.500000
 49
2.500000
 49
-1.000000
 49
2.500000
 49
-1.500000
  0
LTYPE
  2
PHANTOM3
 70
    64
  3
_____ _ _ _____ _ _ _____ _ _ _____ _ _ ____  
 72
    65
 73
     6
 40
78.000000
 49
64.000000
 49
-2.000000
 49
4.000000
 49
-2.000000
 49
4.000000
 49
-2.000000
  0
LTYPE
  2
CENTER1
 70
    64
  3
____ _ ____ _ ____ _ ____ _ ____ _ ____ _ ____
 72
    65
 73
     4
 40
19.000000
 49
14.000000
 49
-1.000000
 49
3.000000
 49
-1.000000
  0
LTYPE
  2
CENTER2
 70
    64
  3
____ _ ____ _ ____ _ ____ _ ____ _ ____ _ ____
 72
    65
 73
     4
 40
28.500000
 49
25.000000
 49
-1.000000
 49
1.500000
 49
-1.000000
  0
LTYPE
  2
CENTER3
 70
    64
  3
____ _ ____ _ ____ _ ____ _ ____ _ ____ _ ____
 72
    65
 73
     4
 40
31.500000
 49
27.000000
 49
-1.000000
 49
2.500000
 49
-1.000000
  0
LTYPE
  2
CENTER4
 70
    64
  3
____ _ ____ _ ____ _ ____ _ ____ _ ____ _ ____
 72
    65
 73
     4
 40
50.000000
 49
45.000000
 49
-1.000000
 49
3.000000
 49
-1.000000
  0
LTYPE
  2
CENTER5
 70
    64
  3
____ _ ____ _ ____ _ ____ _ ____ _ ____ _ ____
 72
    65
 73
     4
 40
100.000000
 49
92.000000
 49
-2.000000
 49
4.000000
 49
-2.000000
  0
LTYPE
  2
SBK1
 70
    64
  3
______ _ _ _ ______ _ _ _ ______ _ _ _ _____  
 72
    65
 73
     8
 40
60.500000
 49
45.000000
 49
-2.000000
 49
2.500000
 49
-2.000000
 49
2.500000
 49
-2.000000
 49
2.500000
 49
-2.000000
  0
LTYPE
  2
SBK2
 70
    64
  3
______ _ _ _ ______ _ _ _ ______ _ _ _ _____  
 72
    65
 73
     8
 40
84.000000
 49
64.000000
 49
-2.000000
 49
4.000000
 49
-2.000000
 49
4.000000
 49
-2.000000
 49
4.000000
 49
-2.000000
  0
LTYPE
  2
STCH
 70
    64
  3
__ __ __ __ __ __ __ __ __ __ __ __ __ __ __
 72
    65
 73
     2
 40
3.000000
 49
1.000000
 49
-2.000000
  0
LTYPE
  2
MTCH
 70
    64
  3
_____ _ _ _____ _ _ _____ _ _ _____ _ _ ____  
 72
    65
 73
     6
 40
80.000000
 49
66.000000
 49
-2.000000
 49
4.000000
 49
-2.000000
 49
4.000000
 49
-2.000000
  0
ENDTAB
  0
TABLE
  2
LAYER
 70
     1
  0
LAYER
  2
0
 70
     0
 62
     7
  6
CONTINUOUS
  0
ENDTAB
  0
TABLE
  2
STYLE
 70
     1
  0
STYLE
  2
STANDARD
 70
     0
 40
0.000000
 41
1.000000
 50
0.000000
 71
     0
 42
0.200000
  3
txt
  4
BIGFONT
  0
ENDTAB
  0
TABLE
  2
VIEW
 70
     0
  0
ENDTAB
  0
ENDSEC
  0
SECTION
  2
BLOCKS
  0
ENDSEC
  0
SECTION
  2
ENTITIES
  0
LINE
  8
0
 10
574.500000
 20
400.500000
 11
574.500000
 21
-400.500000
  0
LINE
  8
0
 10
-564.500000
 20
400.500000
 11
574.500000
 21
400.500000
  0
LINE
  8
0
 10
-564.500000
 20
-400.500000
 11
574.500000
 21
-400.500000
  0
LINE
  8
0
 10
-564.500000
 20
400.500000
 11
-564.500000
 21
-400.500000
  0
LINE
  8
0
 10
-564.500000
 20
370.500000
 11
-334.500000
 21
370.500000
  0
LINE
  8
0
 10
344.500000
 20
370.500000
 11
574.500000
 21
370.500000
  0
LINE
  8
0
 10
344.500000
 20
-370.500000
 11
574.500000
 21
-370.500000
  0
LINE
  8
0
 10
344.500000
 20
-370.500000
 11
344.500000
 21
-400.500000
  0
LINE
  8
0
 10
344.500000
 20
400.500000
 11
344.500000
 21
370.500000
  0
LINE
  8
0
 10
-334.500000
 20
400.500000
 11
-334.500000
 21
370.500000
  0
LINE
  8
0
 10
213.226257
 20
-365.693909
 11
223.226257
 21
-365.693909
  0
LINE
  8
0
 10
5.000000
 20
400.500000
 11
5.000000
 21
-400.500000
  0
LINE
  8
0
 10
-373.607117
 20
-365.693909
 11
-363.607117
 21
-365.693909
  0
LINE
  8
0
 10
-288.750000
 20
-295.074524
 11
-291.050049
 21
-295.074524
  0
LINE
  8
0
 10
-288.750000
 20
-315.074524
 11
-291.050049
 21
-315.074524
  0
LINE
  8
0
 10
-291.750000
 20
-295.774536
 11
-291.750000
 21
-314.374512
  0
LINE
  8
0
 10
-291.049500
 20
-315.073975
 11
-291.749481
 21
-314.373962
  0
LINE
  8
0
 10
-291.049988
 20
-295.074493
 11
-291.749969
 21
-295.774506
  0
LINE
  8
0
 10
-291.050049
 20
-315.074524
 11
-291.050049
 21
-295.074524
  0
LINE
  8
0
 10
-288.750000
 20
-289.607483
 11
-288.750000
 21
-320.541565
  0
LINE
  8
0
 10
315.583374
 20
-281.267456
 11
315.583374
 21
-329.321106
  0
LINE
  8
0
 10
307.583374
 20
-283.074158
 11
307.583374
 21
-327.074158
  0
LINE
  8
0
 10
315.583374
 20
-283.074158
 11
307.583374
 21
-283.074158
  0
LINE
  8
0
  6
CENTER
 62
     2
 10
316.583374
 20
-320.074158
 11
306.583374
 21
-320.074158
  0
LINE
  8
0
  6
CENTER
 62
     2
 10
316.583374
 20
-290.074158
 11
306.583374
 21
-290.074158
  0
LINE
  8
0
 10
315.583374
 20
-327.074158
 11
307.583374
 21
-327.074158
  0
LINE
  8
0
 10
307.583374
 20
-288.074188
 11
315.583374
 21
-288.074188
  0
LINE
  8
0
 10
307.583374
 20
-322.074158
 11
315.583374
 21
-322.074158
  0
LINE
  8
0
 10
-333.750031
 20
114.500000
 11
-377.750000
 21
114.500000
  0
LINE
  8
0
 10
-333.750031
 20
13.500000
 11
-377.750000
 21
13.500000
  0
LINE
  8
0
  6
CENTER
 62
     2
 10
-240.032532
 20
64.000000
 11
-412.912292
 21
64.000000
  0
LINE
  8
0
 10
-334.050049
 20
115.699997
 11
-377.450012
 21
115.699997
  0
LINE
  8
0
 10
-335.015625
 20
121.500000
 11
-376.484436
 21
121.500000
  0
LINE
  8
0
 10
-377.450012
 20
115.699997
 11
-377.450012
 21
114.500000
  0
LINE
  8
0
 10
-334.050049
 20
115.699997
 11
-334.050049
 21
114.500000
  0
LINE
  8
0
 10
-334.050110
 20
115.699982
 11
-334.517578
 21
121.043556
  0
LINE
  8
0
 10
-377.450104
 20
115.699997
 11
-376.982574
 21
121.043587
  0
LINE
  8
0
 10
-344.451385
 20
117.556427
 11
-344.756439
 21
121.043571
  0
LINE
  8
0
 10
-367.048767
 20
117.556435
 11
-366.743713
 21
121.043587
  0
LINE
  8
0
 10
-334.172516
 20
117.100006
 11
-343.953308
 21
117.100006
  0
LINE
  8
0
 10
-367.546753
 20
117.100006
 11
-377.327515
 21
117.100006
  0
LINE
  8
0
 10
-367.950012
 20
118.100006
 11
-375.550049
 21
118.100006
  0
LINE
  8
0
 10
-367.950012
 20
118.100006
 11
-367.950012
 21
117.100006
  0
LINE
  8
0
 10
-375.550049
 20
118.100006
 11
-375.550049
 21
117.100006
  0
LINE
  8
0
 10
-335.950012
 20
118.100006
 11
-343.550049
 21
118.100006
  0
LINE
  8
0
 10
-335.950012
 20
118.100006
 11
-335.950012
 21
117.100006
  0
LINE
  8
0
 10
-343.550049
 20
118.100006
 11
-343.550049
 21
117.100006
  0
LINE
  8
0
 10
-334.050049
 20
12.299999
 11
-377.450012
 21
12.299999
  0
LINE
  8
0
 10
-335.015625
 20
6.500000
 11
-376.484436
 21
6.500000
  0
LINE
  8
0
 10
-377.450012
 20
12.299999
 11
-377.450012
 21
13.500000
  0
LINE
  8
0
 10
-334.050049
 20
12.299999
 11
-334.050049
 21
13.500000
  0
LINE
  8
0
 10
-334.050079
 20
12.300003
 11
-334.517548
 21
6.956424
  0
LINE
  8
0
 10
-377.450195
 20
12.299995
 11
-376.982666
 21
6.956415
  0
LINE
  8
0
 10
-344.451294
 20
10.443568
 11
-344.756378
 21
6.956416
  0
LINE
  8
0
 10
-367.048737
 20
10.443585
 11
-366.743622
 21
6.956428
  0
LINE
  8
0
 10
-334.172516
 20
10.900002
 11
-343.953308
 21
10.900002
  0
LINE
  8
0
 10
-367.546753
 20
10.900002
 11
-377.327515
 21
10.900002
  0
LINE
  8
0
 10
-367.950012
 20
9.900002
 11
-375.550049
 21
9.900002
  0
LINE
  8
0
 10
-367.950012
 20
9.900002
 11
-367.950012
 21
10.900002
  0
LINE
  8
0
 10
-375.550049
 20
9.900002
 11
-375.550049
 21
10.900002
  0
LINE
  8
0
 10
-335.950012
 20
9.900002
 11
-343.550049
 21
9.900002
  0
LINE
  8
0
 10
-335.950012
 20
9.900002
 11
-335.950012
 21
10.900002
  0
LINE
  8
0
 10
-343.550049
 20
9.900002
 11
-343.550049
 21
10.900002
  0
LINE
  8
0
 10
-349.250000
 20
123.500000
 11
-362.250000
 21
123.500000
  0
LINE
  8
0
 10
-349.250000
 20
128.500000
 11
-362.250061
 21
128.500000
  0
LINE
  8
0
 10
-352.250000
 20
131.500000
 11
-359.250000
 21
131.500000
  0
LINE
  8
0
 10
-351.750000
 20
131.000000
 11
-351.750000
 21
128.500000
  0
LINE
  8
0
 10
-359.750000
 20
131.000000
 11
-359.750000
 21
128.500000
  0
LINE
  8
0
 10
-352.250031
 20
131.499985
 11
-351.750031
 21
131.000000
  0
LINE
  8
0
 10
-359.249847
 20
131.499893
 11
-359.749847
 21
130.999893
  0
LINE
  8
0
 10
-351.750061
 20
131.000000
 11
-359.750000
 21
131.000000
  0
LINE
  8
0
 62
     2
 10
-352.375000
 20
131.500000
 11
-352.375000
 21
128.500000
  0
LINE
  8
0
 62
     2
 10
-359.125000
 20
131.500000
 11
-359.125000
 21
128.500000
  0
LINE
  8
0
  6
CENTER
 62
     2
 10
-362.750000
 20
43.000000
 11
-376.750000
 21
43.000000
  0
LINE
  8
0
  6
CENTER
 62
     2
 10
-362.750000
 20
85.000000
 11
-376.750000
 21
85.000000
  0
LINE
  8
0
  6
CENTER
 62
     2
 10
-369.750000
 20
50.000000
 11
-369.750000
 21
36.000000
  0
LINE
  8
0
  6
CENTER
 62
     2
 10
-369.750000
 20
92.000000
 11
-369.750000
 21
78.000000
  0
LINE
  8
0
 10
-351.997253
 20
127.919434
 11
-351.997253
 21
124.080566
  0
LINE
  8
0
 10
-348.244507
 20
127.919434
 11
-348.244507
 21
124.080566
  0
LINE
  8
0
 10
-349.250214
 20
123.500191
 11
-348.244659
 21
124.080757
  0
LINE
  8
0
 10
-349.250000
 20
128.500031
 11
-348.244507
 21
127.919479
  0
LINE
  8
0
 10
-359.502808
 20
127.919434
 11
-359.502808
 21
124.080566
  0
LINE
  8
0
 10
-362.250061
 20
123.500122
 11
-363.255615
 21
124.080681
  0
LINE
  8
0
 10
-362.250275
 20
128.500397
 11
-363.255798
 21
127.919853
  0
LINE
  8
0
 10
-363.255554
 20
127.919434
 11
-363.255554
 21
124.080566
  0
LINE
  8
0
 10
-349.250000
 20
4.500000
 11
-362.250000
 21
4.500000
  0
LINE
  8
0
 10
-349.250000
 20
-0.500000
 11
-362.250061
 21
-0.500000
  0
LINE
  8
0
 10
-352.250000
 20
-3.500000
 11
-359.250000
 21
-3.500000
  0
LINE
  8
0
 10
-351.750000
 20
-3.000000
 11
-351.750000
 21
-0.500000
  0
LINE
  8
0
 10
-359.750000
 20
-3.000000
 11
-359.750000
 21
-0.500000
  0
LINE
  8
0
 10
-352.249908
 20
-3.500058
 11
-351.749939
 21
-3.000068
  0
LINE
  8
0
 10
-359.250031
 20
-3.499982
 11
-359.750031
 21
-2.999971
  0
LINE
  8
0
 10
-351.750061
 20
-3.000000
 11
-359.750000
 21
-3.000000
  0
LINE
  8
0
 62
     2
 10
-352.375000
 20
-3.500000
 11
-352.375000
 21
-0.500000
  0
LINE
  8
0
 62
     2
 10
-359.125000
 20
-3.500000
 11
-359.125000
 21
-0.500000
  0
LINE
  8
0
 10
-351.997253
 20
0.080559
 11
-351.997253
 21
3.919441
  0
LINE
  8
0
 10
-348.244507
 20
0.080574
 11
-348.244507
 21
3.919441
  0
LINE
  8
0
 10
-349.250000
 20
4.499978
 11
-348.244507
 21
3.919414
  0
LINE
  8
0
 10
-349.250183
 20
-0.499908
 11
-348.244629
 21
0.080645
  0
LINE
  8
0
 10
-359.502808
 20
0.080559
 11
-359.502808
 21
3.919441
  0
LINE
  8
0
 10
-362.250122
 20
4.500063
 11
-363.255646
 21
3.919510
  0
LINE
  8
0
 10
-362.250153
 20
-0.500054
 11
-363.255646
 21
0.080493
  0
LINE
  8
0
 10
-363.255554
 20
0.080574
 11
-363.255554
 21
3.919441
  0
LINE
  8
0
 10
-320.750031
 20
86.500000
 11
-320.750031
 21
41.500000
  0
LINE
  8
0
 10
-320.750031
 20
86.500000
 11
-333.750031
 21
86.500000
  0
LINE
  8
0
 10
-320.750031
 20
41.500000
 11
-333.750031
 21
41.500000
  0
LINE
  8
0
 10
-320.750031
 20
51.948029
 11
-333.750031
 21
51.948029
  0
LINE
  8
0
 10
-320.750031
 20
76.051971
 11
-333.750031
 21
76.051971
  0
LINE
  8
0
  6
CENTER
 62
     2
 10
-327.250031
 20
70.500000
 11
-327.250031
 21
57.500000
  0
LINE
  8
0
 10
-248.750031
 20
73.500000
 11
-248.750031
 21
54.500000
  0
LINE
  8
0
 10
-257.750031
 20
77.199997
 11
-257.750031
 21
50.800003
  0
LINE
  8
0
 10
-253.750031
 20
77.199997
 11
-267.750031
 21
77.199997
  0
LINE
  8
0
 10
-253.750031
 20
50.800003
 11
-267.750031
 21
50.800003
  0
LINE
  8
0
 10
-248.750031
 20
73.500000
 11
-253.750031
 21
73.500000
  0
LINE
  8
0
 10
-248.750031
 20
54.500000
 11
-253.750031
 21
54.500000
  0
LINE
  8
0
 10
-253.750031
 20
77.199997
 11
-253.750031
 21
73.500000
  0
LINE
  8
0
 10
-253.750031
 20
54.500000
 11
-253.750031
 21
50.800003
  0
LINE
  8
0
 10
-249.750031
 20
73.500000
 11
-249.750031
 21
54.500000
  0
LINE
  8
0
 10
-377.750000
 20
74.000000
 11
-380.050049
 21
74.000000
  0
LINE
  8
0
 10
-377.750000
 20
54.000000
 11
-380.050049
 21
54.000000
  0
LINE
  8
0
 10
-380.750000
 20
73.299995
 11
-380.750000
 21
54.699997
  0
LINE
  8
0
 10
-380.050018
 20
53.999992
 11
-380.749969
 21
54.700001
  0
LINE
  8
0
 10
-380.049774
 20
73.999825
 11
-380.749725
 21
73.299812
  0
LINE
  8
0
 10
-380.050049
 20
54.000000
 11
-380.050049
 21
74.000000
  0
LINE
  8
0
 62
     4
 10
-400.104675
 20
70.500000
 11
-400.104675
 21
57.500000
  0
LINE
  8
0
 62
     4
 10
-395.104675
 20
70.500000
 11
-395.104675
 21
57.500000
  0
LINE
  8
0
 62
     4
 10
-395.104675
 20
70.500000
 11
-400.104675
 21
70.500000
  0
LINE
  8
0
 62
     4
 10
-395.104675
 20
57.500000
 11
-400.104675
 21
57.500000
  0
LINE
  8
0
 62
     1
 10
-388.750092
 20
67.200119
 11
-387.884155
 21
67.700111
  0
LINE
  8
0
 62
     1
 10
-400.104675
 20
60.800003
 11
-406.750000
 21
60.800003
  0
LINE
  8
0
 62
     4
 10
-386.750061
 20
62.480145
 11
-385.491425
 21
60.300030
  0
LINE
  8
0
 62
     1
 10
-388.750000
 20
60.800003
 11
-395.104675
 21
60.800003
  0
LINE
  8
0
 62
     1
 10
-388.750061
 20
60.799965
 11
-387.884094
 21
60.299969
  0
LINE
  8
0
 62
     1
 10
-388.750000
 20
67.199997
 11
-395.104675
 21
67.199997
  0
LINE
  8
0
 62
     4
 10
-400.104675
 20
62.480125
 11
-406.250000
 21
62.480125
  0
LINE
  8
0
 62
     1
 10
-400.104675
 20
67.199997
 11
-406.750000
 21
67.199997
  0
LINE
  8
0
 62
     4
 10
-400.104675
 20
60.300003
 11
-406.250000
 21
60.300003
  0
LINE
  8
0
 62
     4
 10
-400.104675
 20
65.519875
 11
-406.250000
 21
65.519875
  0
LINE
  8
0
 62
     4
 10
-400.104675
 20
67.699997
 11
-406.250000
 21
67.699997
  0
LINE
  8
0
 62
     4
 10
-406.750000
 20
67.199997
 11
-406.750000
 21
60.800003
  0
LINE
  8
0
 62
     4
 10
-380.750000
 20
67.699997
 11
-395.104675
 21
67.699997
  0
LINE
  8
0
 62
     4
 10
-380.750000
 20
60.300003
 11
-395.104675
 21
60.300003
  0
LINE
  8
0
 62
     4
 10
-406.749969
 20
60.800026
 11
-406.250000
 21
60.300037
  0
LINE
  8
0
 62
     4
 10
-406.749939
 20
67.199982
 11
-406.249939
 21
67.699974
  0
LINE
  8
0
 62
     4
 10
-406.250000
 20
60.300003
 11
-406.250000
 21
62.480125
  0
LINE
  8
0
 62
     4
 10
-388.750000
 20
67.699997
 11
-388.750000
 21
65.519875
  0
LINE
  8
0
 62
     4
 10
-386.750000
 20
67.699997
 11
-386.750000
 21
65.519875
  0
LINE
  8
0
 62
     4
 10
-386.750000
 20
65.519875
 11
-395.104675
 21
65.519875
  0
LINE
  8
0
 62
     4
 10
-386.750000
 20
62.480125
 11
-395.104675
 21
62.480125
  0
LINE
  8
0
 62
     4
 10
-406.250000
 20
65.519875
 11
-406.250000
 21
67.699997
  0
LINE
  8
0
 62
     4
 10
-406.249908
 20
65.519783
 11
-406.749908
 21
65.019791
  0
LINE
  8
0
 62
     4
 10
-406.249969
 20
62.480148
 11
-406.749969
 21
62.980137
  0
LINE
  8
0
 62
     4
 10
-386.750000
 20
62.480125
 11
-386.750000
 21
60.300003
  0
LINE
  8
0
 62
     4
 10
-388.750000
 20
62.480125
 11
-388.750000
 21
60.300003
  0
LINE
  8
0
 62
     4
 10
-386.750092
 20
65.519897
 11
-385.491394
 21
67.700043
  0
LINE
  8
0
 62
     4
 10
-395.685242
 20
64.000000
 11
-399.524109
 21
64.000000
  0
LINE
  8
0
 10
-333.750031
 20
114.500000
 11
-333.750031
 21
13.500000
  0
LINE
  8
0
 10
-377.750000
 20
114.500000
 11
-377.750000
 21
13.500000
  0
LINE
  8
0
  6
CENTER
 62
     2
 10
-355.750000
 20
136.500000
 11
-355.750000
 21
-8.500000
  0
LINE
  8
0
 62
     4
 10
-298.000031
 20
87.333542
 11
-293.500031
 21
87.333542
  0
LINE
  8
0
 62
     4
 10
-300.750031
 20
88.333542
 11
-298.000031
 21
88.333542
  0
LINE
  8
0
 62
     4
 10
-300.750031
 20
81.833542
 11
-300.750031
 21
88.333542
  0
LINE
  8
0
 62
     4
 10
-290.750031
 20
81.833542
 11
-290.750031
 21
88.333542
  0
LINE
  8
0
 62
     4
 10
-297.750031
 20
87.333542
 11
-297.750031
 21
84.833542
  0
LINE
  8
0
 62
     4
 10
-293.750031
 20
87.333542
 11
-293.750031
 21
84.833542
  0
LINE
  8
0
 62
     4
 10
-298.000031
 20
88.333542
 11
-298.000031
 21
86.719040
  0
LINE
  8
0
 62
     4
 10
-293.500031
 20
88.333542
 11
-293.500031
 21
86.719040
  0
LINE
  8
0
 62
     4
 10
-293.500031
 20
88.333542
 11
-290.750031
 21
88.333542
  0
LINE
  8
0
 62
     4
 10
-298.176758
 20
86.333542
 11
-297.750031
 21
86.333542
  0
LINE
  8
0
 62
     4
 10
-293.750031
 20
86.333542
 11
-293.323303
 21
86.333542
  0
LINE
  8
0
 62
     4
 10
-290.750031
 20
84.019043
 11
-284.750031
 21
84.019043
  0
LINE
  8
0
 62
     4
 10
-299.750031
 20
50.650208
 11
-291.750031
 21
50.650208
  0
LINE
  8
0
 62
     4
 10
-299.750031
 20
81.333542
 11
-299.750031
 21
50.650208
  0
LINE
  8
0
 62
     4
 10
-291.750031
 20
81.333542
 11
-291.750031
 21
50.650208
  0
LINE
  8
0
 62
     4
 10
-291.750031
 20
77.519043
 11
-284.750031
 21
77.519043
  0
LINE
  8
0
 62
     4
 10
-282.750031
 20
82.219040
 11
-277.750031
 21
82.219040
  0
LINE
  8
0
 62
     4
 10
-282.750031
 20
78.819046
 11
-277.750031
 21
78.819046
  0
LINE
  8
0
 62
     4
 10
-269.150024
 20
38.680954
 11
-274.350037
 21
38.680954
  0
LINE
  8
0
 62
     4
 10
-269.950012
 20
36.680954
 11
-271.450012
 21
36.680954
  0
LINE
  8
0
 62
     4
 10
-274.350037
 20
37.480957
 11
-274.350037
 21
38.680954
  0
LINE
  8
0
 62
     4
 10
-269.150024
 20
37.480957
 11
-269.150024
 21
38.680954
  0
LINE
  8
0
 62
     4
 10
-271.450012
 20
37.680954
 11
-271.450012
 21
36.680954
  0
LINE
  8
0
 62
     4
 10
-272.050049
 20
37.680954
 11
-272.050049
 21
36.680954
  0
LINE
  8
0
 62
     4
 10
-271.450012
 20
37.680954
 11
-272.050049
 21
37.680954
  0
LINE
  8
0
 62
     4
 10
-272.050049
 20
36.680954
 11
-273.550018
 21
36.680954
  0
LINE
  8
0
 62
     4
 10
-260.750031
 20
43.980957
 11
-266.750031
 21
43.980957
  0
LINE
  8
0
 62
     4
 10
-282.750031
 20
43.980957
 11
-282.750031
 21
50.800003
  0
LINE
  8
0
 62
     4
 10
-260.750031
 20
43.980957
 11
-260.750031
 21
50.800003
  0
LINE
  8
0
 62
     4
 10
-260.750031
 20
50.480957
 11
-267.750031
 21
50.480957
  0
LINE
  8
0
 62
     4
 10
-262.250031
 20
43.980957
 11
-262.250031
 21
43.480957
  0
LINE
  8
0
 62
     4
 10
-266.250031
 20
43.980957
 11
-266.250031
 21
43.480957
  0
LINE
  8
0
 62
     4
 10
-262.250031
 20
43.480957
 11
-266.250031
 21
43.480957
  0
LINE
  8
0
 62
     4
 10
-266.207794
 20
43.407852
 11
-266.250000
 21
43.480968
  0
LINE
  8
0
 62
     4
 10
-262.292175
 20
43.407795
 11
-262.249969
 21
43.480915
  0
LINE
  8
0
 62
     4
 10
-282.750031
 20
44.980957
 11
-284.750031
 21
44.980957
  0
LINE
  8
0
 62
     1
 10
-273.000031
 20
38.680954
 11
-273.000031
 21
39.666458
  0
LINE
  8
0
 62
     1
 10
-297.000031
 20
89.319046
 11
-297.000031
 21
87.333542
  0
LINE
  8
0
 62
     1
 10
-270.500031
 20
38.680954
 11
-270.500031
 21
39.666458
  0
LINE
  8
0
 62
     1
 10
-294.500031
 20
89.319046
 11
-294.500031
 21
87.333542
  0
LINE
  8
0
 62
     4
 10
-284.750031
 20
49.180954
 11
-289.750031
 21
49.180954
  0
LINE
  8
0
 62
     4
 10
-284.750031
 20
45.780960
 11
-289.750031
 21
45.780960
  0
LINE
  8
0
 62
     4
 10
-275.750031
 20
50.480957
 11
-282.750031
 21
50.480957
  0
LINE
  8
0
 62
     4
 10
-275.750031
 20
46.666458
 11
-275.750031
 21
77.349792
  0
LINE
  8
0
 62
     4
 10
-267.750031
 20
46.666458
 11
-267.750031
 21
77.349792
  0
LINE
  8
0
 62
     4
 10
-267.750031
 20
77.349792
 11
-275.750031
 21
77.349792
  0
LINE
  8
0
 62
     4
 10
-276.750031
 20
43.980957
 11
-282.750031
 21
43.980957
  0
LINE
  8
0
 62
     4
 10
-266.750031
 20
39.666458
 11
-276.750031
 21
39.666458
  0
LINE
  8
0
 62
     4
 10
-276.750031
 20
46.166458
 11
-276.750031
 21
39.666458
  0
LINE
  8
0
 62
     4
 10
-266.750031
 20
46.166458
 11
-266.750031
 21
39.666458
  0
LINE
  8
0
 62
     4
 10
-267.250031
 20
46.666458
 11
-276.250031
 21
46.666458
  0
LINE
  8
0
 62
     4
 10
-270.250031
 20
38.680954
 11
-270.250031
 21
39.666458
  0
LINE
  8
0
 62
     4
 10
-273.250031
 20
38.680954
 11
-273.250031
 21
39.666458
  0
LINE
  8
0
 62
     4
 10
-284.750031
 20
44.980957
 11
-284.750031
 21
49.980957
  0
LINE
  8
0
 62
     4
 10
-282.750031
 20
49.980957
 11
-284.750031
 21
49.980957
  0
LINE
  8
0
 62
     4
 10
-297.750031
 20
84.833542
 11
-293.750031
 21
84.833542
  0
LINE
  8
0
 62
     4
 10
-300.250031
 20
81.333542
 11
-291.250031
 21
81.333542
  0
LINE
  8
0
 62
     4
 10
-358.550049
 20
99.500000
 11
-358.550049
 21
107.500000
  0
LINE
  8
0
 62
     4
 10
-342.750031
 20
105.000000
 11
-343.250031
 21
105.000000
  0
LINE
  8
0
 62
     4
 10
-342.750031
 20
102.000000
 11
-343.250031
 21
102.000000
  0
LINE
  8
0
 62
     4
 10
-343.250031
 20
106.500000
 11
-357.750031
 21
106.500000
  0
LINE
  8
0
 62
     4
 10
-343.250031
 20
100.500000
 11
-357.750031
 21
100.500000
  0
LINE
  8
0
 62
     4
 10
-333.750031
 20
107.500000
 11
-358.550049
 21
107.500000
  0
LINE
  8
0
 62
     4
 10
-333.750031
 20
99.500000
 11
-358.550049
 21
99.500000
  0
LINE
  8
0
 62
     4
 10
-333.750031
 20
99.500000
 11
-333.750031
 21
107.500000
  0
LINE
  8
0
 62
     4
 10
-341.750031
 20
99.500000
 11
-341.750031
 21
107.500000
  0
LINE
  8
0
 62
     4
 10
-343.250031
 20
100.500000
 11
-343.250031
 21
106.500000
  0
LINE
  8
0
 62
     4
 10
-342.750031
 20
102.000000
 11
-342.750031
 21
105.000000
  0
LINE
  8
0
 62
     4
 10
-357.750031
 20
100.500000
 11
-357.750031
 21
106.500000
  0
LINE
  8
0
 62
     4
 10
-347.810669
 20
102.439323
 11
-345.689362
 21
104.560646
  0
LINE
  8
0
 62
     4
 10
-345.689392
 20
102.439316
 11
-347.810699
 21
104.560638
  0
LINE
  8
0
 62
     4
 10
-357.750031
 20
112.000000
 11
-357.750031
 21
107.500000
  0
LINE
  8
0
 62
     4
 10
-354.616058
 20
113.500000
 11
-356.884003
 21
113.500000
  0
LINE
  8
0
 62
     4
 10
-353.750031
 20
91.500000
 11
-357.750031
 21
91.500000
  0
LINE
  8
0
 62
     4
 10
-357.750031
 20
111.999969
 11
-356.884003
 21
113.499977
  0
LINE
  8
0
 62
     4
 10
-353.749969
 20
112.000038
 11
-354.616028
 21
113.500038
  0
LINE
  8
0
 62
     4
 10
-353.750031
 20
112.000000
 11
-353.750031
 21
107.500000
  0
LINE
  8
0
 62
     4
 10
-354.250031
 20
90.500000
 11
-357.250031
 21
90.500000
  0
LINE
  8
0
 62
     4
 10
-353.750031
 20
112.000000
 11
-357.750031
 21
112.000000
  0
LINE
  8
0
 62
     4
 10
-357.250031
 20
90.500000
 11
-357.250031
 21
85.500000
  0
LINE
  8
0
 62
     4
 10
-354.250031
 20
90.500000
 11
-354.250031
 21
85.500000
  0
LINE
  8
0
 62
     4
 10
-353.750092
 20
91.500053
 11
-354.250092
 21
90.500046
  0
LINE
  8
0
 62
     4
 10
-357.749969
 20
91.500023
 11
-357.250000
 21
90.500031
  0
LINE
  8
0
 62
     4
 10
-353.750031
 20
99.500000
 11
-353.750031
 21
91.500000
  0
LINE
  8
0
 62
     4
 10
-357.750031
 20
99.500000
 11
-357.750031
 21
91.500000
  0
LINE
  8
0
 62
     4
 10
-358.550049
 20
28.500000
 11
-358.550049
 21
20.500000
  0
LINE
  8
0
 62
     4
 10
-342.750031
 20
23.000000
 11
-343.250031
 21
23.000000
  0
LINE
  8
0
 62
     4
 10
-342.750031
 20
26.000000
 11
-343.250031
 21
26.000000
  0
LINE
  8
0
 62
     4
 10
-343.250031
 20
21.500000
 11
-357.750031
 21
21.500000
  0
LINE
  8
0
 62
     4
 10
-343.250031
 20
27.500000
 11
-357.750031
 21
27.500000
  0
LINE
  8
0
 62
     4
 10
-333.750031
 20
20.500000
 11
-358.550049
 21
20.500000
  0
LINE
  8
0
 62
     4
 10
-333.750031
 20
28.500000
 11
-358.550049
 21
28.500000
  0
LINE
  8
0
 62
     4
 10
-333.750031
 20
28.500000
 11
-333.750031
 21
20.500000
  0
LINE
  8
0
 62
     4
 10
-341.750031
 20
28.500000
 11
-341.750031
 21
20.500000
  0
LINE
  8
0
 62
     4
 10
-343.250031
 20
27.500000
 11
-343.250031
 21
21.500000
  0
LINE
  8
0
 62
     4
 10
-342.750031
 20
26.000000
 11
-342.750031
 21
23.000000
  0
LINE
  8
0
 62
     4
 10
-357.750031
 20
27.500000
 11
-357.750031
 21
21.500000
  0
LINE
  8
0
 62
     4
 10
-347.810669
 20
25.560654
 11
-345.689362
 21
23.439333
  0
LINE
  8
0
 62
     4
 10
-345.689362
 20
25.560642
 11
-347.810699
 21
23.439312
  0
LINE
  8
0
 62
     4
 10
-357.750031
 20
16.000000
 11
-357.750031
 21
20.500000
  0
LINE
  8
0
 62
     4
 10
-354.616058
 20
14.500000
 11
-356.884003
 21
14.500000
  0
LINE
  8
0
 62
     4
 10
-353.750031
 20
36.500000
 11
-357.750031
 21
36.500000
  0
LINE
  8
0
 62
     4
 10
-357.750122
 20
15.999965
 11
-356.884094
 21
14.499960
  0
LINE
  8
0
 62
     4
 10
-353.749969
 20
15.999942
 11
-354.615997
 21
14.499938
  0
LINE
  8
0
 62
     4
 10
-353.750031
 20
16.000000
 11
-353.750031
 21
20.500000
  0
LINE
  8
0
 62
     4
 10
-354.250031
 20
37.500000
 11
-357.250031
 21
37.500000
  0
LINE
  8
0
 62
     4
 10
-353.750031
 20
16.000000
 11
-357.750031
 21
16.000000
  0
LINE
  8
0
 62
     4
 10
-357.250031
 20
37.500000
 11
-357.250031
 21
42.500000
  0
LINE
  8
0
 62
     4
 10
-354.250031
 20
37.500000
 11
-354.250031
 21
42.500000
  0
LINE
  8
0
 62
     4
 10
-353.750031
 20
36.500000
 11
-354.250031
 21
37.500008
  0
LINE
  8
0
 62
     4
 10
-357.749969
 20
36.499969
 11
-357.249969
 21
37.499962
  0
LINE
  8
0
 62
     4
 10
-353.750031
 20
28.500000
 11
-353.750031
 21
36.500000
  0
LINE
  8
0
 62
     4
 10
-357.750031
 20
28.500000
 11
-357.750031
 21
36.500000
  0
LINE
  8
0
 62
     4
 10
-298.350037
 20
89.319046
 11
-293.150024
 21
89.319046
  0
LINE
  8
0
 62
     4
 10
-297.550049
 20
91.319046
 11
-296.050049
 21
91.319046
  0
LINE
  8
0
 62
     4
 10
-293.150024
 20
90.519043
 11
-293.150024
 21
89.319046
  0
LINE
  8
0
 62
     4
 10
-298.350037
 20
90.519043
 11
-298.350037
 21
89.319046
  0
LINE
  8
0
 62
     4
 10
-296.050049
 20
90.319046
 11
-296.050049
 21
91.319046
  0
LINE
  8
0
 62
     4
 10
-295.450012
 20
90.319046
 11
-295.450012
 21
91.319046
  0
LINE
  8
0
 62
     4
 10
-296.050049
 20
90.319046
 11
-295.450012
 21
90.319046
  0
LINE
  8
0
 62
     4
 10
-295.450012
 20
91.319046
 11
-293.950043
 21
91.319046
  0
LINE
  8
0
 62
     4
 10
-306.750031
 20
84.019043
 11
-300.750031
 21
84.019043
  0
LINE
  8
0
 62
     4
 10
-284.750031
 20
84.019043
 11
-284.750031
 21
77.199997
  0
LINE
  8
0
 62
     4
 10
-306.750031
 20
84.019043
 11
-306.750031
 21
77.199997
  0
LINE
  8
0
 62
     4
 10
-306.750031
 20
77.519043
 11
-299.750031
 21
77.519043
  0
LINE
  8
0
 62
     4
 10
-305.250031
 20
84.019043
 11
-305.250031
 21
84.519043
  0
LINE
  8
0
 62
     4
 10
-301.250031
 20
84.019043
 11
-301.250031
 21
84.519043
  0
LINE
  8
0
 62
     4
 10
-305.250031
 20
84.519043
 11
-301.250031
 21
84.519043
  0
LINE
  8
0
 62
     4
 10
-301.292267
 20
84.592117
 11
-301.250061
 21
84.518990
  0
LINE
  8
0
 62
     4
 10
-305.207703
 20
84.592094
 11
-305.249908
 21
84.518974
  0
LINE
  8
0
 62
     4
 10
-284.750031
 20
83.019043
 11
-282.750031
 21
83.019043
  0
LINE
  8
0
 62
     4
 10
-284.750031
 20
78.019043
 11
-282.750031
 21
78.019043
  0
LINE
  8
0
 62
     4
 10
-282.750031
 20
83.019043
 11
-282.750031
 21
78.019043
  0
LINE
  8
0
 62
     4
 10
-294.250031
 20
89.319046
 11
-294.250031
 21
87.333542
  0
LINE
  8
0
 62
     4
 10
-297.250031
 20
89.319046
 11
-297.250031
 21
87.333542
  0
LINE
  8
0
 10
-299.750031
 20
77.199997
 11
-320.750031
 21
77.199997
  0
LINE
  8
0
 10
-275.750031
 20
77.199997
 11
-291.750031
 21
77.199997
  0
LINE
  8
0
 10
-299.750031
 20
50.800003
 11
-320.750031
 21
50.800003
  0
LINE
  8
0
 10
-275.750031
 20
50.800003
 11
-291.750031
 21
50.800003
  0
LINE
  8
0
  6
CENTER
 62
     2
 10
-484.916626
 20
51.500000
 11
-492.916626
 21
51.500000
  0
LINE
  8
0
  6
CENTER
 62
     2
 10
-509.916626
 20
51.500000
 11
-517.916626
 21
51.500000
  0
LINE
  8
0
  6
CENTER
 62
     2
 10
-509.916626
 20
76.500000
 11
-517.916626
 21
76.500000
  0
LINE
  8
0
  6
CENTER
 62
     2
 10
-484.916626
 20
76.500000
 11
-492.916626
 21
76.500000
  0
LINE
  8
0
  6
CENTER
 62
     2
 10
-488.916626
 20
55.500000
 11
-488.916626
 21
47.500000
  0
LINE
  8
0
  6
CENTER
 62
     2
 10
-488.916626
 20
80.500000
 11
-488.916626
 21
72.500000
  0
LINE
  8
0
  6
CENTER
 62
     2
 10
-513.916626
 20
80.500000
 11
-513.916626
 21
72.500000
  0
LINE
  8
0
  6
CENTER
 62
     2
 10
-513.916626
 20
55.500000
 11
-513.916626
 21
47.500000
  0
LINE
  8
0
 10
-482.916626
 20
123.500000
 11
-495.916626
 21
123.500000
  0
LINE
  8
0
 10
-482.916626
 20
128.500000
 11
-495.916626
 21
128.500000
  0
LINE
  8
0
 10
-482.916626
 20
128.500000
 11
-482.916626
 21
123.500000
  0
LINE
  8
0
 10
-495.916626
 20
128.500000
 11
-495.916626
 21
123.500000
  0
LINE
  8
0
 10
-485.916626
 20
131.500000
 11
-492.916626
 21
131.500000
  0
LINE
  8
0
 10
-485.416626
 20
131.000000
 11
-485.416626
 21
128.500000
  0
LINE
  8
0
 10
-493.416626
 20
131.000000
 11
-493.416626
 21
128.500000
  0
LINE
  8
0
 10
-485.916779
 20
131.499969
 11
-485.416718
 21
130.999954
  0
LINE
  8
0
 10
-493.416565
 20
130.999878
 11
-492.916565
 21
131.499893
  0
LINE
  8
0
 62
     2
 10
-486.041626
 20
131.500000
 11
-486.041626
 21
128.500000
  0
LINE
  8
0
 62
     2
 10
-492.791626
 20
131.500000
 11
-492.791626
 21
128.500000
  0
LINE
  8
0
 10
-485.416626
 20
131.000000
 11
-493.416626
 21
131.000000
  0
LINE
  8
0
 10
-482.916626
 20
4.500000
 11
-495.916626
 21
4.500000
  0
LINE
  8
0
 10
-482.916626
 20
-0.500000
 11
-495.916626
 21
-0.500000
  0
LINE
  8
0
 10
-482.916626
 20
-0.500000
 11
-482.916626
 21
4.500000
  0
LINE
  8
0
 10
-495.916626
 20
-0.500000
 11
-495.916626
 21
4.500000
  0
LINE
  8
0
 10
-485.916626
 20
-3.500000
 11
-492.916626
 21
-3.500000
  0
LINE
  8
0
 10
-485.416626
 20
-3.000000
 11
-485.416626
 21
-0.500000
  0
LINE
  8
0
 10
-493.416626
 20
-3.000000
 11
-493.416626
 21
-0.500000
  0
LINE
  8
0
 10
-485.916565
 20
-3.500039
 11
-485.416534
 21
-3.000022
  0
LINE
  8
0
 10
-493.416565
 20
-2.999957
 11
-492.916565
 21
-3.499953
  0
LINE
  8
0
 62
     2
 10
-486.041626
 20
-3.500000
 11
-486.041626
 21
-0.500000
  0
LINE
  8
0
 62
     2
 10
-492.791626
 20
-3.500000
 11
-492.791626
 21
-0.500000
  0
LINE
  8
0
 10
-485.416626
 20
-2.999992
 11
-493.416626
 21
-2.999992
  0
LINE
  8
0
 62
     4
 10
-497.716675
 20
65.519875
 11
-497.716675
 21
62.480125
  0
LINE
  8
0
 62
     4
 10
-505.116638
 20
65.519875
 11
-505.116638
 21
62.480125
  0
LINE
  8
0
 62
     4
 10
-499.896790
 20
67.699997
 11
-502.936523
 21
67.699997
  0
LINE
  8
0
 62
     4
 10
-499.896790
 20
60.300003
 11
-502.936523
 21
60.300003
  0
LINE
  8
0
 10
-479.416626
 20
114.500000
 11
-523.416626
 21
114.500000
  0
LINE
  8
0
 10
-479.416626
 20
13.500000
 11
-523.416626
 21
13.500000
  0
LINE
  8
0
  6
CENTER
 62
     2
 10
-474.416626
 20
64.000000
 11
-528.416626
 21
64.000000
  0
LINE
  8
0
 10
-489.216675
 20
9.900002
 11
-489.216675
 21
10.900002
  0
LINE
  8
0
 10
-479.716675
 20
115.699997
 11
-523.116638
 21
115.699997
  0
LINE
  8
0
 10
-480.682251
 20
121.500000
 11
-522.151062
 21
121.500000
  0
LINE
  8
0
 10
-523.116638
 20
115.699997
 11
-523.116638
 21
114.500000
  0
LINE
  8
0
 10
-479.716675
 20
115.699997
 11
-479.716675
 21
114.500000
  0
LINE
  8
0
 10
-479.716461
 20
115.700020
 11
-480.183990
 21
121.043587
  0
LINE
  8
0
 10
-523.116516
 20
115.699982
 11
-522.649048
 21
121.043556
  0
LINE
  8
0
 10
-490.118103
 20
117.556389
 11
-490.423218
 21
121.043556
  0
LINE
  8
0
 10
-512.715149
 20
117.556404
 11
-512.410034
 21
121.043556
  0
LINE
  8
0
 10
-479.839111
 20
117.100006
 11
-489.619934
 21
117.100006
  0
LINE
  8
0
 10
-513.213379
 20
117.100006
 11
-522.994141
 21
117.100006
  0
LINE
  8
0
 10
-513.616638
 20
118.100006
 11
-521.216675
 21
118.100006
  0
LINE
  8
0
 10
-513.616638
 20
118.100006
 11
-513.616638
 21
117.100006
  0
LINE
  8
0
 10
-521.216675
 20
118.100006
 11
-521.216675
 21
117.100006
  0
LINE
  8
0
 10
-481.616638
 20
118.100006
 11
-489.216675
 21
118.100006
  0
LINE
  8
0
 10
-481.616638
 20
118.100006
 11
-481.616638
 21
117.100006
  0
LINE
  8
0
 10
-489.216675
 20
118.100006
 11
-489.216675
 21
117.100006
  0
LINE
  8
0
 10
-479.716675
 20
12.299999
 11
-523.116638
 21
12.299999
  0
LINE
  8
0
 10
-480.682220
 20
6.500000
 11
-522.151001
 21
6.500000
  0
LINE
  8
0
 10
-523.116638
 20
12.299999
 11
-523.116638
 21
13.500000
  0
LINE
  8
0
 10
-479.716675
 20
12.299999
 11
-479.716675
 21
13.500000
  0
LINE
  8
0
 10
-479.716522
 20
12.299991
 11
-480.184052
 21
6.956418
  0
LINE
  8
0
 10
-523.116577
 20
12.299979
 11
-522.649048
 21
6.956418
  0
LINE
  8
0
 10
-490.117889
 20
10.443565
 11
-490.422943
 21
6.956421
  0
LINE
  8
0
 10
-512.715332
 20
10.443583
 11
-512.410217
 21
6.956419
  0
LINE
  8
0
 10
-479.839111
 20
10.900002
 11
-489.619843
 21
10.900002
  0
LINE
  8
0
 10
-513.213501
 20
10.900002
 11
-522.994141
 21
10.900002
  0
LINE
  8
0
 10
-513.616638
 20
9.900002
 11
-521.216675
 21
9.900002
  0
LINE
  8
0
 10
-513.616638
 20
9.900002
 11
-513.616638
 21
10.900002
  0
LINE
  8
0
 10
-521.216675
 20
9.900002
 11
-521.216675
 21
10.900002
  0
LINE
  8
0
 10
-481.616638
 20
9.900002
 11
-489.216675
 21
9.900002
  0
LINE
  8
0
 10
-481.616638
 20
9.900002
 11
-481.616638
 21
10.900002
  0
LINE
  8
0
 10
-489.416626
 20
3.919441
 11
-489.416626
 21
0.080559
  0
LINE
  8
0
 10
-489.416626
 20
124.080566
 11
-489.416626
 21
127.919434
  0
LINE
  8
0
 62
     4
 10
-505.169617
 20
57.499931
 11
-508.922333
 21
63.999886
  0
LINE
  8
0
 62
     4
 10
-508.922180
 20
63.999966
 11
-505.169373
 21
70.499954
  0
LINE
  8
0
 62
     4
 10
-505.169434
 20
70.500015
 11
-497.663879
 21
70.500015
  0
LINE
  8
0
 62
     4
 10
-497.664154
 20
70.499886
 11
-493.911346
 21
63.999908
  0
LINE
  8
0
 62
     4
 10
-493.911255
 20
64.000092
 11
-497.664093
 21
57.500114
  0
LINE
  8
0
 62
     4
 10
-497.663879
 20
57.499977
 11
-505.169373
 21
57.499977
  0
LINE
  8
0
 10
-479.416626
 20
114.500000
 11
-479.416626
 21
13.500000
  0
LINE
  8
0
 10
-523.416626
 20
114.500000
 11
-523.416626
 21
13.500000
  0
LINE
  8
0
  6
CENTER
 62
     2
 10
-501.416626
 20
126.500000
 11
-501.416626
 21
1.500000
  0
LINE
  8
0
 62
     4
 10
-475.916626
 20
37.500000
 11
-478.916626
 21
37.500000
  0
LINE
  8
0
 62
     4
 10
-478.916626
 20
37.500000
 11
-478.916626
 21
42.500000
  0
LINE
  8
0
 62
     4
 10
-475.916626
 20
37.500000
 11
-475.916626
 21
42.500000
  0
LINE
  8
0
 62
     4
 10
-475.416656
 20
36.499973
 11
-475.916656
 21
37.499981
  0
LINE
  8
0
 62
     4
 10
-479.416473
 20
36.499958
 11
-478.916473
 21
37.499950
  0
LINE
  8
0
 62
     4
 10
-475.416626
 20
28.500000
 11
-475.416626
 21
36.500000
  0
LINE
  8
0
 62
     4
 10
-478.916626
 20
107.500000
 11
-473.416626
 21
107.500000
  0
LINE
  8
0
 62
     4
 10
-478.916626
 20
99.500000
 11
-473.416626
 21
99.500000
  0
LINE
  8
0
 62
     4
 10
-478.916626
 20
107.500000
 11
-478.916626
 21
99.500000
  0
LINE
  8
0
 62
     4
 10
-473.416626
 20
107.500000
 11
-473.416626
 21
99.500000
  0
LINE
  8
0
 62
     4
 10
-472.444794
 20
106.299995
 11
-473.416626
 21
106.299995
  0
LINE
  8
0
 62
     4
 10
-472.444794
 20
100.699997
 11
-473.416626
 21
100.699997
  0
LINE
  8
0
 62
     4
 10
-476.282654
 20
113.500000
 11
-478.550598
 21
113.500000
  0
LINE
  8
0
 62
     4
 10
-479.416687
 20
111.999992
 11
-478.550659
 21
113.499992
  0
LINE
  8
0
 62
     4
 10
-475.416504
 20
112.000038
 11
-476.282562
 21
113.500069
  0
LINE
  8
0
 62
     4
 10
-475.416626
 20
112.000000
 11
-475.416626
 21
107.500000
  0
LINE
  8
0
 62
     4
 10
-475.416626
 20
112.000000
 11
-479.416626
 21
112.000000
  0
LINE
  8
0
 62
     4
 10
-475.416626
 20
91.500000
 11
-479.416626
 21
91.500000
  0
LINE
  8
0
 62
     4
 10
-475.916626
 20
90.500000
 11
-478.916626
 21
90.500000
  0
LINE
  8
0
 62
     4
 10
-478.916626
 20
90.500000
 11
-478.916626
 21
85.500000
  0
LINE
  8
0
 62
     4
 10
-475.916626
 20
90.500000
 11
-475.916626
 21
85.500000
  0
LINE
  8
0
 62
     4
 10
-475.416687
 20
91.499992
 11
-475.916687
 21
90.499985
  0
LINE
  8
0
 62
     4
 10
-479.416443
 20
91.500084
 11
-478.916443
 21
90.500076
  0
LINE
  8
0
 62
     4
 10
-475.416626
 20
99.500000
 11
-475.416626
 21
91.500000
  0
LINE
  8
0
 62
     4
 10
-478.916626
 20
20.500000
 11
-473.416626
 21
20.500000
  0
LINE
  8
0
 62
     4
 10
-478.916626
 20
28.500000
 11
-473.416626
 21
28.500000
  0
LINE
  8
0
 62
     4
 10
-478.916626
 20
20.500000
 11
-478.916626
 21
28.500000
  0
LINE
  8
0
 62
     4
 10
-473.416626
 20
20.500000
 11
-473.416626
 21
28.500000
  0
LINE
  8
0
 62
     4
 10
-472.444794
 20
21.699997
 11
-473.416626
 21
21.699997
  0
LINE
  8
0
 62
     4
 10
-472.444794
 20
27.300003
 11
-473.416626
 21
27.300003
  0
LINE
  8
0
 62
     4
 10
-476.282654
 20
14.500000
 11
-478.550598
 21
14.500000
  0
LINE
  8
0
 62
     4
 10
-479.416718
 20
15.999960
 11
-478.550690
 21
14.499956
  0
LINE
  8
0
 62
     4
 10
-475.416534
 20
15.999944
 11
-476.282562
 21
14.499940
  0
LINE
  8
0
 62
     4
 10
-475.416626
 20
16.000000
 11
-475.416626
 21
20.500000
  0
LINE
  8
0
 62
     4
 10
-475.416626
 20
16.000000
 11
-479.416626
 21
16.000000
  0
LINE
  8
0
 62
     4
 10
-475.416626
 20
36.500000
 11
-479.416626
 21
36.500000
  0
LINE
  8
0
 10
-93.083374
 20
114.500000
 11
-93.083374
 21
13.500000
  0
LINE
  8
0
 10
-137.083374
 20
114.500000
 11
-137.083374
 21
107.500000
  0
LINE
  8
0
 10
-93.083374
 20
114.500000
 11
-137.083374
 21
114.500000
  0
LINE
  8
0
 10
-93.083374
 20
13.500000
 11
-137.083374
 21
13.500000
  0
LINE
  8
0
  6
CENTER
 62
     2
 10
-88.083374
 20
64.000000
 11
-142.083374
 21
64.000000
  0
LINE
  8
0
  6
CENTER
 62
     2
 10
-116.083374
 20
20.000000
 11
-130.083374
 21
20.000000
  0
LINE
  8
0
  6
CENTER
 62
     2
 10
-116.083374
 20
108.000000
 11
-130.083374
 21
108.000000
  0
LINE
  8
0
  6
CENTER
 62
     2
 10
-123.083374
 20
27.000000
 11
-123.083374
 21
13.000000
  0
LINE
  8
0
  6
CENTER
 62
     2
 10
-123.083374
 20
115.000000
 11
-123.083374
 21
101.000000
  0
LINE
  8
0
 10
-136.783356
 20
12.299999
 11
-93.383392
 21
12.299999
  0
LINE
  8
0
 10
-135.817902
 20
6.500000
 11
-94.349075
 21
6.500000
  0
LINE
  8
0
 10
-93.383392
 20
12.299999
 11
-93.383392
 21
13.500000
  0
LINE
  8
0
 10
-136.783356
 20
12.299999
 11
-136.783356
 21
13.500000
  0
LINE
  8
0
 10
-136.783447
 20
12.299993
 11
-136.315979
 21
6.956426
  0
LINE
  8
0
 10
-93.383530
 20
12.300000
 11
-93.851028
 21
6.956417
  0
LINE
  8
0
 10
-126.382095
 20
10.443580
 11
-126.076981
 21
6.956415
  0
LINE
  8
0
 10
-103.784706
 20
10.443579
 11
-104.089790
 21
6.956418
  0
LINE
  8
0
 10
-136.660889
 20
10.900002
 11
-126.880203
 21
10.900002
  0
LINE
  8
0
 10
-103.286591
 20
10.900002
 11
-93.505859
 21
10.900002
  0
LINE
  8
0
 10
-102.883392
 20
9.900002
 11
-95.283356
 21
9.900002
  0
LINE
  8
0
 10
-102.883392
 20
9.900002
 11
-102.883392
 21
10.900002
  0
LINE
  8
0
 10
-95.283356
 20
9.900002
 11
-95.283356
 21
10.900002
  0
LINE
  8
0
 10
-134.883392
 20
9.900002
 11
-127.283356
 21
9.900002
  0
LINE
  8
0
 10
-134.883392
 20
9.900002
 11
-134.883392
 21
10.900002
  0
LINE
  8
0
 10
-127.283356
 20
9.900002
 11
-127.283356
 21
10.900002
  0
LINE
  8
0
 10
-133.583374
 20
4.500000
 11
-120.583374
 21
4.500000
  0
LINE
  8
0
 10
-133.583374
 20
-0.500000
 11
-120.583374
 21
-0.500000
  0
LINE
  8
0
 10
-133.583374
 20
-0.500000
 11
-133.583374
 21
4.500000
  0
LINE
  8
0
 10
-120.583374
 20
-0.500000
 11
-120.583374
 21
4.500000
  0
LINE
  8
0
 10
-130.583374
 20
-3.500000
 11
-123.583374
 21
-3.500000
  0
LINE
  8
0
 10
-131.083374
 20
-3.000000
 11
-131.083374
 21
-0.500000
  0
LINE
  8
0
 10
-123.083374
 20
-3.000000
 11
-123.083374
 21
-0.500000
  0
LINE
  8
0
 10
-130.583405
 20
-3.500032
 11
-131.083405
 21
-3.000028
  0
LINE
  8
0
 10
-123.083374
 20
-3.000005
 11
-123.583366
 21
-3.499990
  0
LINE
  8
0
 62
     2
 10
-130.458374
 20
-3.500000
 11
-130.458374
 21
-0.500000
  0
LINE
  8
0
 62
     2
 10
-123.708374
 20
-3.500000
 11
-123.708374
 21
-0.500000
  0
LINE
  8
0
 10
-131.083374
 20
-2.999992
 11
-123.083374
 21
-2.999992
  0
LINE
  8
0
 10
-136.783356
 20
115.699997
 11
-93.383392
 21
115.699997
  0
LINE
  8
0
 10
-135.817871
 20
121.500000
 11
-94.349075
 21
121.500000
  0
LINE
  8
0
 10
-93.383392
 20
115.699997
 11
-93.383392
 21
114.500000
  0
LINE
  8
0
 10
-136.783356
 20
115.699997
 11
-136.783356
 21
114.500000
  0
LINE
  8
0
 10
-136.783447
 20
115.699966
 11
-136.315979
 21
121.043587
  0
LINE
  8
0
 10
-93.383553
 20
115.699974
 11
-93.851051
 21
121.043518
  0
LINE
  8
0
 10
-126.382065
 20
117.556412
 11
-126.077011
 21
121.043556
  0
LINE
  8
0
 10
-103.784729
 20
117.556419
 11
-104.089813
 21
121.043571
  0
LINE
  8
0
 10
-136.660889
 20
117.100006
 11
-126.880142
 21
117.100006
  0
LINE
  8
0
 10
-103.286606
 20
117.100006
 11
-93.505859
 21
117.100006
  0
LINE
  8
0
 10
-102.883392
 20
118.100006
 11
-95.283356
 21
118.100006
  0
LINE
  8
0
 10
-102.883392
 20
118.100006
 11
-102.883392
 21
117.100006
  0
LINE
  8
0
 10
-95.283356
 20
118.100006
 11
-95.283356
 21
117.100006
  0
LINE
  8
0
 10
-134.883392
 20
118.100006
 11
-127.283356
 21
118.100006
  0
LINE
  8
0
 10
-134.883392
 20
118.100006
 11
-134.883392
 21
117.100006
  0
LINE
  8
0
 10
-127.283356
 20
118.100006
 11
-127.283356
 21
117.100006
  0
LINE
  8
0
 10
-133.583374
 20
123.500000
 11
-120.583374
 21
123.500000
  0
LINE
  8
0
 10
-133.583374
 20
128.500000
 11
-120.583374
 21
128.500000
  0
LINE
  8
0
 10
-133.583374
 20
128.500000
 11
-133.583374
 21
123.500000
  0
LINE
  8
0
 10
-120.583374
 20
128.500000
 11
-120.583374
 21
123.500000
  0
LINE
  8
0
 10
-130.583374
 20
131.500000
 11
-123.583374
 21
131.500000
  0
LINE
  8
0
 10
-131.083374
 20
131.000000
 11
-131.083374
 21
128.500000
  0
LINE
  8
0
 10
-123.083374
 20
131.000000
 11
-123.083374
 21
128.500000
  0
LINE
  8
0
 10
-130.583328
 20
131.499939
 11
-131.083374
 21
130.999924
  0
LINE
  8
0
 10
-123.083481
 20
130.999893
 11
-123.583466
 21
131.499878
  0
LINE
  8
0
 62
     2
 10
-130.458374
 20
131.500000
 11
-130.458374
 21
128.500000
  0
LINE
  8
0
 62
     2
 10
-123.708374
 20
131.500000
 11
-123.708374
 21
128.500000
  0
LINE
  8
0
 10
-131.083374
 20
131.000000
 11
-123.083374
 21
131.000000
  0
LINE
  8
0
 10
-134.083374
 20
76.051971
 11
-134.083374
 21
51.948029
  0
LINE
  8
0
 10
-96.083374
 20
76.051971
 11
-96.083374
 21
51.948029
  0
LINE
  8
0
 10
-101.083458
 20
75.634064
 11
-102.583443
 21
74.768044
  0
LINE
  8
0
 10
-102.583237
 20
74.768135
 11
-104.083237
 21
75.634163
  0
LINE
  8
0
 10
-104.083405
 20
75.633980
 11
-104.083405
 21
77.366035
  0
LINE
  8
0
 10
-104.083405
 20
77.366104
 11
-102.583405
 21
78.232132
  0
LINE
  8
0
 10
-102.583351
 20
78.232079
 11
-101.083313
 21
77.366051
  0
LINE
  8
0
 10
-101.083374
 20
77.366035
 11
-101.083374
 21
75.633980
  0
LINE
  8
0
 10
-101.083405
 20
52.366035
 11
-101.083405
 21
50.633980
  0
LINE
  8
0
 10
-102.583267
 20
53.232201
 11
-101.083260
 21
52.366173
  0
LINE
  8
0
 10
-104.083359
 20
52.366077
 11
-102.583359
 21
53.232109
  0
LINE
  8
0
 10
-104.083405
 20
50.633980
 11
-104.083405
 21
52.366035
  0
LINE
  8
0
 10
-102.583282
 20
49.768101
 11
-104.083290
 21
50.634129
  0
LINE
  8
0
 10
-101.083389
 20
50.634045
 11
-102.583397
 21
49.768017
  0
LINE
  8
0
 10
-126.083405
 20
52.366028
 11
-126.083405
 21
50.633972
  0
LINE
  8
0
 10
-127.583252
 20
53.232147
 11
-126.083252
 21
52.366119
  0
LINE
  8
0
 10
-129.083374
 20
52.366093
 11
-127.583374
 21
53.232121
  0
LINE
  8
0
 10
-129.083405
 20
50.633980
 11
-129.083405
 21
52.366035
  0
LINE
  8
0
 10
-127.583282
 20
49.768059
 11
-129.083282
 21
50.634087
  0
LINE
  8
0
 10
-126.083397
 20
50.633968
 11
-127.583405
 21
49.767952
  0
LINE
  8
0
 10
-126.083374
 20
77.366028
 11
-126.083374
 21
75.633972
  0
LINE
  8
0
 10
-127.583282
 20
78.232224
 11
-126.083282
 21
77.366196
  0
LINE
  8
0
 10
-129.083344
 20
77.366035
 11
-127.583305
 21
78.232071
  0
LINE
  8
0
 10
-129.083405
 20
75.633980
 11
-129.083405
 21
77.366035
  0
LINE
  8
0
 10
-127.583305
 20
74.768089
 11
-129.083313
 21
75.634117
  0
LINE
  8
0
 10
-126.083466
 20
75.634064
 11
-127.583466
 21
74.768028
  0
LINE
  8
0
 10
-127.083374
 20
3.919441
 11
-127.083374
 21
0.080559
  0
LINE
  8
0
 10
-127.083374
 20
124.080566
 11
-127.083374
 21
127.919434
  0
LINE
  8
0
 10
-105.918762
 20
73.500000
 11
-124.247986
 21
73.500000
  0
LINE
  8
0
 10
-105.918762
 20
54.500000
 11
-124.247986
 21
54.500000
  0
LINE
  8
0
  6
CENTER
 62
     2
 10
-115.083374
 20
126.500000
 11
-115.083374
 21
1.500000
  0
LINE
  8
0
 10
-137.083374
 20
99.500000
 11
-137.083374
 21
28.500000
  0
LINE
  8
0
 10
-137.083374
 20
20.500000
 11
-137.083374
 21
13.500000
  0
LINE
  8
0
 62
     4
 10
-118.933983
 20
42.416981
 11
-118.933662
 21
46.666981
  0
LINE
  8
0
 62
     4
 10
-111.233971
 20
42.416386
 11
-111.083977
 21
42.416374
  0
LINE
  8
0
 62
     4
 10
-119.083977
 20
42.416977
 11
-118.933983
 21
42.416965
  0
LINE
  8
0
 62
     4
 10
-113.083878
 20
43.681023
 11
-111.583878
 21
43.680908
  0
LINE
  8
0
 62
     4
 10
-113.583961
 20
42.666565
 11
-113.583931
 21
43.082993
  0
LINE
  8
0
 62
     4
 10
-116.583961
 20
42.666798
 11
-116.583931
 21
43.083225
  0
LINE
  8
0
 62
     4
 10
-111.083656
 20
46.666367
 11
-111.084068
 21
41.166367
  0
LINE
  8
0
 62
     4
 10
-110.084091
 20
40.866299
 11
-110.083656
 21
46.666302
  0
LINE
  8
0
 62
     4
 10
-112.584183
 20
39.666515
 11
-112.584106
 21
40.666515
  0
LINE
  8
0
 62
     4
 10
-110.083656
 20
46.666294
 11
-111.083656
 21
46.666367
  0
LINE
  8
0
 62
     4
 10
-112.584190
 20
39.666489
 11
-111.284187
 21
39.666389
  0
LINE
  8
0
 62
     4
 10
-118.584038
 20
41.666931
 11
-117.684044
 21
41.666866
  0
LINE
  8
0
 62
     4
 10
-113.283951
 20
42.666561
 11
-113.283966
 21
42.466564
  0
LINE
  8
0
 62
     4
 10
-116.883957
 20
42.666840
 11
-116.883972
 21
42.466843
  0
LINE
  8
0
 62
     4
 10
-116.883957
 20
42.666805
 11
-113.283951
 21
42.666534
  0
LINE
  8
0
 62
     4
 10
-111.233971
 20
42.416405
 11
-111.233650
 21
46.666405
  0
LINE
  8
0
 62
     4
 10
-116.584152
 20
40.181293
 11
-116.584114
 21
40.666798
  0
LINE
  8
0
 62
     4
 10
-116.584145
 20
40.181286
 11
-113.584145
 21
40.181061
  0
LINE
  8
0
 62
     4
 10
-113.584152
 20
40.181065
 11
-113.584114
 21
40.666569
  0
LINE
  8
0
 62
     1
 10
-113.830582
 20
87.816734
 11
-113.830620
 21
87.331230
  0
LINE
  8
0
 62
     1
 10
-113.834152
 20
40.181084
 11
-113.834114
 21
40.666588
  0
LINE
  8
0
 62
     1
 10
-116.330765
 20
85.331413
 11
-116.330841
 21
84.316902
  0
LINE
  8
0
 62
     1
 10
-116.334152
 20
40.181271
 11
-116.334114
 21
40.666775
  0
LINE
  8
0
 62
     1
 10
-113.833961
 20
42.666588
 11
-113.833939
 21
42.953911
  0
LINE
  8
0
 62
     1
 10
-116.333961
 20
42.666786
 11
-116.333939
 21
42.954109
  0
LINE
  8
0
 62
     1
 10
-116.330582
 20
87.816910
 11
-116.330620
 21
87.331406
  0
LINE
  8
0
 62
     1
 10
-113.830765
 20
85.331223
 11
-113.830841
 21
84.316727
  0
LINE
  8
0
 62
     4
 10
-112.484032
 20
41.666481
 11
-111.084038
 21
41.666374
  0
LINE
  8
0
 62
     4
 10
-118.884117
 20
40.666958
 11
-111.584114
 21
40.666409
  0
LINE
  8
0
 62
     4
 10
-120.083656
 20
46.667053
 11
-119.083656
 21
46.666977
  0
LINE
  8
0
 62
     4
 10
-110.083923
 20
43.166298
 11
-109.083923
 21
43.166222
  0
LINE
  8
0
 62
     4
 10
-144.055206
 20
100.699997
 11
-143.083374
 21
100.699997
  0
LINE
  8
0
 62
     4
 10
-144.055206
 20
106.299995
 11
-143.083374
 21
106.299995
  0
LINE
  8
0
 62
     4
 10
-136.083374
 20
107.500000
 11
-136.083374
 21
99.500000
  0
LINE
  8
0
 62
     4
 10
-143.083374
 20
107.500000
 11
-136.083374
 21
107.500000
  0
LINE
  8
0
 62
     4
 10
-143.083374
 20
99.500000
 11
-136.083374
 21
99.500000
  0
LINE
  8
0
 62
     4
 10
-139.083374
 20
107.500000
 11
-139.083374
 21
99.500000
  0
LINE
  8
0
 62
     4
 10
-143.083374
 20
107.500000
 11
-143.083374
 21
99.500000
  0
LINE
  8
0
 62
     4
 10
-141.083374
 20
112.000000
 11
-141.083374
 21
107.500000
  0
LINE
  8
0
 62
     4
 10
-137.949402
 20
113.500000
 11
-140.217346
 21
113.500000
  0
LINE
  8
0
 62
     4
 10
-141.083420
 20
112.000015
 11
-140.217392
 21
113.500015
  0
LINE
  8
0
 62
     4
 10
-137.083328
 20
112.000038
 11
-137.949356
 21
113.500038
  0
LINE
  8
0
 62
     4
 10
-137.083374
 20
112.000000
 11
-141.083374
 21
112.000000
  0
LINE
  8
0
 62
     4
 10
-137.083374
 20
91.500000
 11
-141.083374
 21
91.500000
  0
LINE
  8
0
 62
     4
 10
-137.583374
 20
90.500000
 11
-140.583374
 21
90.500000
  0
LINE
  8
0
 62
     4
 10
-140.583374
 20
90.500000
 11
-140.583374
 21
85.500000
  0
LINE
  8
0
 62
     4
 10
-137.583374
 20
90.500000
 11
-137.583374
 21
85.500000
  0
LINE
  8
0
 62
     4
 10
-137.083389
 20
91.500015
 11
-137.583389
 21
90.500008
  0
LINE
  8
0
 62
     4
 10
-141.083344
 20
91.499985
 11
-140.583359
 21
90.500008
  0
LINE
  8
0
 62
     4
 10
-141.083374
 20
99.500000
 11
-141.083374
 21
91.500000
  0
LINE
  8
0
 62
     4
 10
-144.055206
 20
27.300007
 11
-143.083374
 21
27.300007
  0
LINE
  8
0
 62
     4
 10
-144.055206
 20
21.700008
 11
-143.083374
 21
21.700008
  0
LINE
  8
0
 62
     4
 10
-136.083374
 20
20.500000
 11
-136.083374
 21
28.500000
  0
LINE
  8
0
 62
     4
 10
-143.083374
 20
20.500000
 11
-136.083374
 21
20.500000
  0
LINE
  8
0
 62
     4
 10
-143.083374
 20
28.500000
 11
-136.083374
 21
28.500000
  0
LINE
  8
0
 62
     4
 10
-139.083374
 20
20.500000
 11
-139.083374
 21
28.500000
  0
LINE
  8
0
 62
     4
 10
-143.083374
 20
20.500000
 11
-143.083374
 21
28.500000
  0
LINE
  8
0
 62
     4
 10
-141.083374
 20
16.000000
 11
-141.083374
 21
20.500000
  0
LINE
  8
0
 62
     4
 10
-137.949402
 20
14.500000
 11
-140.217346
 21
14.500000
  0
LINE
  8
0
 62
     4
 10
-141.083466
 20
15.999955
 11
-140.217438
 21
14.499950
  0
LINE
  8
0
 62
     4
 10
-137.083328
 20
15.999944
 11
-137.949356
 21
14.499940
  0
LINE
  8
0
 62
     4
 10
-137.083374
 20
16.000000
 11
-141.083374
 21
16.000000
  0
LINE
  8
0
 62
     4
 10
-137.083374
 20
36.500000
 11
-141.083374
 21
36.500000
  0
LINE
  8
0
 62
     4
 10
-137.583374
 20
37.500000
 11
-140.583374
 21
37.500000
  0
LINE
  8
0
 62
     4
 10
-140.583374
 20
37.500000
 11
-140.583374
 21
42.500000
  0
LINE
  8
0
 62
     4
 10
-137.583374
 20
37.500000
 11
-137.583374
 21
42.500000
  0
LINE
  8
0
 62
     4
 10
-137.083359
 20
36.500000
 11
-137.583374
 21
37.500011
  0
LINE
  8
0
 62
     4
 10
-141.083328
 20
36.500004
 11
-140.583328
 21
37.499996
  0
LINE
  8
0
 62
     4
 10
-141.083374
 20
28.500000
 11
-141.083374
 21
36.500000
  0
LINE
  8
0
 62
     4
 10
-111.204170
 20
81.244011
 11
-104.354218
 21
71.688911
  0
LINE
  8
0
 62
     4
 10
-111.082375
 20
81.331337
 11
-104.232414
 21
71.776237
  0
LINE
  8
0
 62
     4
 10
-118.960464
 20
81.243881
 11
-125.810410
 21
71.688782
  0
LINE
  8
0
 62
     4
 10
-119.082451
 20
81.331398
 11
-125.932404
 21
71.776291
  0
LINE
  8
0
 62
     4
 10
-112.480469
 20
89.316628
 11
-117.680481
 21
89.317017
  0
LINE
  8
0
 62
     4
 10
-111.580833
 20
84.316574
 11
-118.580841
 21
84.317101
  0
LINE
  8
0
 62
     4
 10
-113.280312
 20
91.316681
 11
-116.880318
 21
91.316956
  0
LINE
  8
0
 62
     4
 10
-117.680374
 20
90.517029
 11
-117.680466
 21
89.317032
  0
LINE
  8
0
 62
     4
 10
-112.480370
 20
90.516640
 11
-112.480461
 21
89.316643
  0
LINE
  8
0
 62
     4
 10
-116.330467
 20
89.316902
 11
-116.330582
 21
87.816902
  0
LINE
  8
0
 62
     4
 10
-113.830467
 20
89.316719
 11
-113.830582
 21
87.816719
  0
LINE
  8
0
 62
     4
 10
-111.580856
 20
84.016571
 11
-118.580856
 21
84.017097
  0
LINE
  8
0
 62
     4
 10
-112.081383
 20
77.016602
 11
-112.901939
 21
77.016663
  0
LINE
  8
0
 62
     4
 10
-111.580841
 20
84.316559
 11
-111.581352
 21
77.516556
  0
LINE
  8
0
 62
     4
 10
-111.581322
 20
77.516502
 11
-112.081360
 21
77.016533
  0
LINE
  8
0
 62
     4
 10
-111.581360
 20
77.516571
 11
-118.581360
 21
77.517097
  0
LINE
  8
0
 62
     4
 10
-113.080864
 20
84.016678
 11
-113.080841
 21
84.316673
  0
LINE
  8
0
 62
     4
 10
-117.080864
 20
84.016983
 11
-117.080841
 21
84.316978
  0
LINE
  8
0
 62
     4
 10
-118.580833
 20
84.317078
 11
-118.581345
 21
77.517075
  0
LINE
  8
0
 62
     4
 10
-118.581352
 20
77.517075
 11
-118.081406
 21
77.017044
  0
LINE
  8
0
 62
     4
 10
-117.260826
 20
77.016983
 11
-118.081383
 21
77.017044
  0
LINE
  8
0
 62
     4
 10
-110.081062
 20
81.330933
 11
-110.080704
 21
86.130936
  0
LINE
  8
0
 62
     4
 10
-121.080803
 20
84.831779
 11
-121.080704
 21
86.131783
  0
LINE
  8
0
 62
     4
 10
-120.080727
 20
85.831703
 11
-120.080803
 21
84.831703
  0
LINE
  8
0
 62
     4
 10
-111.080727
 20
85.831039
 11
-111.081070
 21
81.331039
  0
LINE
  8
0
 62
     4
 10
-111.280617
 20
87.331039
 11
-118.580620
 21
87.331589
  0
LINE
  8
0
 62
     4
 10
-117.680702
 20
86.331512
 11
-119.080696
 21
86.331619
  0
LINE
  8
0
 62
     4
 10
-110.081062
 20
81.330948
 11
-111.081062
 21
81.331024
  0
LINE
  8
0
 62
     4
 10
-120.080803
 20
84.831696
 11
-121.080803
 21
84.831772
  0
LINE
  8
0
 62
     4
 10
-113.280754
 20
85.331177
 11
-116.880760
 21
85.331451
  0
LINE
  8
0
 62
     4
 10
-113.280762
 20
85.331192
 11
-113.280746
 21
85.531189
  0
LINE
  8
0
 62
     4
 10
-116.880768
 20
85.331467
 11
-116.880753
 21
85.531464
  0
LINE
  8
0
 62
     4
 10
-111.580688
 20
86.331062
 11
-112.480682
 21
86.331131
  0
LINE
  8
0
 62
     4
 10
-117.580544
 20
88.331505
 11
-118.880547
 21
88.331604
  0
LINE
  8
0
 62
     4
 10
-120.081070
 20
81.331688
 11
-119.081070
 21
81.331619
  0
LINE
  8
0
 62
     4
 10
-117.580536
 20
88.331505
 11
-117.580605
 21
87.331505
  0
LINE
  8
0
 62
     4
 10
-120.080620
 20
87.131691
 11
-120.081062
 21
81.331688
  0
LINE
  8
0
 62
     4
 10
-119.081062
 20
81.331627
 11
-119.080650
 21
86.831627
  0
LINE
  8
0
 62
     4
 10
-113.580765
 20
85.331207
 11
-113.580841
 21
84.316711
  0
LINE
  8
0
 62
     4
 10
-116.580765
 20
85.331436
 11
-116.580841
 21
84.316933
  0
LINE
  8
0
 62
     4
 10
-111.080742
 20
85.581017
 11
-111.230736
 21
85.581024
  0
LINE
  8
0
 62
     4
 10
-118.930748
 20
85.581612
 11
-119.080742
 21
85.581627
  0
LINE
  8
0
 62
     4
 10
-111.230728
 20
85.581032
 11
-111.231049
 21
81.331032
  0
LINE
  8
0
 62
     4
 10
-118.930740
 20
85.581612
 11
-118.931061
 21
81.331612
  0
LINE
  8
0
 62
     4
 10
-113.580582
 20
87.816711
 11
-113.580620
 21
87.331207
  0
LINE
  8
0
 62
     4
 10
-113.580582
 20
87.816704
 11
-116.580582
 21
87.816933
  0
LINE
  8
0
 62
     4
 10
-116.580582
 20
87.816948
 11
-116.580620
 21
87.331444
  0
LINE
  8
0
 62
     4
 10
-118.960541
 20
46.754032
 11
-125.810493
 21
56.309128
  0
LINE
  8
0
 62
     4
 10
-119.082344
 20
46.666668
 11
-125.932312
 21
56.221779
  0
LINE
  8
0
 62
     4
 10
-111.204231
 20
46.754078
 11
-104.354279
 21
56.309174
  0
LINE
  8
0
 62
     4
 10
-111.082253
 20
46.666584
 11
-104.232292
 21
56.221687
  0
LINE
  8
0
 62
     4
 10
-117.684265
 20
38.681362
 11
-112.484253
 21
38.680969
  0
LINE
  8
0
 62
     4
 10
-118.583878
 20
43.681431
 11
-117.083878
 21
43.681320
  0
LINE
  8
0
 62
     4
 10
-116.884407
 20
36.681301
 11
-113.284401
 21
36.681030
  0
LINE
  8
0
 62
     4
 10
-112.484344
 20
37.481007
 11
-112.484253
 21
38.681004
  0
LINE
  8
0
 62
     4
 10
-117.684349
 20
37.481392
 11
-117.684258
 21
38.681389
  0
LINE
  8
0
 62
     4
 10
-113.834259
 20
38.681072
 11
-113.834145
 21
40.181072
  0
LINE
  8
0
 62
     4
 10
-116.334259
 20
38.681263
 11
-116.334145
 21
40.181263
  0
LINE
  8
0
 62
     4
 10
-118.583870
 20
43.981434
 11
-111.583870
 21
43.980907
  0
LINE
  8
0
 62
     4
 10
-118.083336
 20
50.981407
 11
-117.262779
 21
50.981346
  0
LINE
  8
0
 62
     4
 10
-118.583885
 20
43.681427
 11
-118.583374
 21
50.481426
  0
LINE
  8
0
 62
     4
 10
-118.583382
 20
50.481468
 11
-118.083351
 21
50.981434
  0
LINE
  8
0
 62
     4
 10
-118.583366
 20
50.481441
 11
-111.583366
 21
50.480915
  0
LINE
  8
0
 62
     4
 10
-117.083855
 20
43.981346
 11
-117.083893
 21
43.481346
  0
LINE
  8
0
 62
     4
 10
-113.083855
 20
43.981052
 11
-113.083893
 21
43.481052
  0
LINE
  8
0
 62
     4
 10
-117.083900
 20
43.481319
 11
-113.083900
 21
43.481018
  0
LINE
  8
0
 62
     4
 10
-113.126144
 20
43.407948
 11
-113.083923
 21
43.481060
  0
LINE
  8
0
 62
     4
 10
-117.041641
 20
43.408241
 11
-117.083847
 21
43.481358
  0
LINE
  8
0
 62
     4
 10
-111.583885
 20
43.680904
 11
-111.583374
 21
50.480904
  0
LINE
  8
0
 62
     4
 10
-111.583359
 20
50.480915
 11
-112.083321
 21
50.980953
  0
LINE
  8
0
 62
     4
 10
-112.903893
 20
50.981018
 11
-112.083336
 21
50.980957
  0
LINE
  8
0
 62
     4
 10
-120.083656
 20
46.667065
 11
-120.084015
 21
41.867062
  0
LINE
  8
0
 62
     4
 10
-109.083923
 20
43.166233
 11
-109.084023
 21
41.866230
  0
LINE
  8
0
 62
     4
 10
-110.083992
 20
42.166294
 11
-110.083923
 21
43.166294
  0
LINE
  8
0
 62
     4
 10
-119.084000
 20
42.166985
 11
-119.083664
 21
46.666985
  0
LINE
  8
0
  6
CENTER
 62
     2
 10
-355.250000
 20
-119.836761
 11
-355.250000
 21
-188.666672
  0
LINE
  8
0
  6
CENTER
 62
     2
 10
-238.707520
 20
-161.666672
 11
-409.446411
 21
-161.666672
  0
LINE
  8
0
 10
-333.250031
 20
-142.666672
 11
-333.250031
 21
-180.666672
  0
LINE
  8
0
 10
-377.250000
 20
-142.666672
 11
-377.250000
 21
-180.666672
  0
LINE
  8
0
 10
-336.250031
 20
-139.666672
 11
-374.250000
 21
-139.666672
  0
LINE
  8
0
 10
-336.250031
 20
-183.666672
 11
-374.250000
 21
-183.666672
  0
LINE
  8
0
 10
-359.002747
 20
-156.166641
 11
-362.755554
 21
-149.666656
  0
LINE
  8
0
  6
CENTER
 62
     2
 10
-346.750000
 20
-149.666672
 11
-363.750000
 21
-149.666672
  0
LINE
  8
0
 10
-362.755493
 20
-149.666672
 11
-359.002747
 21
-143.166656
  0
LINE
  8
0
 10
-359.002808
 20
-143.166672
 11
-351.497253
 21
-143.166672
  0
LINE
  8
0
 10
-351.497192
 20
-143.166641
 11
-347.744385
 21
-149.666641
  0
LINE
  8
0
 10
-347.744446
 20
-149.666656
 11
-351.497192
 21
-156.166672
  0
LINE
  8
0
 10
-351.497253
 20
-156.166672
 11
-359.002808
 21
-156.166672
  0
LINE
  8
0
 10
-333.550049
 20
-142.466675
 11
-333.550049
 21
-180.866684
  0
LINE
  8
0
 10
-376.950012
 20
-142.466675
 11
-376.950012
 21
-180.866684
  0
LINE
  8
0
 10
-336.050049
 20
-139.966675
 11
-374.450012
 21
-139.966675
  0
LINE
  8
0
 10
-336.050049
 20
-183.366684
 11
-374.450012
 21
-183.366684
  0
LINE
  8
0
 10
-343.750031
 20
-177.666672
 11
-343.750031
 21
-183.366684
  0
LINE
  8
0
 10
-366.750000
 20
-177.666672
 11
-366.750000
 21
-183.366684
  0
LINE
  8
0
 10
-371.250000
 20
-173.166672
 11
-376.950012
 21
-173.166672
  0
LINE
  8
0
 10
-333.550049
 20
-173.166672
 11
-339.250031
 21
-173.166672
  0
LINE
  8
0
 10
-343.750031
 20
-139.966675
 11
-343.750031
 21
-145.666672
  0
LINE
  8
0
 10
-333.550049
 20
-150.166672
 11
-339.250031
 21
-150.166672
  0
LINE
  8
0
 10
-366.750000
 20
-139.966675
 11
-366.750000
 21
-145.666672
  0
LINE
  8
0
 10
-371.250000
 20
-150.166672
 11
-376.950012
 21
-150.166672
  0
LINE
  8
0
 62
     4
 10
-406.250000
 20
-158.466675
 11
-406.250000
 21
-164.866653
  0
LINE
  8
0
 62
     4
 10
-380.250000
 20
-157.966675
 11
-394.604675
 21
-157.966675
  0
LINE
  8
0
 62
     4
 10
-380.250000
 20
-165.366653
 11
-394.604675
 21
-165.366653
  0
LINE
  8
0
 62
     4
 10
-406.249908
 20
-164.866562
 11
-405.749908
 21
-165.366547
  0
LINE
  8
0
 62
     4
 10
-406.249847
 20
-158.466690
 11
-405.749847
 21
-157.966690
  0
LINE
  8
0
 62
     4
 10
-405.750000
 20
-165.366653
 11
-405.750000
 21
-163.186539
  0
LINE
  8
0
 62
     4
 10
-388.250000
 20
-157.966675
 11
-388.250000
 21
-160.146790
  0
LINE
  8
0
 62
     4
 10
-386.250000
 20
-157.966675
 11
-386.250000
 21
-160.146790
  0
LINE
  8
0
 62
     4
 10
-386.250000
 20
-160.146790
 11
-394.604675
 21
-160.146790
  0
LINE
  8
0
 62
     4
 10
-386.250000
 20
-163.186539
 11
-394.604675
 21
-163.186539
  0
LINE
  8
0
 62
     4
 10
-405.750000
 20
-160.146790
 11
-405.750000
 21
-157.966675
  0
LINE
  8
0
 62
     4
 10
-405.750031
 20
-160.146805
 11
-406.250061
 21
-160.646820
  0
LINE
  8
0
 62
     4
 10
-405.749878
 20
-163.186462
 11
-406.249878
 21
-162.686447
  0
LINE
  8
0
 62
     4
 10
-386.250000
 20
-163.186539
 11
-386.250000
 21
-165.366653
  0
LINE
  8
0
 62
     4
 10
-388.250000
 20
-163.186539
 11
-388.250000
 21
-165.366653
  0
LINE
  8
0
 62
     4
 10
-386.250122
 20
-160.146805
 11
-384.991394
 21
-157.966705
  0
LINE
  8
0
 62
     4
 10
-386.250153
 20
-163.186615
 11
-384.991425
 21
-165.366730
  0
LINE
  8
0
 62
     1
 10
-388.250000
 20
-164.866653
 11
-394.604675
 21
-164.866653
  0
LINE
  8
0
 62
     1
 10
-388.250000
 20
-158.466675
 11
-394.604675
 21
-158.466675
  0
LINE
  8
0
 62
     1
 10
-388.249878
 20
-164.866470
 11
-387.383850
 21
-165.366470
  0
LINE
  8
0
 62
     1
 10
-388.250031
 20
-158.466644
 11
-387.384003
 21
-157.966644
  0
LINE
  8
0
 62
     1
 10
-399.604675
 20
-164.866653
 11
-406.250000
 21
-164.866653
  0
LINE
  8
0
 62
     4
 10
-399.604675
 20
-165.366653
 11
-405.750000
 21
-165.366653
  0
LINE
  8
0
 62
     4
 10
-399.604675
 20
-163.186539
 11
-405.750000
 21
-163.186539
  0
LINE
  8
0
 62
     4
 10
-399.604675
 20
-160.146790
 11
-405.750000
 21
-160.146790
  0
LINE
  8
0
 62
     1
 10
-399.604675
 20
-158.466675
 11
-406.250000
 21
-158.466675
  0
LINE
  8
0
 62
     4
 10
-399.604675
 20
-157.966675
 11
-405.750000
 21
-157.966675
  0
LINE
  8
0
 62
     4
 10
-394.604675
 20
-155.166672
 11
-394.604675
 21
-161.666672
  0
LINE
  8
0
 10
-380.250000
 20
-152.366669
 11
-380.250000
 21
-170.966675
  0
LINE
  8
0
 10
-377.250000
 20
-151.666672
 11
-379.550049
 21
-151.666672
  0
LINE
  8
0
 10
-377.250000
 20
-171.666672
 11
-379.550049
 21
-171.666672
  0
LINE
  8
0
 10
-380.249969
 20
-170.966568
 11
-379.549957
 21
-171.666580
  0
LINE
  8
0
 10
-380.250000
 20
-152.366653
 11
-379.550049
 21
-151.666656
  0
LINE
  8
0
 10
-379.550049
 20
-151.666656
 11
-379.550049
 21
-171.666672
  0
LINE
  8
0
 62
     4
 10
-395.185242
 20
-154.161087
 11
-397.104675
 21
-154.161087
  0
LINE
  8
0
 62
     4
 10
-394.604919
 20
-155.166763
 11
-395.185455
 21
-154.161179
  0
LINE
  8
0
 62
     4
 10
-399.604675
 20
-155.166672
 11
-399.604675
 21
-161.666672
  0
LINE
  8
0
 62
     4
 10
-399.024109
 20
-154.161087
 11
-397.104675
 21
-154.161087
  0
LINE
  8
0
 62
     4
 10
-399.604675
 20
-155.166656
 11
-399.024109
 21
-154.161087
  0
LINE
  8
0
 62
     4
 10
-394.604675
 20
-168.166672
 11
-394.604675
 21
-161.666672
  0
LINE
  8
0
 62
     4
 10
-395.185242
 20
-169.172256
 11
-397.104675
 21
-169.172256
  0
LINE
  8
0
 62
     4
 10
-394.604614
 20
-168.166687
 11
-395.185211
 21
-169.172272
  0
LINE
  8
0
 62
     4
 10
-399.604675
 20
-168.166672
 11
-399.604675
 21
-161.666672
  0
LINE
  8
0
 62
     4
 10
-399.024109
 20
-169.172256
 11
-397.104675
 21
-169.172256
  0
LINE
  8
0
 62
     4
 10
-399.604614
 20
-168.166641
 11
-399.024048
 21
-169.172226
  0
LINE
  8
0
 62
     4
 10
-395.185242
 20
-157.913910
 11
-399.024109
 21
-157.913910
  0
LINE
  8
0
 62
     4
 10
-395.185242
 20
-165.419449
 11
-399.024109
 21
-165.419449
  0
LINE
  8
0
 10
-248.250031
 20
-149.466675
 11
-248.250031
 21
-173.866684
  0
LINE
  8
0
 10
-257.250031
 20
-148.466675
 11
-257.250031
 21
-174.866669
  0
LINE
  8
0
 10
-320.250031
 20
-142.666672
 11
-320.250031
 21
-180.666672
  0
LINE
  8
0
 10
-320.250031
 20
-142.666672
 11
-333.250031
 21
-142.666672
  0
LINE
  8
0
 10
-320.250031
 20
-180.666672
 11
-333.250031
 21
-180.666672
  0
LINE
  8
0
  6
CENTER
 62
     2
 10
-326.750031
 20
-137.666672
 11
-326.750031
 21
-151.987625
  0
LINE
  8
0
 10
-249.250031
 20
-148.466675
 11
-267.250031
 21
-148.466675
  0
LINE
  8
0
 10
-249.250031
 20
-174.866669
 11
-267.250031
 21
-174.866669
  0
LINE
  8
0
 10
-249.250015
 20
-148.466644
 11
-248.250015
 21
-149.466644
  0
LINE
  8
0
 10
-249.250153
 20
-174.866547
 11
-248.250137
 21
-173.866547
  0
LINE
  8
0
 10
-249.250031
 20
-148.466675
 11
-249.250031
 21
-152.502060
  0
LINE
  8
0
 10
-249.250031
 20
-170.831284
 11
-253.250031
 21
-170.831284
  0
LINE
  8
0
 10
-249.250031
 20
-152.502060
 11
-253.250031
 21
-152.502060
  0
LINE
  8
0
 10
-248.249939
 20
-169.321182
 11
-249.249939
 21
-170.831390
  0
LINE
  8
0
 10
-248.249924
 20
-154.012177
 11
-249.249924
 21
-152.501968
  0
LINE
  8
0
 10
-249.250031
 20
-170.831284
 11
-249.250031
 21
-174.866669
  0
LINE
  8
0
 10
-253.250031
 20
-152.502060
 11
-253.250031
 21
-170.831284
  0
LINE
  8
0
 10
-372.664276
 20
-147.080872
 11
-369.835846
 21
-144.252441
  0
LINE
  8
0
 10
-372.664246
 20
-144.252502
 11
-369.835815
 21
-147.080933
  0
LINE
  8
0
 10
-337.835754
 20
-147.080856
 11
-340.664154
 21
-144.252426
  0
LINE
  8
0
 10
-337.835846
 20
-144.252487
 11
-340.664276
 21
-147.080917
  0
LINE
  8
0
 10
-372.664154
 20
-176.252411
 11
-369.835724
 21
-179.080841
  0
LINE
  8
0
 10
-372.664276
 20
-179.080933
 11
-369.835846
 21
-176.252502
  0
LINE
  8
0
 10
-337.835724
 20
-176.252411
 11
-340.664154
 21
-179.080841
  0
LINE
  8
0
 10
-337.835999
 20
-179.081009
 11
-340.664429
 21
-176.252579
  0
LINE
  8
0
 62
     4
 10
-358.050049
 20
-139.166672
 11
-358.050049
 21
-133.666672
  0
LINE
  8
0
 62
     4
 10
-333.250031
 20
-140.666672
 11
-333.250031
 21
-137.666672
  0
LINE
  8
0
 62
     4
 10
-341.250031
 20
-133.666672
 11
-358.050049
 21
-133.666672
  0
LINE
  8
0
 62
     4
 10
-333.250031
 20
-140.666672
 11
-334.013977
 21
-140.666672
  0
LINE
  8
0
 62
     4
 10
-333.250061
 20
-137.666641
 11
-341.250061
 21
-133.666641
  0
LINE
  8
0
 62
     4
 10
-346.250031
 20
-139.166672
 11
-353.250031
 21
-139.166672
  0
LINE
  8
0
 62
     4
 10
-346.250031
 20
-139.666672
 11
-346.250031
 21
-139.166672
  0
LINE
  8
0
 62
     4
 10
-349.050049
 20
-132.694855
 11
-349.050049
 21
-133.666672
  0
LINE
  8
0
 62
     4
 10
-343.450012
 20
-132.694855
 11
-343.450012
 21
-133.666672
  0
LINE
  8
0
 62
     4
 10
-353.250031
 20
-139.166672
 11
-353.250031
 21
-135.666672
  0
LINE
  8
0
 62
     4
 10
-357.250031
 20
-139.166672
 11
-357.250031
 21
-135.666672
  0
LINE
  8
0
 62
     4
 10
-353.250031
 20
-135.666672
 11
-357.250031
 21
-135.666672
  0
LINE
  8
0
 62
     4
 10
-357.250031
 20
-139.166672
 11
-358.050049
 21
-139.166672
  0
LINE
  8
0
 62
     4
 10
-357.250031
 20
-135.666672
 11
-353.250031
 21
-135.666672
  0
LINE
  8
0
 62
     4
 10
-357.250031
 20
-135.666672
 11
-357.250031
 21
-139.666687
  0
LINE
  8
0
 62
     4
 10
-353.250031
 20
-135.666672
 11
-353.250031
 21
-139.666687
  0
LINE
  8
0
 62
     4
 10
-347.750031
 20
-139.666672
 11
-347.750031
 21
-139.166672
  0
LINE
  8
0
 62
     4
 10
-299.250031
 20
-148.316879
 11
-299.250031
 21
-175.016464
  0
LINE
  8
0
 62
     4
 10
-291.250031
 20
-148.316879
 11
-291.250031
 21
-175.016464
  0
LINE
  8
0
 62
     4
 10
-291.250031
 20
-148.316879
 11
-299.250031
 21
-148.316879
  0
LINE
  8
0
 62
     4
 10
-291.250031
 20
-175.016464
 11
-299.250031
 21
-175.016464
  0
LINE
  8
0
 62
     4
 10
-284.250031
 20
-159.966690
 11
-289.250031
 21
-159.966690
  0
LINE
  8
0
 62
     4
 10
-284.250031
 20
-163.366684
 11
-289.250031
 21
-163.366684
  0
LINE
  8
0
 62
     4
 10
-282.250061
 20
-159.166687
 11
-284.250061
 21
-159.166687
  0
LINE
  8
0
 62
     4
 10
-282.250061
 20
-164.166672
 11
-284.250061
 21
-164.166672
  0
LINE
  8
0
 62
     4
 10
-284.250031
 20
-159.166656
 11
-284.250031
 21
-164.166672
  0
LINE
  8
0
 62
     4
 10
-266.750061
 20
-156.666687
 11
-275.750061
 21
-156.666687
  0
LINE
  8
0
 62
     4
 10
-266.250061
 20
-166.666672
 11
-269.000061
 21
-166.666672
  0
LINE
  8
0
 62
     4
 10
-260.250061
 20
-158.166687
 11
-266.250061
 21
-158.166687
  0
LINE
  8
0
 62
     4
 10
-260.250061
 20
-165.166672
 11
-266.250061
 21
-165.166672
  0
LINE
  8
0
 62
     4
 10
-266.250031
 20
-157.166656
 11
-266.250031
 21
-165.166672
  0
LINE
  8
0
 62
     4
 10
-260.250031
 20
-158.166656
 11
-260.250031
 21
-165.166672
  0
LINE
  8
0
 62
     4
 10
-276.250031
 20
-157.166656
 11
-276.250031
 21
-165.166672
  0
LINE
  8
0
 62
     4
 10
-282.250031
 20
-158.166656
 11
-282.250031
 21
-165.166672
  0
LINE
  8
0
 62
     4
 10
-269.250031
 20
-167.032700
 11
-269.250031
 21
-167.966660
  0
LINE
  8
0
 62
     4
 10
-273.250031
 20
-167.032700
 11
-273.250031
 21
-167.966660
  0
LINE
  8
0
 62
     4
 10
-266.750061
 20
-165.666672
 11
-267.884033
 21
-165.666672
  0
LINE
  8
0
 62
     4
 10
-269.250061
 20
-167.966690
 11
-273.250061
 21
-167.966690
  0
LINE
  8
0
 62
     4
 10
-274.616089
 20
-165.666672
 11
-275.750061
 21
-165.666672
  0
LINE
  8
0
 62
     4
 10
-266.250031
 20
-165.166672
 11
-266.250031
 21
-166.666672
  0
LINE
  8
0
 62
     4
 10
-276.250031
 20
-165.166672
 11
-276.250031
 21
-166.666672
  0
LINE
  8
0
 62
     4
 10
-273.500061
 20
-166.666672
 11
-276.250061
 21
-166.666672
  0
LINE
  8
0
 62
     4
 10
-276.250061
 20
-158.166687
 11
-282.250061
 21
-158.166687
  0
LINE
  8
0
 62
     4
 10
-276.250061
 20
-165.166672
 11
-282.250061
 21
-165.166672
  0
LINE
  8
0
 62
     4
 10
-273.500031
 20
-166.666672
 11
-273.500031
 21
-165.198410
  0
LINE
  8
0
 62
     4
 10
-269.000031
 20
-166.666672
 11
-269.000031
 21
-165.198410
  0
LINE
  8
0
 62
     4
 10
-267.250031
 20
-148.316681
 11
-275.250031
 21
-148.316681
  0
LINE
  8
0
 62
     4
 10
-267.250031
 20
-148.316681
 11
-267.250031
 21
-156.666656
  0
LINE
  8
0
 62
     4
 10
-275.250031
 20
-148.316681
 11
-275.250031
 21
-156.666656
  0
LINE
  8
0
 62
     4
 10
-267.250031
 20
-175.016678
 11
-275.250031
 21
-175.016678
  0
LINE
  8
0
 62
     4
 10
-267.250031
 20
-166.666672
 11
-267.250031
 21
-175.016663
  0
LINE
  8
0
 62
     4
 10
-275.250031
 20
-166.666672
 11
-275.250031
 21
-175.016663
  0
LINE
  8
0
 62
     4
 10
-270.330811
 20
-162.585892
 11
-272.169281
 21
-160.747421
  0
LINE
  8
0
 62
     4
 10
-270.330872
 20
-160.747406
 11
-272.169342
 21
-162.585892
  0
LINE
  8
0
 62
     1
 10
-347.479553
 20
-139.666672
 11
-347.479553
 21
-139.166672
  0
LINE
  8
0
 10
-299.250031
 20
-148.466675
 11
-320.250031
 21
-148.466675
  0
LINE
  8
0
 10
-275.250031
 20
-148.466675
 11
-291.250031
 21
-148.466675
  0
LINE
  8
0
 10
-299.250031
 20
-174.866669
 11
-320.250031
 21
-174.866669
  0
LINE
  8
0
 10
-275.250031
 20
-174.866669
 11
-291.250031
 21
-174.866669
  0
LINE
  8
0
 62
     4
 10
-438.716614
 20
-301.374512
 11
-446.116577
 21
-301.374512
  0
LINE
  8
0
 62
     4
 10
-438.716614
 20
-308.774536
 11
-446.116577
 21
-308.774536
  0
LINE
  8
0
 62
     4
 10
-438.716614
 20
-301.374512
 11
-438.716614
 21
-308.774536
  0
LINE
  8
0
 62
     4
 10
-446.116577
 20
-301.374512
 11
-446.116577
 21
-308.774536
  0
LINE
  8
0
  6
CENTER
 62
     1
 10
-442.416626
 20
-299.074524
 11
-442.416626
 21
-311.074524
  0
LINE
  8
0
  6
CENTER
 62
     1
 10
-436.416626
 20
-305.074524
 11
-448.416626
 21
-305.074524
  0
LINE
  8
0
 62
     4
 10
-299.750000
 20
-306.594421
 11
-317.250000
 21
-306.594421
  0
LINE
  8
0
 62
     4
 10
-291.750000
 20
-308.774536
 11
-317.250000
 21
-308.774536
  0
LINE
  8
0
 62
     4
 10
-299.750000
 20
-303.554657
 11
-317.250000
 21
-303.554657
  0
LINE
  8
0
 62
     4
 10
-291.750000
 20
-301.374512
 11
-317.250000
 21
-301.374512
  0
LINE
  8
0
 62
     4
 10
-317.750000
 20
-301.874512
 11
-317.750000
 21
-308.274536
  0
LINE
  8
0
 62
     4
 10
-317.749817
 20
-308.274323
 11
-317.249817
 21
-308.774323
  0
LINE
  8
0
 62
     4
 10
-317.749878
 20
-301.874451
 11
-317.249847
 21
-301.374420
  0
LINE
  8
0
 62
     4
 10
-317.250000
 20
-308.774536
 11
-317.250000
 21
-306.594421
  0
LINE
  8
0
 62
     4
 10
-317.250000
 20
-303.554657
 11
-317.250000
 21
-301.374512
  0
LINE
  8
0
 62
     4
 10
-317.249908
 20
-303.554596
 11
-317.749878
 21
-304.054565
  0
LINE
  8
0
 62
     4
 10
-317.249786
 20
-306.594177
 11
-317.749786
 21
-306.094177
  0
LINE
  8
0
 62
     4
 10
-299.750000
 20
-301.374512
 11
-299.750000
 21
-303.554657
  0
LINE
  8
0
 62
     4
 10
-299.750000
 20
-306.594421
 11
-299.750000
 21
-308.774536
  0
LINE
  8
0
 62
     4
 10
-298.550171
 20
-308.774597
 11
-299.750183
 21
-306.594452
  0
LINE
  8
0
 62
     4
 10
-298.549805
 20
-301.374756
 11
-299.749756
 21
-303.554871
  0
LINE
  8
0
  6
CENTER
 62
     1
 10
-320.639099
 20
-305.074524
 11
-284.613770
 21
-305.074524
  0
LINE
  8
0
 10
255.749969
 20
114.500000
 11
211.750000
 21
114.500000
  0
LINE
  8
0
 10
255.749969
 20
13.500000
 11
211.750000
 21
13.500000
  0
LINE
  8
0
  6
CENTER
 62
     2
 10
349.467468
 20
64.000000
 11
176.587708
 21
64.000000
  0
LINE
  8
0
 10
255.449951
 20
115.699997
 11
212.049988
 21
115.699997
  0
LINE
  8
0
 10
254.484375
 20
121.500000
 11
213.015564
 21
121.500000
  0
LINE
  8
0
 10
212.049988
 20
115.699997
 11
212.049988
 21
114.500000
  0
LINE
  8
0
 10
255.449951
 20
115.699997
 11
255.449951
 21
114.500000
  0
LINE
  8
0
 10
255.449905
 20
115.699997
 11
254.982437
 21
121.043571
  0
LINE
  8
0
 10
212.049957
 20
115.699982
 11
212.517487
 21
121.043556
  0
LINE
  8
0
 10
245.048615
 20
117.556450
 11
244.743561
 21
121.043587
  0
LINE
  8
0
 10
222.451279
 20
117.556435
 11
222.756332
 21
121.043594
  0
LINE
  8
0
 10
255.327484
 20
117.100006
 11
245.546692
 21
117.100006
  0
LINE
  8
0
 10
221.953247
 20
117.100006
 11
212.172485
 21
117.100006
  0
LINE
  8
0
 10
221.549988
 20
118.100006
 11
213.949951
 21
118.100006
  0
LINE
  8
0
 10
221.549988
 20
118.100006
 11
221.549988
 21
117.100006
  0
LINE
  8
0
 10
213.949951
 20
118.100006
 11
213.949951
 21
117.100006
  0
LINE
  8
0
 10
253.549988
 20
118.100006
 11
245.949951
 21
118.100006
  0
LINE
  8
0
 10
253.549988
 20
118.100006
 11
253.549988
 21
117.100006
  0
LINE
  8
0
 10
245.949951
 20
118.100006
 11
245.949951
 21
117.100006
  0
LINE
  8
0
 10
255.449951
 20
12.299988
 11
212.049988
 21
12.299988
  0
LINE
  8
0
 10
254.484375
 20
6.500000
 11
213.015564
 21
6.500000
  0
LINE
  8
0
 10
212.049988
 20
12.299999
 11
212.049988
 21
13.500000
  0
LINE
  8
0
 10
255.449951
 20
12.299999
 11
255.449951
 21
13.500000
  0
LINE
  8
0
 10
255.449905
 20
12.300007
 11
254.982437
 21
6.956429
  0
LINE
  8
0
 10
212.049896
 20
12.299994
 11
212.517426
 21
6.956413
  0
LINE
  8
0
 10
245.048645
 20
10.443566
 11
244.743561
 21
6.956413
  0
LINE
  8
0
 10
222.451263
 20
10.443580
 11
222.756378
 21
6.956421
  0
LINE
  8
0
 10
255.327484
 20
10.899994
 11
245.546692
 21
10.899994
  0
LINE
  8
0
 10
221.953247
 20
10.899994
 11
212.172485
 21
10.899994
  0
LINE
  8
0
 10
221.549988
 20
9.899994
 11
213.949951
 21
9.899994
  0
LINE
  8
0
 10
221.549988
 20
9.900002
 11
221.549988
 21
10.900002
  0
LINE
  8
0
 10
213.949951
 20
9.900002
 11
213.949951
 21
10.900002
  0
LINE
  8
0
 10
253.549988
 20
9.899994
 11
245.949951
 21
9.899994
  0
LINE
  8
0
 10
253.549988
 20
9.900002
 11
253.549988
 21
10.900002
  0
LINE
  8
0
 10
245.949951
 20
9.900002
 11
245.949951
 21
10.900002
  0
LINE
  8
0
 10
240.250000
 20
123.500000
 11
227.250000
 21
123.500000
  0
LINE
  8
0
 10
240.250000
 20
128.500000
 11
227.249939
 21
128.500000
  0
LINE
  8
0
 10
237.250000
 20
131.500000
 11
230.250000
 21
131.500000
  0
LINE
  8
0
 10
237.750000
 20
131.000000
 11
237.750000
 21
128.500000
  0
LINE
  8
0
 10
229.750000
 20
131.000000
 11
229.750000
 21
128.500000
  0
LINE
  8
0
 10
237.249969
 20
131.499985
 11
237.749969
 21
131.000000
  0
LINE
  8
0
 10
230.250122
 20
131.499908
 11
229.750107
 21
130.999893
  0
LINE
  8
0
 10
237.749939
 20
131.000000
 11
229.750000
 21
131.000000
  0
LINE
  8
0
 62
     2
 10
237.125000
 20
131.500000
 11
237.125000
 21
128.500000
  0
LINE
  8
0
 62
     2
 10
230.375000
 20
131.500000
 11
230.375000
 21
128.500000
  0
LINE
  8
0
  6
CENTER
 62
     2
 10
226.750000
 20
43.000000
 11
212.750000
 21
43.000000
  0
LINE
  8
0
  6
CENTER
 62
     2
 10
226.750000
 20
85.000000
 11
212.750000
 21
85.000000
  0
LINE
  8
0
  6
CENTER
 62
     2
 10
219.750000
 20
50.000000
 11
219.750000
 21
36.000000
  0
LINE
  8
0
  6
CENTER
 62
     2
 10
219.750000
 20
92.000000
 11
219.750000
 21
78.000000
  0
LINE
  8
0
 10
237.502747
 20
127.919434
 11
237.502747
 21
124.080566
  0
LINE
  8
0
 10
241.255493
 20
127.919434
 11
241.255493
 21
124.080566
  0
LINE
  8
0
 10
240.249832
 20
123.500160
 11
241.255402
 21
124.080734
  0
LINE
  8
0
 10
240.250000
 20
128.500000
 11
241.255508
 21
127.919449
  0
LINE
  8
0
 10
229.997192
 20
127.919434
 11
229.997192
 21
124.080566
  0
LINE
  8
0
 10
227.250031
 20
123.500145
 11
226.244492
 21
124.080704
  0
LINE
  8
0
 10
227.249847
 20
128.500381
 11
226.244278
 21
127.919815
  0
LINE
  8
0
 10
226.244446
 20
127.919434
 11
226.244446
 21
124.080566
  0
LINE
  8
0
 10
240.250000
 20
4.500000
 11
227.250000
 21
4.500000
  0
LINE
  8
0
 10
240.250000
 20
-0.500000
 11
227.249939
 21
-0.500000
  0
LINE
  8
0
 10
237.250000
 20
-3.500000
 11
230.250000
 21
-3.500000
  0
LINE
  8
0
 10
237.750000
 20
-3.000000
 11
237.750000
 21
-0.500000
  0
LINE
  8
0
 10
229.750000
 20
-3.000000
 11
229.750000
 21
-0.500000
  0
LINE
  8
0
 10
237.250061
 20
-3.500047
 11
237.750046
 21
-3.000057
  0
LINE
  8
0
 10
230.249954
 20
-3.499993
 11
229.749954
 21
-2.999982
  0
LINE
  8
0
 10
237.749939
 20
-3.000000
 11
229.750000
 21
-3.000000
  0
LINE
  8
0
 62
     2
 10
237.125000
 20
-3.500000
 11
237.125000
 21
-0.500000
  0
LINE
  8
0
 62
     2
 10
230.375000
 20
-3.500000
 11
230.375000
 21
-0.500000
  0
LINE
  8
0
 10
237.502747
 20
0.080559
 11
237.502747
 21
3.919441
  0
LINE
  8
0
 10
241.255493
 20
0.080574
 11
241.255493
 21
3.919441
  0
LINE
  8
0
 10
240.250031
 20
4.499990
 11
241.255524
 21
3.919426
  0
LINE
  8
0
 10
240.249924
 20
-0.499937
 11
241.255463
 21
0.080616
  0
LINE
  8
0
 10
229.997192
 20
0.080559
 11
229.997192
 21
3.919441
  0
LINE
  8
0
 10
227.250000
 20
4.500048
 11
226.244461
 21
3.919496
  0
LINE
  8
0
 10
227.249878
 20
-0.500023
 11
226.244400
 21
0.080524
  0
LINE
  8
0
 10
226.244446
 20
0.080574
 11
226.244446
 21
3.919441
  0
LINE
  8
0
 10
268.749969
 20
86.500000
 11
268.749969
 21
41.500000
  0
LINE
  8
0
 10
268.749969
 20
86.500000
 11
255.749969
 21
86.500000
  0
LINE
  8
0
 10
268.749969
 20
41.500000
 11
255.749969
 21
41.500000
  0
LINE
  8
0
 10
268.749969
 20
51.948029
 11
255.749969
 21
51.948029
  0
LINE
  8
0
 10
268.749969
 20
76.051971
 11
255.749969
 21
76.051971
  0
LINE
  8
0
  6
CENTER
 62
     2
 10
262.249969
 20
70.500000
 11
262.249969
 21
57.500000
  0
LINE
  8
0
 10
340.749969
 20
73.500000
 11
340.749969
 21
54.500000
  0
LINE
  8
0
 10
331.749969
 20
77.199997
 11
331.749969
 21
50.800003
  0
LINE
  8
0
 10
335.749969
 20
77.199997
 11
321.749969
 21
77.199997
  0
LINE
  8
0
 10
335.749969
 20
50.800003
 11
321.749969
 21
50.800003
  0
LINE
  8
0
 10
340.749969
 20
73.500000
 11
335.749969
 21
73.500000
  0
LINE
  8
0
 10
340.749969
 20
54.500000
 11
335.749969
 21
54.500000
  0
LINE
  8
0
 10
335.749969
 20
77.199997
 11
335.749969
 21
73.500000
  0
LINE
  8
0
 10
335.749969
 20
54.500000
 11
335.749969
 21
50.800003
  0
LINE
  8
0
 10
339.749969
 20
73.500000
 11
339.749969
 21
54.500000
  0
LINE
  8
0
 62
     4
 10
189.395325
 20
70.500000
 11
189.395325
 21
57.500000
  0
LINE
  8
0
 62
     4
 10
194.395325
 20
70.500000
 11
194.395325
 21
57.500000
  0
LINE
  8
0
 62
     4
 10
194.395325
 20
70.500000
 11
189.395325
 21
70.500000
  0
LINE
  8
0
 62
     4
 10
194.395325
 20
57.500000
 11
189.395325
 21
57.500000
  0
LINE
  8
0
 62
     1
 10
200.749939
 20
67.200119
 11
201.615906
 21
67.700111
  0
LINE
  8
0
 62
     1
 10
189.395325
 20
60.800003
 11
182.750000
 21
60.800003
  0
LINE
  8
0
 62
     4
 10
202.749924
 20
62.480152
 11
203.750000
 21
60.747940
  0
LINE
  8
0
 62
     1
 10
200.750000
 20
60.800003
 11
194.395325
 21
60.800003
  0
LINE
  8
0
 62
     1
 10
200.749985
 20
60.799999
 11
201.615952
 21
60.300007
  0
LINE
  8
0
 62
     1
 10
200.750000
 20
67.199997
 11
194.395325
 21
67.199997
  0
LINE
  8
0
 62
     4
 10
189.395325
 20
62.480133
 11
183.250000
 21
62.480133
  0
LINE
  8
0
 62
     1
 10
189.395325
 20
67.199997
 11
182.750000
 21
67.199997
  0
LINE
  8
0
 62
     4
 10
189.395325
 20
60.300003
 11
183.250000
 21
60.300003
  0
LINE
  8
0
 62
     4
 10
189.395325
 20
65.519867
 11
183.250000
 21
65.519867
  0
LINE
  8
0
 62
     4
 10
189.395325
 20
67.699997
 11
183.250000
 21
67.699997
  0
LINE
  8
0
 62
     4
 10
182.750000
 20
67.199997
 11
182.750000
 21
60.800003
  0
LINE
  8
0
 62
     4
 10
203.750000
 20
67.699997
 11
194.395325
 21
67.699997
  0
LINE
  8
0
 62
     4
 10
203.750000
 20
60.300003
 11
194.395325
 21
60.300003
  0
LINE
  8
0
 62
     4
 10
182.749969
 20
60.800014
 11
183.249985
 21
60.300003
  0
LINE
  8
0
 62
     4
 10
182.750031
 20
67.199989
 11
183.250031
 21
67.699982
  0
LINE
  8
0
 62
     4
 10
183.250000
 20
60.300003
 11
183.250000
 21
62.480125
  0
LINE
  8
0
 62
     4
 10
200.750000
 20
67.699997
 11
200.750000
 21
65.519875
  0
LINE
  8
0
 62
     4
 10
202.750000
 20
67.699997
 11
202.750000
 21
65.519875
  0
LINE
  8
0
 62
     4
 10
202.750000
 20
65.519867
 11
194.395325
 21
65.519867
  0
LINE
  8
0
 62
     4
 10
202.750000
 20
62.480133
 11
194.395325
 21
62.480133
  0
LINE
  8
0
 62
     4
 10
183.250000
 20
65.519875
 11
183.250000
 21
67.699997
  0
LINE
  8
0
 62
     4
 10
183.250076
 20
65.519791
 11
182.750076
 21
65.019806
  0
LINE
  8
0
 62
     4
 10
183.249985
 20
62.480148
 11
182.750000
 21
62.980137
  0
LINE
  8
0
 62
     4
 10
202.750000
 20
62.480125
 11
202.750000
 21
60.300003
  0
LINE
  8
0
 62
     4
 10
200.750000
 20
62.480125
 11
200.750000
 21
60.300003
  0
LINE
  8
0
 62
     4
 10
202.749939
 20
65.519897
 11
203.750000
 21
67.252106
  0
LINE
  8
0
 62
     4
 10
193.814758
 20
64.000000
 11
189.975891
 21
64.000000
  0
LINE
  8
0
 10
255.749969
 20
114.500000
 11
255.749969
 21
13.500000
  0
LINE
  8
0
 10
211.750000
 20
114.500000
 11
211.750000
 21
13.500000
  0
LINE
  8
0
  6
CENTER
 62
     2
 10
233.750000
 20
136.500000
 11
233.750000
 21
-8.500000
  0
LINE
  8
0
 10
203.750000
 20
86.000015
 11
203.750000
 21
42.000015
  0
LINE
  8
0
 10
211.750000
 20
86.000015
 11
203.750000
 21
86.000015
  0
LINE
  8
0
  6
CENTER
 62
     2
 10
212.750000
 20
49.000015
 11
202.750000
 21
49.000015
  0
LINE
  8
0
  6
CENTER
 62
     2
 10
212.750000
 20
79.000015
 11
202.750000
 21
79.000015
  0
LINE
  8
0
 10
211.750000
 20
42.000015
 11
203.750000
 21
42.000015
  0
LINE
  8
0
 10
203.750000
 20
81.000000
 11
211.750000
 21
81.000000
  0
LINE
  8
0
 10
203.750000
 20
47.000015
 11
211.750000
 21
47.000015
  0
LINE
  8
0
 62
     4
 10
230.949966
 20
99.500000
 11
230.949966
 21
107.500000
  0
LINE
  8
0
 62
     4
 10
246.749969
 20
105.000000
 11
246.249969
 21
105.000000
  0
LINE
  8
0
 62
     4
 10
246.749969
 20
102.000000
 11
246.249969
 21
102.000000
  0
LINE
  8
0
 62
     4
 10
246.249969
 20
106.500000
 11
231.749969
 21
106.500000
  0
LINE
  8
0
 62
     4
 10
246.249969
 20
100.500000
 11
231.749969
 21
100.500000
  0
LINE
  8
0
 62
     4
 10
255.749969
 20
107.500000
 11
230.949966
 21
107.500000
  0
LINE
  8
0
 62
     4
 10
255.749969
 20
99.500000
 11
230.949966
 21
99.500000
  0
LINE
  8
0
 62
     4
 10
255.749969
 20
99.500000
 11
255.749969
 21
107.500000
  0
LINE
  8
0
 62
     4
 10
247.749969
 20
99.500000
 11
247.749969
 21
107.500000
  0
LINE
  8
0
 62
     4
 10
246.249969
 20
100.500000
 11
246.249969
 21
106.500000
  0
LINE
  8
0
 62
     4
 10
246.749969
 20
102.000000
 11
246.749969
 21
105.000000
  0
LINE
  8
0
 62
     4
 10
231.749969
 20
100.500000
 11
231.749969
 21
106.500000
  0
LINE
  8
0
 62
     4
 10
241.689285
 20
102.439331
 11
243.810608
 21
104.560654
  0
LINE
  8
0
 62
     4
 10
243.810654
 20
102.439339
 11
241.689331
 21
104.560661
  0
LINE
  8
0
 62
     4
 10
231.749969
 20
112.000000
 11
231.749969
 21
107.500000
  0
LINE
  8
0
 62
     4
 10
234.883942
 20
113.500000
 11
232.615997
 21
113.500000
  0
LINE
  8
0
 62
     4
 10
235.749969
 20
91.500000
 11
231.749969
 21
91.500000
  0
LINE
  8
0
 62
     4
 10
231.749924
 20
111.999992
 11
232.615952
 21
113.500000
  0
LINE
  8
0
 62
     4
 10
235.749969
 20
112.000023
 11
234.883942
 21
113.500023
  0
LINE
  8
0
 62
     4
 10
235.749969
 20
112.000000
 11
235.749969
 21
107.500000
  0
LINE
  8
0
 62
     4
 10
235.249969
 20
90.500000
 11
232.249969
 21
90.500000
  0
LINE
  8
0
 62
     4
 10
235.749969
 20
112.000000
 11
231.749969
 21
112.000000
  0
LINE
  8
0
 62
     4
 10
232.249969
 20
90.500000
 11
232.249969
 21
85.500000
  0
LINE
  8
0
 62
     4
 10
235.249969
 20
90.500000
 11
235.249969
 21
85.500000
  0
LINE
  8
0
 62
     4
 10
235.749924
 20
91.500031
 11
235.249924
 21
90.500023
  0
LINE
  8
0
 62
     4
 10
231.749939
 20
91.499992
 11
232.249939
 21
90.500000
  0
LINE
  8
0
 62
     4
 10
235.749969
 20
99.500000
 11
235.749969
 21
91.500000
  0
LINE
  8
0
 62
     4
 10
231.749969
 20
99.500000
 11
231.749969
 21
91.500000
  0
LINE
  8
0
 62
     4
 10
230.949966
 20
28.500000
 11
230.949966
 21
20.500000
  0
LINE
  8
0
 62
     4
 10
246.749969
 20
23.000000
 11
246.249969
 21
23.000000
  0
LINE
  8
0
 62
     4
 10
246.749969
 20
26.000000
 11
246.249969
 21
26.000000
  0
LINE
  8
0
 62
     4
 10
246.249969
 20
21.500000
 11
231.749969
 21
21.500000
  0
LINE
  8
0
 62
     4
 10
246.249969
 20
27.500000
 11
231.749969
 21
27.500000
  0
LINE
  8
0
 62
     4
 10
255.749969
 20
20.500000
 11
230.949966
 21
20.500000
  0
LINE
  8
0
 62
     4
 10
255.749969
 20
28.500000
 11
230.949966
 21
28.500000
  0
LINE
  8
0
 62
     4
 10
255.749969
 20
28.500000
 11
255.749969
 21
20.500000
  0
LINE
  8
0
 62
     4
 10
247.749969
 20
28.500000
 11
247.749969
 21
20.500000
  0
LINE
  8
0
 62
     4
 10
246.249969
 20
27.500000
 11
246.249969
 21
21.500000
  0
LINE
  8
0
 62
     4
 10
246.749969
 20
26.000000
 11
246.749969
 21
23.000000
  0
LINE
  8
0
 62
     4
 10
231.749969
 20
27.500000
 11
231.749969
 21
21.500000
  0
LINE
  8
0
 62
     4
 10
241.689301
 20
25.560633
 11
243.810623
 21
23.439312
  0
LINE
  8
0
 62
     4
 10
243.810608
 20
25.560642
 11
241.689285
 21
23.439323
  0
LINE
  8
0
 62
     4
 10
231.749969
 20
16.000000
 11
231.749969
 21
20.500000
  0
LINE
  8
0
 62
     4
 10
234.883942
 20
14.500000
 11
232.615997
 21
14.500000
  0
LINE
  8
0
 62
     4
 10
235.749969
 20
36.500000
 11
231.749969
 21
36.500000
  0
LINE
  8
0
 62
     4
 10
231.749893
 20
15.999951
 11
232.615921
 21
14.499948
  0
LINE
  8
0
 62
     4
 10
235.750031
 20
15.999963
 11
234.884003
 21
14.499958
  0
LINE
  8
0
 62
     4
 10
235.749969
 20
16.000000
 11
235.749969
 21
20.500000
  0
LINE
  8
0
 62
     4
 10
235.249969
 20
37.500000
 11
232.249969
 21
37.500000
  0
LINE
  8
0
 62
     4
 10
235.749969
 20
16.000000
 11
231.749969
 21
16.000000
  0
LINE
  8
0
 62
     4
 10
232.249969
 20
37.500000
 11
232.249969
 21
42.500000
  0
LINE
  8
0
 62
     4
 10
235.249969
 20
37.500000
 11
235.249969
 21
42.500000
  0
LINE
  8
0
 62
     4
 10
235.749954
 20
36.499989
 11
235.249954
 21
37.499996
  0
LINE
  8
0
 62
     4
 10
231.749969
 20
36.499981
 11
232.249969
 21
37.499969
  0
LINE
  8
0
 62
     4
 10
235.749969
 20
28.500000
 11
235.749969
 21
36.500000
  0
LINE
  8
0
 62
     4
 10
231.749969
 20
28.500000
 11
231.749969
 21
36.500000
  0
LINE
  8
0
 62
     4
 10
291.149963
 20
89.319046
 11
296.349976
 21
89.319046
  0
LINE
  8
0
 62
     4
 10
291.949951
 20
91.319046
 11
293.449951
 21
91.319046
  0
LINE
  8
0
 62
     4
 10
296.349976
 20
90.519043
 11
296.349976
 21
89.319046
  0
LINE
  8
0
 62
     4
 10
291.149963
 20
90.519043
 11
291.149963
 21
89.319046
  0
LINE
  8
0
 62
     4
 10
293.449951
 20
90.319046
 11
293.449951
 21
91.319046
  0
LINE
  8
0
 62
     4
 10
294.049988
 20
90.319046
 11
294.049988
 21
91.319046
  0
LINE
  8
0
 62
     4
 10
293.449951
 20
90.319046
 11
294.049988
 21
90.319046
  0
LINE
  8
0
 62
     4
 10
294.049988
 20
91.319046
 11
295.549957
 21
91.319046
  0
LINE
  8
0
 62
     4
 10
282.749969
 20
84.019043
 11
288.749969
 21
84.019043
  0
LINE
  8
0
 62
     4
 10
304.749969
 20
84.019043
 11
304.749969
 21
77.199997
  0
LINE
  8
0
 62
     4
 10
282.749969
 20
84.019043
 11
282.749969
 21
77.199997
  0
LINE
  8
0
 62
     4
 10
282.749969
 20
77.519043
 11
289.749969
 21
77.519043
  0
LINE
  8
0
 62
     4
 10
284.249969
 20
84.019043
 11
284.249969
 21
84.519043
  0
LINE
  8
0
 62
     4
 10
288.249969
 20
84.019043
 11
288.249969
 21
84.519043
  0
LINE
  8
0
 62
     4
 10
284.249969
 20
84.519043
 11
288.249969
 21
84.519043
  0
LINE
  8
0
 62
     4
 10
288.207764
 20
84.592140
 11
288.249969
 21
84.519012
  0
LINE
  8
0
 62
     4
 10
284.292236
 20
84.592117
 11
284.250031
 21
84.519005
  0
LINE
  8
0
 62
     4
 10
304.749969
 20
83.019043
 11
306.749969
 21
83.019043
  0
LINE
  8
0
 62
     4
 10
304.749969
 20
78.019043
 11
306.749969
 21
78.019043
  0
LINE
  8
0
 62
     4
 10
306.749969
 20
83.019043
 11
306.749969
 21
78.019043
  0
LINE
  8
0
 62
     4
 10
295.249969
 20
89.319046
 11
295.249969
 21
87.333542
  0
LINE
  8
0
 62
     4
 10
292.249969
 20
89.319046
 11
292.249969
 21
87.333542
  0
LINE
  8
0
 62
     4
 10
289.249969
 20
81.333542
 11
298.249969
 21
81.333542
  0
LINE
  8
0
 62
     4
 10
291.749969
 20
84.833542
 11
295.749969
 21
84.833542
  0
LINE
  8
0
 62
     4
 10
291.499969
 20
87.333542
 11
295.999969
 21
87.333542
  0
LINE
  8
0
 62
     4
 10
288.749969
 20
88.333542
 11
291.499969
 21
88.333542
  0
LINE
  8
0
 62
     4
 10
288.749969
 20
81.833542
 11
288.749969
 21
88.333542
  0
LINE
  8
0
 62
     4
 10
298.749969
 20
81.833542
 11
298.749969
 21
88.333542
  0
LINE
  8
0
 62
     4
 10
291.749969
 20
87.333542
 11
291.749969
 21
84.833542
  0
LINE
  8
0
 62
     4
 10
295.749969
 20
87.333542
 11
295.749969
 21
84.833542
  0
LINE
  8
0
 62
     4
 10
291.499969
 20
88.333542
 11
291.499969
 21
86.719040
  0
LINE
  8
0
 62
     4
 10
295.999969
 20
88.333542
 11
295.999969
 21
86.719040
  0
LINE
  8
0
 62
     4
 10
295.999969
 20
88.333542
 11
298.749969
 21
88.333542
  0
LINE
  8
0
 62
     4
 10
291.323242
 20
86.333542
 11
291.749969
 21
86.333542
  0
LINE
  8
0
 62
     4
 10
295.749969
 20
86.333542
 11
296.176697
 21
86.333542
  0
LINE
  8
0
 62
     4
 10
298.749969
 20
84.019043
 11
304.749969
 21
84.019043
  0
LINE
  8
0
 62
     4
 10
289.749969
 20
50.650208
 11
297.749969
 21
50.650208
  0
LINE
  8
0
 62
     4
 10
289.749969
 20
81.333542
 11
289.749969
 21
50.650208
  0
LINE
  8
0
 62
     4
 10
297.749969
 20
81.333542
 11
297.749969
 21
50.650208
  0
LINE
  8
0
 62
     4
 10
297.749969
 20
77.519043
 11
304.749969
 21
77.519043
  0
LINE
  8
0
 62
     4
 10
306.749969
 20
82.219040
 11
311.749969
 21
82.219040
  0
LINE
  8
0
 62
     4
 10
306.749969
 20
78.819046
 11
311.749969
 21
78.819046
  0
LINE
  8
0
 62
     4
 10
320.349976
 20
38.680954
 11
315.149963
 21
38.680954
  0
LINE
  8
0
 62
     4
 10
319.549988
 20
36.680954
 11
318.049988
 21
36.680954
  0
LINE
  8
0
 62
     4
 10
315.149963
 20
37.480957
 11
315.149963
 21
38.680954
  0
LINE
  8
0
 62
     4
 10
320.349976
 20
37.480957
 11
320.349976
 21
38.680954
  0
LINE
  8
0
 62
     4
 10
318.049988
 20
37.680954
 11
318.049988
 21
36.680954
  0
LINE
  8
0
 62
     4
 10
317.449951
 20
37.680954
 11
317.449951
 21
36.680954
  0
LINE
  8
0
 62
     4
 10
318.049988
 20
37.680954
 11
317.449951
 21
37.680954
  0
LINE
  8
0
 62
     4
 10
317.449951
 20
36.680954
 11
315.949982
 21
36.680954
  0
LINE
  8
0
 62
     4
 10
328.749969
 20
43.980957
 11
322.749969
 21
43.980957
  0
LINE
  8
0
 62
     4
 10
306.749969
 20
43.980957
 11
306.749969
 21
50.800003
  0
LINE
  8
0
 62
     4
 10
328.749969
 20
43.980957
 11
328.749969
 21
50.800003
  0
LINE
  8
0
 62
     4
 10
328.749969
 20
50.480957
 11
321.749969
 21
50.480957
  0
LINE
  8
0
 62
     4
 10
327.249969
 20
43.980957
 11
327.249969
 21
43.480957
  0
LINE
  8
0
 62
     4
 10
323.249969
 20
43.980957
 11
323.249969
 21
43.480957
  0
LINE
  8
0
 62
     4
 10
327.249969
 20
43.480957
 11
323.249969
 21
43.480957
  0
LINE
  8
0
 62
     4
 10
323.292236
 20
43.407848
 11
323.250031
 21
43.480965
  0
LINE
  8
0
 62
     4
 10
327.207672
 20
43.407837
 11
327.249908
 21
43.480965
  0
LINE
  8
0
 62
     4
 10
306.749969
 20
44.980957
 11
304.749969
 21
44.980957
  0
LINE
  8
0
 62
     4
 10
306.749969
 20
49.980957
 11
304.749969
 21
49.980957
  0
LINE
  8
0
 62
     4
 10
304.749969
 20
44.980957
 11
304.749969
 21
49.980957
  0
LINE
  8
0
 62
     4
 10
316.249969
 20
38.680954
 11
316.249969
 21
39.666458
  0
LINE
  8
0
 62
     4
 10
319.249969
 20
38.680954
 11
319.249969
 21
39.666458
  0
LINE
  8
0
 62
     4
 10
322.249969
 20
46.666458
 11
313.249969
 21
46.666458
  0
LINE
  8
0
 62
     4
 10
322.749969
 20
46.166458
 11
322.749969
 21
39.666458
  0
LINE
  8
0
 62
     4
 10
312.749969
 20
46.166458
 11
312.749969
 21
39.666458
  0
LINE
  8
0
 62
     4
 10
322.749969
 20
39.666458
 11
312.749969
 21
39.666458
  0
LINE
  8
0
 62
     4
 10
312.749969
 20
43.980957
 11
306.749969
 21
43.980957
  0
LINE
  8
0
 62
     4
 10
321.749969
 20
77.349792
 11
313.749969
 21
77.349792
  0
LINE
  8
0
 62
     4
 10
321.749969
 20
46.666458
 11
321.749969
 21
77.349792
  0
LINE
  8
0
 62
     4
 10
313.749969
 20
46.666458
 11
313.749969
 21
77.349792
  0
LINE
  8
0
 62
     4
 10
313.749969
 20
50.480957
 11
306.749969
 21
50.480957
  0
LINE
  8
0
 62
     4
 10
304.749969
 20
45.780960
 11
299.749969
 21
45.780960
  0
LINE
  8
0
 62
     4
 10
304.749969
 20
49.180954
 11
299.749969
 21
49.180954
  0
LINE
  8
0
 62
     1
 10
294.999969
 20
89.319046
 11
294.999969
 21
87.333542
  0
LINE
  8
0
 62
     1
 10
318.999969
 20
38.680954
 11
318.999969
 21
39.666458
  0
LINE
  8
0
 62
     1
 10
292.499969
 20
89.319046
 11
292.499969
 21
87.333542
  0
LINE
  8
0
 62
     1
 10
316.499969
 20
38.680954
 11
316.499969
 21
39.666458
  0
LINE
  8
0
 10
289.749969
 20
77.199997
 11
268.749969
 21
77.199997
  0
LINE
  8
0
 10
313.749969
 20
77.199997
 11
297.749969
 21
77.199997
  0
LINE
  8
0
 10
313.749969
 20
50.800003
 11
297.749969
 21
50.800003
  0
LINE
  8
0
 10
289.749969
 20
50.800003
 11
268.749969
 21
50.800003
  0
LINE
  8
0
 10
86.583374
 20
123.500000
 11
73.583374
 21
123.500000
  0
LINE
  8
0
 10
86.583374
 20
128.500000
 11
73.583374
 21
128.500000
  0
LINE
  8
0
 10
86.583374
 20
128.500000
 11
86.583374
 21
123.500000
  0
LINE
  8
0
 10
73.583374
 20
128.500000
 11
73.583374
 21
123.500000
  0
LINE
  8
0
 10
83.583374
 20
131.500000
 11
76.583374
 21
131.500000
  0
LINE
  8
0
 10
84.083374
 20
131.000000
 11
84.083374
 21
128.500000
  0
LINE
  8
0
 10
76.083374
 20
131.000000
 11
76.083374
 21
128.500000
  0
LINE
  8
0
 10
83.583298
 20
131.499985
 11
84.083351
 21
130.999969
  0
LINE
  8
0
 10
76.083412
 20
130.999878
 11
76.583427
 21
131.499893
  0
LINE
  8
0
 62
     2
 10
83.458374
 20
131.500000
 11
83.458374
 21
128.500000
  0
LINE
  8
0
 62
     2
 10
76.708374
 20
131.500000
 11
76.708374
 21
128.500000
  0
LINE
  8
0
 10
84.083374
 20
131.000000
 11
76.083374
 21
131.000000
  0
LINE
  8
0
 10
86.583374
 20
4.500000
 11
73.583374
 21
4.500000
  0
LINE
  8
0
 10
86.583374
 20
-0.500000
 11
73.583374
 21
-0.500000
  0
LINE
  8
0
 10
86.583374
 20
-0.500000
 11
86.583374
 21
4.500000
  0
LINE
  8
0
 10
73.583374
 20
-0.500000
 11
73.583374
 21
4.500000
  0
LINE
  8
0
 10
83.583374
 20
-3.500000
 11
76.583374
 21
-3.500000
  0
LINE
  8
0
 10
84.083374
 20
-3.000000
 11
84.083374
 21
-0.500000
  0
LINE
  8
0
 10
76.083374
 20
-3.000000
 11
76.083374
 21
-0.500000
  0
LINE
  8
0
 10
83.583412
 20
-3.500046
 11
84.083420
 21
-3.000029
  0
LINE
  8
0
 10
76.083443
 20
-2.999969
 11
76.583420
 21
-3.499964
  0
LINE
  8
0
 62
     2
 10
83.458374
 20
-3.500000
 11
83.458374
 21
-0.500000
  0
LINE
  8
0
 62
     2
 10
76.708374
 20
-3.500000
 11
76.708374
 21
-0.500000
  0
LINE
  8
0
 10
84.083374
 20
-3.000000
 11
76.083374
 21
-3.000000
  0
LINE
  8
0
 62
     4
 10
71.783325
 20
65.519875
 11
71.783325
 21
62.480125
  0
LINE
  8
0
 62
     4
 10
64.383362
 20
65.519875
 11
64.383362
 21
62.480125
  0
LINE
  8
0
 62
     4
 10
69.603210
 20
67.699997
 11
66.563477
 21
67.699997
  0
LINE
  8
0
 62
     4
 10
69.603210
 20
60.300003
 11
66.563477
 21
60.300003
  0
LINE
  8
0
 10
90.083374
 20
114.500000
 11
46.083374
 21
114.500000
  0
LINE
  8
0
 10
90.083374
 20
13.500000
 11
46.083374
 21
13.500000
  0
LINE
  8
0
  6
CENTER
 62
     2
 10
110.583191
 20
64.000000
 11
23.362526
 21
64.000000
  0
LINE
  8
0
 10
80.283325
 20
9.900002
 11
80.283325
 21
10.900002
  0
LINE
  8
0
 10
89.783325
 20
115.699997
 11
46.383362
 21
115.699997
  0
LINE
  8
0
 10
88.817749
 20
121.500000
 11
47.348938
 21
121.500000
  0
LINE
  8
0
 10
46.383362
 20
115.699997
 11
46.383362
 21
114.500000
  0
LINE
  8
0
 10
89.783325
 20
115.699997
 11
89.783325
 21
114.500000
  0
LINE
  8
0
 10
89.783485
 20
115.700005
 11
89.315956
 21
121.043579
  0
LINE
  8
0
 10
46.383495
 20
115.699989
 11
46.850964
 21
121.043556
  0
LINE
  8
0
 10
79.381912
 20
117.556412
 11
79.076797
 21
121.043579
  0
LINE
  8
0
 10
56.784809
 20
117.556412
 11
57.089920
 21
121.043564
  0
LINE
  8
0
 10
89.660889
 20
117.100006
 11
79.880066
 21
117.100006
  0
LINE
  8
0
 10
56.286621
 20
117.100006
 11
46.505859
 21
117.100006
  0
LINE
  8
0
 10
55.883362
 20
118.100006
 11
48.283325
 21
118.100006
  0
LINE
  8
0
 10
55.883362
 20
118.100006
 11
55.883362
 21
117.100006
  0
LINE
  8
0
 10
48.283325
 20
118.100006
 11
48.283325
 21
117.100006
  0
LINE
  8
0
 10
87.883362
 20
118.100006
 11
80.283325
 21
118.100006
  0
LINE
  8
0
 10
87.883362
 20
118.100006
 11
87.883362
 21
117.100006
  0
LINE
  8
0
 10
80.283325
 20
118.100006
 11
80.283325
 21
117.100006
  0
LINE
  8
0
 10
89.783325
 20
12.299988
 11
46.383362
 21
12.299988
  0
LINE
  8
0
 10
88.817780
 20
6.500000
 11
47.349030
 21
6.500000
  0
LINE
  8
0
 10
46.383362
 20
12.299999
 11
46.383362
 21
13.500000
  0
LINE
  8
0
 10
89.783325
 20
12.299999
 11
89.783325
 21
13.500000
  0
LINE
  8
0
 10
89.783432
 20
12.299992
 11
89.315903
 21
6.956415
  0
LINE
  8
0
 10
46.383396
 20
12.300002
 11
46.850922
 21
6.956440
  0
LINE
  8
0
 10
79.382118
 20
10.443574
 11
79.077065
 21
6.956429
  0
LINE
  8
0
 10
56.784637
 20
10.443581
 11
57.089752
 21
6.956415
  0
LINE
  8
0
 10
89.660889
 20
10.899994
 11
79.880157
 21
10.899994
  0
LINE
  8
0
 10
56.286499
 20
10.899994
 11
46.505859
 21
10.899994
  0
LINE
  8
0
 10
55.883362
 20
9.899994
 11
48.283325
 21
9.899994
  0
LINE
  8
0
 10
55.883362
 20
9.900002
 11
55.883362
 21
10.900002
  0
LINE
  8
0
 10
48.283325
 20
9.900002
 11
48.283325
 21
10.900002
  0
LINE
  8
0
 10
87.883362
 20
9.899994
 11
80.283325
 21
9.899994
  0
LINE
  8
0
 10
87.883362
 20
9.900002
 11
87.883362
 21
10.900002
  0
LINE
  8
0
 10
80.083374
 20
3.919441
 11
80.083374
 21
0.080559
  0
LINE
  8
0
 10
80.083374
 20
124.080566
 11
80.083374
 21
127.919434
  0
LINE
  8
0
 62
     4
 10
64.330444
 20
57.499928
 11
60.577705
 21
63.999882
  0
LINE
  8
0
 62
     4
 10
60.577831
 20
63.999962
 11
64.330635
 21
70.499947
  0
LINE
  8
0
 62
     4
 10
64.330566
 20
70.500015
 11
71.836121
 21
70.500015
  0
LINE
  8
0
 62
     4
 10
71.835945
 20
70.499901
 11
75.588737
 21
63.999950
  0
LINE
  8
0
 62
     4
 10
75.588737
 20
64.000069
 11
71.835930
 21
57.500084
  0
LINE
  8
0
 62
     4
 10
71.836121
 20
57.499969
 11
64.330627
 21
57.499969
  0
LINE
  8
0
 10
90.083374
 20
114.500000
 11
90.083374
 21
85.000000
  0
LINE
  8
0
 10
46.083374
 20
114.500000
 11
46.083374
 21
85.000000
  0
LINE
  8
0
  6
CENTER
 62
     2
 10
68.083374
 20
126.500000
 11
68.083374
 21
1.500000
  0
LINE
  8
0
 10
101.583374
 20
85.000000
 11
34.583374
 21
85.000000
  0
LINE
  8
0
 10
101.583374
 20
43.000000
 11
34.583374
 21
43.000000
  0
LINE
  8
0
 10
30.583382
 20
47.000011
 11
34.583382
 21
43.000015
  0
LINE
  8
0
 10
30.583374
 20
81.000000
 11
30.583374
 21
47.000000
  0
LINE
  8
0
 10
30.583368
 20
81.000015
 11
34.583366
 21
85.000015
  0
LINE
  8
0
  6
CENTER
 62
     2
 10
33.083374
 20
79.000000
 11
43.083374
 21
79.000000
  0
LINE
  8
0
  6
CENTER
 62
     2
 10
38.083374
 20
84.000000
 11
38.083374
 21
74.000000
  0
LINE
  8
0
  6
CENTER
 62
     2
 10
38.083374
 20
44.000000
 11
38.083374
 21
54.000000
  0
LINE
  8
0
  6
CENTER
 62
     2
 10
33.083374
 20
49.000000
 11
43.083374
 21
49.000000
  0
LINE
  8
0
 10
101.583290
 20
84.999916
 11
105.583282
 21
80.999908
  0
LINE
  8
0
 10
105.583374
 20
80.999992
 11
105.583374
 21
47.000000
  0
LINE
  8
0
 10
105.583359
 20
47.000000
 11
101.583359
 21
43.000004
  0
LINE
  8
0
  6
CENTER
 62
     2
 10
98.083374
 20
84.000000
 11
98.083374
 21
74.000000
  0
LINE
  8
0
  6
CENTER
 62
     2
 10
98.083374
 20
44.000000
 11
98.083374
 21
54.000000
  0
LINE
  8
0
  6
CENTER
 62
     2
 10
103.083374
 20
79.000000
 11
93.083374
 21
79.000000
  0
LINE
  8
0
  6
CENTER
 62
     2
 10
103.083374
 20
49.000000
 11
93.083374
 21
49.000000
  0
LINE
  8
0
 10
46.083374
 20
43.000000
 11
46.083374
 21
13.500000
  0
LINE
  8
0
 10
90.083374
 20
43.000000
 11
90.083374
 21
13.500000
  0
LINE
  8
0
 62
     4
 10
90.583374
 20
107.500000
 11
96.083374
 21
107.500000
  0
LINE
  8
0
 62
     4
 10
90.583374
 20
99.500000
 11
96.083374
 21
99.500000
  0
LINE
  8
0
 62
     4
 10
90.583374
 20
107.500000
 11
90.583374
 21
99.500000
  0
LINE
  8
0
 62
     4
 10
96.083374
 20
107.500000
 11
96.083374
 21
99.500000
  0
LINE
  8
0
 62
     4
 10
97.055206
 20
106.299995
 11
96.083374
 21
106.299995
  0
LINE
  8
0
 62
     4
 10
97.055206
 20
100.699997
 11
96.083374
 21
100.699997
  0
LINE
  8
0
 62
     4
 10
93.217346
 20
113.500000
 11
90.949402
 21
113.500000
  0
LINE
  8
0
 62
     4
 10
90.083298
 20
111.999985
 11
90.949326
 21
113.499992
  0
LINE
  8
0
 62
     4
 10
94.083443
 20
112.000046
 11
93.217407
 21
113.500061
  0
LINE
  8
0
 62
     4
 10
94.083374
 20
112.000000
 11
94.083374
 21
107.500000
  0
LINE
  8
0
 62
     4
 10
94.083374
 20
112.000000
 11
90.083374
 21
112.000000
  0
LINE
  8
0
 62
     4
 10
94.083374
 20
91.500000
 11
90.083374
 21
91.500000
  0
LINE
  8
0
 62
     4
 10
93.583374
 20
90.500000
 11
90.583374
 21
90.500000
  0
LINE
  8
0
 62
     4
 10
90.583374
 20
90.500000
 11
90.583374
 21
85.500000
  0
LINE
  8
0
 62
     4
 10
93.583374
 20
90.500000
 11
93.583374
 21
85.500000
  0
LINE
  8
0
 62
     4
 10
94.083321
 20
91.500000
 11
93.583313
 21
90.499992
  0
LINE
  8
0
 62
     4
 10
90.083466
 20
91.500046
 11
90.583458
 21
90.500053
  0
LINE
  8
0
 62
     4
 10
94.083374
 20
99.500000
 11
94.083374
 21
91.500000
  0
LINE
  8
0
 62
     4
 10
90.583374
 20
20.500000
 11
96.083374
 21
20.500000
  0
LINE
  8
0
 62
     4
 10
90.583374
 20
28.500000
 11
96.083374
 21
28.500000
  0
LINE
  8
0
 62
     4
 10
90.583374
 20
20.500000
 11
90.583374
 21
28.500000
  0
LINE
  8
0
 62
     4
 10
96.083374
 20
20.500000
 11
96.083374
 21
28.500000
  0
LINE
  8
0
 62
     4
 10
97.055206
 20
21.699997
 11
96.083374
 21
21.699997
  0
LINE
  8
0
 62
     4
 10
97.055206
 20
27.300003
 11
96.083374
 21
27.300003
  0
LINE
  8
0
 62
     4
 10
93.217346
 20
14.500000
 11
90.949402
 21
14.500000
  0
LINE
  8
0
 62
     4
 10
90.083290
 20
15.999977
 11
90.949318
 21
14.499972
  0
LINE
  8
0
 62
     4
 10
94.083466
 20
15.999945
 11
93.217438
 21
14.499940
  0
LINE
  8
0
 62
     4
 10
94.083374
 20
16.000000
 11
94.083374
 21
20.500000
  0
LINE
  8
0
 62
     4
 10
94.083374
 20
16.000000
 11
90.083374
 21
16.000000
  0
LINE
  8
0
 62
     4
 10
94.083374
 20
36.500000
 11
90.083374
 21
36.500000
  0
LINE
  8
0
 62
     4
 10
93.583374
 20
37.500000
 11
90.583374
 21
37.500000
  0
LINE
  8
0
 62
     4
 10
90.583374
 20
37.500000
 11
90.583374
 21
42.500000
  0
LINE
  8
0
 62
     4
 10
93.583374
 20
37.500000
 11
93.583374
 21
42.500000
  0
LINE
  8
0
 62
     4
 10
94.083351
 20
36.499981
 11
93.583351
 21
37.499989
  0
LINE
  8
0
 62
     4
 10
90.083511
 20
36.499947
 11
90.583511
 21
37.499939
  0
LINE
  8
0
 62
     4
 10
94.083374
 20
28.500000
 11
94.083374
 21
36.500000
  0
LINE
  8
0
 10
476.416626
 20
114.500000
 11
476.416626
 21
13.500000
  0
LINE
  8
0
 10
432.416626
 20
114.500000
 11
432.416626
 21
107.500000
  0
LINE
  8
0
 10
476.416626
 20
114.500000
 11
432.416626
 21
114.500000
  0
LINE
  8
0
 10
476.416626
 20
13.500000
 11
432.416626
 21
13.500000
  0
LINE
  8
0
  6
CENTER
 62
     2
 10
496.949982
 20
64.000000
 11
412.396637
 21
64.000000
  0
LINE
  8
0
  6
CENTER
 62
     2
 10
453.416626
 20
20.000000
 11
439.416626
 21
20.000000
  0
LINE
  8
0
  6
CENTER
 62
     2
 10
453.416626
 20
108.000000
 11
439.416626
 21
108.000000
  0
LINE
  8
0
  6
CENTER
 62
     2
 10
446.416626
 20
27.000000
 11
446.416626
 21
13.000000
  0
LINE
  8
0
  6
CENTER
 62
     2
 10
446.416626
 20
115.000000
 11
446.416626
 21
101.000000
  0
LINE
  8
0
 10
432.716644
 20
12.299988
 11
476.116608
 21
12.299988
  0
LINE
  8
0
 10
433.682098
 20
6.500000
 11
475.150909
 21
6.500000
  0
LINE
  8
0
 10
476.116608
 20
12.299999
 11
476.116608
 21
13.500000
  0
LINE
  8
0
 10
432.716644
 20
12.299999
 11
432.716644
 21
13.500000
  0
LINE
  8
0
 10
432.716553
 20
12.300003
 11
433.184021
 21
6.956436
  0
LINE
  8
0
 10
476.116364
 20
12.300031
 11
475.648865
 21
6.956447
  0
LINE
  8
0
 10
443.117889
 20
10.443578
 11
443.423004
 21
6.956412
  0
LINE
  8
0
 10
465.715302
 20
10.443586
 11
465.410217
 21
6.956426
  0
LINE
  8
0
 10
432.839111
 20
10.899994
 11
442.619781
 21
10.899994
  0
LINE
  8
0
 10
466.213409
 20
10.899994
 11
475.994141
 21
10.899994
  0
LINE
  8
0
 10
466.616608
 20
9.899994
 11
474.216644
 21
9.899994
  0
LINE
  8
0
 10
466.616608
 20
9.900002
 11
466.616608
 21
10.900002
  0
LINE
  8
0
 10
474.216644
 20
9.900002
 11
474.216644
 21
10.900002
  0
LINE
  8
0
 10
434.616608
 20
9.899994
 11
442.216644
 21
9.899994
  0
LINE
  8
0
 10
434.616608
 20
9.900002
 11
434.616608
 21
10.900002
  0
LINE
  8
0
 10
442.216644
 20
9.900002
 11
442.216644
 21
10.900002
  0
LINE
  8
0
 10
435.916626
 20
4.500000
 11
448.916626
 21
4.500000
  0
LINE
  8
0
 10
435.916626
 20
-0.500000
 11
448.916626
 21
-0.500000
  0
LINE
  8
0
 10
435.916626
 20
-0.500000
 11
435.916626
 21
4.500000
  0
LINE
  8
0
 10
448.916626
 20
-0.500000
 11
448.916626
 21
4.500000
  0
LINE
  8
0
 10
438.916626
 20
-3.500000
 11
445.916626
 21
-3.500000
  0
LINE
  8
0
 10
438.416626
 20
-3.000000
 11
438.416626
 21
-0.500000
  0
LINE
  8
0
 10
446.416626
 20
-3.000000
 11
446.416626
 21
-0.500000
  0
LINE
  8
0
 10
438.916534
 20
-3.500061
 11
438.416534
 21
-3.000067
  0
LINE
  8
0
 10
446.416687
 20
-3.000031
 11
445.916687
 21
-3.500015
  0
LINE
  8
0
 62
     2
 10
439.041626
 20
-3.500000
 11
439.041626
 21
-0.500000
  0
LINE
  8
0
 62
     2
 10
445.791626
 20
-3.500000
 11
445.791626
 21
-0.500000
  0
LINE
  8
0
 10
438.416626
 20
-3.000000
 11
446.416626
 21
-3.000000
  0
LINE
  8
0
 10
432.716644
 20
115.699997
 11
476.116608
 21
115.699997
  0
LINE
  8
0
 10
433.682129
 20
121.500000
 11
475.150909
 21
121.500000
  0
LINE
  8
0
 10
476.116608
 20
115.699997
 11
476.116608
 21
114.500000
  0
LINE
  8
0
 10
432.716644
 20
115.699997
 11
432.716644
 21
114.500000
  0
LINE
  8
0
 10
432.716583
 20
115.699966
 11
433.184082
 21
121.043571
  0
LINE
  8
0
 10
476.116302
 20
115.699982
 11
475.648804
 21
121.043526
  0
LINE
  8
0
 10
443.117920
 20
117.556435
 11
443.422974
 21
121.043579
  0
LINE
  8
0
 10
465.715179
 20
117.556396
 11
465.410095
 21
121.043564
  0
LINE
  8
0
 10
432.839111
 20
117.100006
 11
442.619843
 21
117.100006
  0
LINE
  8
0
 10
466.213409
 20
117.100006
 11
475.994141
 21
117.100006
  0
LINE
  8
0
 10
466.616608
 20
118.100006
 11
474.216644
 21
118.100006
  0
LINE
  8
0
 10
466.616608
 20
118.100006
 11
466.616608
 21
117.100006
  0
LINE
  8
0
 10
474.216644
 20
118.100006
 11
474.216644
 21
117.100006
  0
LINE
  8
0
 10
434.616608
 20
118.100006
 11
442.216644
 21
118.100006
  0
LINE
  8
0
 10
434.616608
 20
118.100006
 11
434.616608
 21
117.100006
  0
LINE
  8
0
 10
442.216644
 20
118.100006
 11
442.216644
 21
117.100006
  0
LINE
  8
0
 10
435.916626
 20
123.500000
 11
448.916626
 21
123.500000
  0
LINE
  8
0
 10
435.916626
 20
128.500000
 11
448.916626
 21
128.500000
  0
LINE
  8
0
 10
435.916626
 20
128.500000
 11
435.916626
 21
123.500000
  0
LINE
  8
0
 10
448.916626
 20
128.500000
 11
448.916626
 21
123.500000
  0
LINE
  8
0
 10
438.916626
 20
131.500000
 11
445.916626
 21
131.500000
  0
LINE
  8
0
 10
438.416626
 20
131.000000
 11
438.416626
 21
128.500000
  0
LINE
  8
0
 10
446.416626
 20
131.000000
 11
446.416626
 21
128.500000
  0
LINE
  8
0
 10
438.916626
 20
131.499954
 11
438.416595
 21
130.999924
  0
LINE
  8
0
 10
446.416473
 20
130.999893
 11
445.916504
 21
131.499878
  0
LINE
  8
0
 62
     2
 10
439.041626
 20
131.500000
 11
439.041626
 21
128.500000
  0
LINE
  8
0
 62
     2
 10
445.791626
 20
131.500000
 11
445.791626
 21
128.500000
  0
LINE
  8
0
 10
438.416626
 20
131.000000
 11
446.416626
 21
131.000000
  0
LINE
  8
0
 10
435.416626
 20
76.051971
 11
435.416626
 21
51.948029
  0
LINE
  8
0
 10
473.416626
 20
76.051971
 11
473.416626
 21
51.948029
  0
LINE
  8
0
 10
468.416626
 20
75.634033
 11
466.916656
 21
74.768021
  0
LINE
  8
0
 10
466.916840
 20
74.768173
 11
465.416840
 21
75.634209
  0
LINE
  8
0
 10
465.416595
 20
75.633980
 11
465.416595
 21
77.366035
  0
LINE
  8
0
 10
465.416687
 20
77.366096
 11
466.916687
 21
78.232124
  0
LINE
  8
0
 10
466.916656
 20
78.232079
 11
468.416718
 21
77.366035
  0
LINE
  8
0
 10
468.416626
 20
77.366035
 11
468.416626
 21
75.633980
  0
LINE
  8
0
 10
468.416595
 20
52.366035
 11
468.416595
 21
50.633980
  0
LINE
  8
0
 10
466.916840
 20
53.232239
 11
468.416840
 21
52.366207
  0
LINE
  8
0
 10
465.416748
 20
52.366070
 11
466.916748
 21
53.232098
  0
LINE
  8
0
 10
465.416595
 20
50.633980
 11
465.416595
 21
52.366035
  0
LINE
  8
0
 10
466.916779
 20
49.768124
 11
465.416779
 21
50.634151
  0
LINE
  8
0
 10
468.416687
 20
50.634022
 11
466.916687
 21
49.767990
  0
LINE
  8
0
 10
443.416595
 20
52.366028
 11
443.416595
 21
50.633972
  0
LINE
  8
0
 10
441.916809
 20
53.232174
 11
443.416809
 21
52.366142
  0
LINE
  8
0
 10
440.416687
 20
52.366077
 11
441.916687
 21
53.232105
  0
LINE
  8
0
 10
440.416595
 20
50.633980
 11
440.416595
 21
52.366035
  0
LINE
  8
0
 10
441.916840
 20
49.768097
 11
440.416840
 21
50.634125
  0
LINE
  8
0
 10
443.416626
 20
50.633976
 11
441.916595
 21
49.767960
  0
LINE
  8
0
 10
443.416626
 20
77.366028
 11
443.416626
 21
75.633972
  0
LINE
  8
0
 10
441.916809
 20
78.232277
 11
443.416809
 21
77.366241
  0
LINE
  8
0
 10
440.416656
 20
77.366035
 11
441.916687
 21
78.232071
  0
LINE
  8
0
 10
440.416595
 20
75.633980
 11
440.416595
 21
77.366035
  0
LINE
  8
0
 10
441.916809
 20
74.768127
 11
440.416809
 21
75.634155
  0
LINE
  8
0
 10
443.416595
 20
75.634048
 11
441.916595
 21
74.768013
  0
LINE
  8
0
 10
442.416626
 20
3.919441
 11
442.416626
 21
0.080559
  0
LINE
  8
0
 10
442.416626
 20
124.080566
 11
442.416626
 21
127.919434
  0
LINE
  8
0
 10
463.581238
 20
73.500000
 11
445.252014
 21
73.500000
  0
LINE
  8
0
 10
463.581238
 20
54.500000
 11
445.252014
 21
54.500000
  0
LINE
  8
0
  6
CENTER
 62
     2
 10
454.416626
 20
126.500000
 11
454.416626
 21
1.500000
  0
LINE
  8
0
 10
416.916626
 20
81.000000
 11
416.916626
 21
47.000000
  0
LINE
  8
0
 10
416.916687
 20
47.000072
 11
420.916687
 21
43.000065
  0
LINE
  8
0
 10
416.916656
 20
80.999985
 11
420.916626
 21
84.999969
  0
LINE
  8
0
 10
432.416626
 20
85.000000
 11
420.916626
 21
85.000000
  0
LINE
  8
0
 10
432.416626
 20
43.000000
 11
420.916626
 21
43.000000
  0
LINE
  8
0
  6
CENTER
 62
     2
 10
424.416626
 20
86.500000
 11
424.416626
 21
71.500000
  0
LINE
  8
0
  6
CENTER
 62
     2
 10
416.916626
 20
79.000000
 11
431.916626
 21
79.000000
  0
LINE
  8
0
  6
CENTER
 62
     2
 10
424.416626
 20
41.500000
 11
424.416626
 21
56.500000
  0
LINE
  8
0
  6
CENTER
 62
     2
 10
416.916626
 20
49.000000
 11
431.916626
 21
49.000000
  0
LINE
  8
0
 10
487.916626
 20
85.000000
 11
476.416626
 21
85.000000
  0
LINE
  8
0
 10
487.916626
 20
43.000000
 11
476.416626
 21
43.000000
  0
LINE
  8
0
 10
491.916626
 20
80.999992
 11
491.916626
 21
47.000000
  0
LINE
  8
0
 10
487.916412
 20
84.999847
 11
491.916412
 21
80.999840
  0
LINE
  8
0
 10
491.916565
 20
47.000008
 11
487.916565
 21
43.000004
  0
LINE
  8
0
  6
CENTER
 62
     2
 10
484.416626
 20
86.500000
 11
484.416626
 21
71.500000
  0
LINE
  8
0
  6
CENTER
 62
     2
 10
491.916626
 20
79.000000
 11
476.916626
 21
79.000000
  0
LINE
  8
0
  6
CENTER
 62
     2
 10
484.416626
 20
41.500000
 11
484.416626
 21
56.500000
  0
LINE
  8
0
  6
CENTER
 62
     2
 10
491.916626
 20
49.000000
 11
476.916626
 21
49.000000
  0
LINE
  8
0
 62
     4
 10
425.444794
 20
100.699997
 11
426.416626
 21
100.699997
  0
LINE
  8
0
 62
     4
 10
425.444794
 20
106.299995
 11
426.416626
 21
106.299995
  0
LINE
  8
0
 62
     4
 10
433.416626
 20
107.500000
 11
433.416626
 21
99.500000
  0
LINE
  8
0
 62
     4
 10
426.416626
 20
107.500000
 11
433.416626
 21
107.500000
  0
LINE
  8
0
 62
     4
 10
426.416626
 20
99.500000
 11
433.416626
 21
99.500000
  0
LINE
  8
0
 62
     4
 10
430.416626
 20
107.500000
 11
430.416626
 21
99.500000
  0
LINE
  8
0
 62
     4
 10
426.416626
 20
107.500000
 11
426.416626
 21
99.500000
  0
LINE
  8
0
 62
     4
 10
428.416626
 20
112.000000
 11
428.416626
 21
107.500000
  0
LINE
  8
0
 62
     4
 10
431.550598
 20
113.500000
 11
429.282654
 21
113.500000
  0
LINE
  8
0
 62
     4
 10
428.416473
 20
112.000031
 11
429.282532
 21
113.500038
  0
LINE
  8
0
 62
     4
 10
432.416656
 20
112.000015
 11
431.550629
 21
113.500015
  0
LINE
  8
0
 62
     4
 10
432.416626
 20
112.000000
 11
428.416626
 21
112.000000
  0
LINE
  8
0
 62
     4
 10
432.416626
 20
91.500000
 11
428.416626
 21
91.500000
  0
LINE
  8
0
 62
     4
 10
431.916626
 20
90.500000
 11
428.916626
 21
90.500000
  0
LINE
  8
0
 62
     4
 10
428.916626
 20
90.500000
 11
428.916626
 21
85.500000
  0
LINE
  8
0
 62
     4
 10
431.916626
 20
90.500000
 11
431.916626
 21
85.500000
  0
LINE
  8
0
 62
     4
 10
432.416595
 20
91.500023
 11
431.916595
 21
90.500015
  0
LINE
  8
0
 62
     4
 10
428.416565
 20
91.499962
 11
428.916565
 21
90.499969
  0
LINE
  8
0
 62
     4
 10
428.416626
 20
99.500000
 11
428.416626
 21
91.500000
  0
LINE
  8
0
 62
     4
 10
425.444794
 20
27.300007
 11
426.416626
 21
27.300007
  0
LINE
  8
0
 62
     4
 10
425.444794
 20
21.700008
 11
426.416626
 21
21.700008
  0
LINE
  8
0
 62
     4
 10
433.416626
 20
20.500000
 11
433.416626
 21
28.500000
  0
LINE
  8
0
 62
     4
 10
426.416626
 20
20.500000
 11
433.416626
 21
20.500000
  0
LINE
  8
0
 62
     4
 10
426.416626
 20
28.500000
 11
433.416626
 21
28.500000
  0
LINE
  8
0
 62
     4
 10
430.416626
 20
20.500000
 11
430.416626
 21
28.500000
  0
LINE
  8
0
 62
     4
 10
426.416626
 20
20.500000
 11
426.416626
 21
28.500000
  0
LINE
  8
0
 62
     4
 10
428.416626
 20
16.000000
 11
428.416626
 21
20.500000
  0
LINE
  8
0
 62
     4
 10
431.550598
 20
14.500000
 11
429.282654
 21
14.500000
  0
LINE
  8
0
 62
     4
 10
428.416534
 20
15.999955
 11
429.282562
 21
14.499950
  0
LINE
  8
0
 62
     4
 10
432.416626
 20
15.999955
 11
431.550598
 21
14.499951
  0
LINE
  8
0
 62
     4
 10
432.416626
 20
16.000000
 11
428.416626
 21
16.000000
  0
LINE
  8
0
 62
     4
 10
432.416626
 20
36.500000
 11
428.416626
 21
36.500000
  0
LINE
  8
0
 62
     4
 10
431.916626
 20
37.500000
 11
428.916626
 21
37.500000
  0
LINE
  8
0
 62
     4
 10
428.916626
 20
37.500000
 11
428.916626
 21
42.500000
  0
LINE
  8
0
 62
     4
 10
431.916626
 20
37.500000
 11
431.916626
 21
42.500000
  0
LINE
  8
0
 62
     4
 10
432.416595
 20
36.499966
 11
431.916565
 21
37.499985
  0
LINE
  8
0
 62
     4
 10
428.416595
 20
36.499996
 11
428.916595
 21
37.499989
  0
LINE
  8
0
 62
     4
 10
428.416626
 20
28.500000
 11
428.416626
 21
36.500000
  0
LINE
  8
0
 62
     4
 10
458.295898
 20
81.244034
 11
465.145874
 21
71.688934
  0
LINE
  8
0
 62
     4
 10
458.417725
 20
81.331360
 11
465.267670
 21
71.776253
  0
LINE
  8
0
 62
     4
 10
450.539490
 20
81.243912
 11
443.689545
 21
71.688820
  0
LINE
  8
0
 62
     4
 10
450.417542
 20
81.331406
 11
443.567596
 21
71.776306
  0
LINE
  8
0
 62
     4
 10
457.019562
 20
89.316635
 11
451.819550
 21
89.317024
  0
LINE
  8
0
 62
     4
 10
457.919189
 20
84.316566
 11
450.919189
 21
84.317093
  0
LINE
  8
0
 62
     4
 10
456.219666
 20
91.316681
 11
452.619690
 21
91.316956
  0
LINE
  8
0
 62
     4
 10
451.819611
 20
90.517029
 11
451.819519
 21
89.317032
  0
LINE
  8
0
 62
     4
 10
457.019623
 20
90.516640
 11
457.019531
 21
89.316643
  0
LINE
  8
0
 62
     4
 10
453.169525
 20
89.316902
 11
453.169434
 21
87.816902
  0
LINE
  8
0
 62
     4
 10
455.669525
 20
89.316719
 11
455.669434
 21
87.816719
  0
LINE
  8
0
 62
     4
 10
457.919159
 20
84.016563
 11
450.919159
 21
84.017090
  0
LINE
  8
0
 62
     4
 10
457.418610
 20
77.016594
 11
456.598053
 21
77.016655
  0
LINE
  8
0
 62
     4
 10
457.919159
 20
84.316559
 11
457.918640
 21
77.516556
  0
LINE
  8
0
 62
     4
 10
457.918579
 20
77.516533
 11
457.418579
 21
77.016579
  0
LINE
  8
0
 62
     4
 10
457.918640
 20
77.516563
 11
450.918640
 21
77.517090
  0
LINE
  8
0
 62
     4
 10
456.419128
 20
84.016678
 11
456.419159
 21
84.316673
  0
LINE
  8
0
 62
     4
 10
452.419128
 20
84.016983
 11
452.419159
 21
84.316978
  0
LINE
  8
0
 62
     4
 10
450.919159
 20
84.317085
 11
450.918640
 21
77.517082
  0
LINE
  8
0
 62
     4
 10
450.918671
 20
77.517059
 11
451.418640
 21
77.017029
  0
LINE
  8
0
 62
     4
 10
452.239166
 20
77.016983
 11
451.418610
 21
77.017044
  0
LINE
  8
0
 62
     4
 10
459.418945
 20
81.330940
 11
459.419312
 21
86.130943
  0
LINE
  8
0
 62
     4
 10
448.419189
 20
84.831779
 11
448.419281
 21
86.131783
  0
LINE
  8
0
 62
     4
 10
449.419281
 20
85.831703
 11
449.419189
 21
84.831703
  0
LINE
  8
0
 62
     4
 10
458.419281
 20
85.831039
 11
458.418945
 21
81.331039
  0
LINE
  8
0
 62
     4
 10
458.219391
 20
87.331047
 11
450.919373
 21
87.331596
  0
LINE
  8
0
 62
     4
 10
451.819305
 20
86.331512
 11
450.419312
 21
86.331619
  0
LINE
  8
0
 62
     4
 10
459.418915
 20
81.330940
 11
458.418915
 21
81.331017
  0
LINE
  8
0
 62
     4
 10
449.419189
 20
84.831688
 11
448.419189
 21
84.831764
  0
LINE
  8
0
 62
     4
 10
456.219238
 20
85.331177
 11
452.619232
 21
85.331451
  0
LINE
  8
0
 62
     4
 10
456.219238
 20
85.331192
 11
456.219269
 21
85.531189
  0
LINE
  8
0
 62
     4
 10
452.619232
 20
85.331467
 11
452.619263
 21
85.531464
  0
LINE
  8
0
 62
     4
 10
457.919312
 20
86.331055
 11
457.019318
 21
86.331123
  0
LINE
  8
0
 62
     4
 10
451.919464
 20
88.331505
 11
450.619476
 21
88.331604
  0
LINE
  8
0
 62
     4
 10
449.418976
 20
81.331688
 11
450.418976
 21
81.331619
  0
LINE
  8
0
 62
     4
 10
451.919464
 20
88.331505
 11
451.919373
 21
87.331505
  0
LINE
  8
0
 62
     4
 10
449.419373
 20
87.131691
 11
449.418945
 21
81.331688
  0
LINE
  8
0
 62
     4
 10
450.418915
 20
81.331627
 11
450.419312
 21
86.831627
  0
LINE
  8
0
 62
     4
 10
455.919250
 20
85.331207
 11
455.919189
 21
84.316704
  0
LINE
  8
0
 62
     4
 10
452.919250
 20
85.331436
 11
452.919189
 21
84.316933
  0
LINE
  8
0
 62
     4
 10
458.419250
 20
85.581024
 11
458.269287
 21
85.581032
  0
LINE
  8
0
 62
     4
 10
450.569244
 20
85.581604
 11
450.419250
 21
85.581619
  0
LINE
  8
0
 62
     4
 10
458.269287
 20
85.581032
 11
458.268951
 21
81.331032
  0
LINE
  8
0
 62
     4
 10
450.569275
 20
85.581612
 11
450.568939
 21
81.331612
  0
LINE
  8
0
 62
     4
 10
455.919434
 20
87.816711
 11
455.919373
 21
87.331207
  0
LINE
  8
0
 62
     4
 10
455.919434
 20
87.816704
 11
452.919434
 21
87.816933
  0
LINE
  8
0
 62
     4
 10
452.919434
 20
87.816940
 11
452.919373
 21
87.331436
  0
LINE
  8
0
 62
     4
 10
450.539490
 20
46.754036
 11
443.689545
 21
56.309132
  0
LINE
  8
0
 62
     4
 10
450.417725
 20
46.666687
 11
443.567749
 21
56.221809
  0
LINE
  8
0
 62
     4
 10
458.295715
 20
46.754044
 11
465.145691
 21
56.309143
  0
LINE
  8
0
 62
     4
 10
458.417694
 20
46.666615
 11
465.267639
 21
56.221714
  0
LINE
  8
0
 62
     4
 10
451.815735
 20
38.681370
 11
457.015747
 21
38.680977
  0
LINE
  8
0
 62
     4
 10
450.916107
 20
43.681423
 11
452.416107
 21
43.681313
  0
LINE
  8
0
 62
     4
 10
452.615601
 20
36.681305
 11
456.215607
 21
36.681034
  0
LINE
  8
0
 62
     4
 10
457.015656
 20
37.481003
 11
457.015747
 21
38.681000
  0
LINE
  8
0
 62
     4
 10
451.815674
 20
37.481388
 11
451.815765
 21
38.681385
  0
LINE
  8
0
 62
     4
 10
455.665741
 20
38.681072
 11
455.665863
 21
40.181072
  0
LINE
  8
0
 62
     4
 10
453.165741
 20
38.681267
 11
453.165863
 21
40.181267
  0
LINE
  8
0
 62
     4
 10
450.916138
 20
43.981434
 11
457.916138
 21
43.980907
  0
LINE
  8
0
 62
     4
 10
451.416656
 20
50.981403
 11
452.237213
 21
50.981342
  0
LINE
  8
0
 62
     4
 10
450.916107
 20
43.681423
 11
450.916595
 21
50.481422
  0
LINE
  8
0
 62
     4
 10
450.916626
 20
50.481468
 11
451.416687
 21
50.981441
  0
LINE
  8
0
 62
     4
 10
450.916626
 20
50.481441
 11
457.916626
 21
50.480915
  0
LINE
  8
0
 62
     4
 10
452.416138
 20
43.981342
 11
452.416107
 21
43.481342
  0
LINE
  8
0
 62
     4
 10
456.416138
 20
43.981049
 11
456.416107
 21
43.481049
  0
LINE
  8
0
 62
     4
 10
452.416107
 20
43.481323
 11
456.416107
 21
43.481022
  0
LINE
  8
0
 62
     4
 10
456.373962
 20
43.407906
 11
456.416199
 21
43.481033
  0
LINE
  8
0
 62
     4
 10
452.458405
 20
43.408279
 11
452.416199
 21
43.481384
  0
LINE
  8
0
 62
     4
 10
457.916107
 20
43.680897
 11
457.916595
 21
50.480896
  0
LINE
  8
0
 62
     4
 10
457.916718
 20
50.480938
 11
457.416748
 21
50.980988
  0
LINE
  8
0
 62
     4
 10
456.596100
 20
50.981018
 11
457.416656
 21
50.980957
  0
LINE
  8
0
 62
     4
 10
449.416321
 20
46.667065
 11
449.415985
 21
41.867062
  0
LINE
  8
0
 62
     4
 10
460.416077
 20
43.166241
 11
460.415985
 21
41.866238
  0
LINE
  8
0
 62
     4
 10
459.415985
 20
42.166290
 11
459.416077
 21
43.166290
  0
LINE
  8
0
 62
     4
 10
450.416016
 20
42.166981
 11
450.416351
 21
46.666981
  0
LINE
  8
0
 62
     4
 10
450.615845
 20
40.666958
 11
457.915863
 21
40.666409
  0
LINE
  8
0
 62
     4
 10
457.015961
 20
41.666481
 11
458.415955
 21
41.666374
  0
LINE
  8
0
 62
     4
 10
449.416351
 20
46.667053
 11
450.416351
 21
46.666977
  0
LINE
  8
0
 62
     4
 10
459.416077
 20
43.166298
 11
460.416077
 21
43.166222
  0
LINE
  8
0
 62
     4
 10
452.616028
 20
42.666809
 11
456.216034
 21
42.666538
  0
LINE
  8
0
 62
     4
 10
452.616058
 20
42.666840
 11
452.616028
 21
42.466843
  0
LINE
  8
0
 62
     4
 10
456.216064
 20
42.666561
 11
456.216034
 21
42.466564
  0
LINE
  8
0
 62
     4
 10
450.915985
 20
41.666931
 11
451.815979
 21
41.666866
  0
LINE
  8
0
 62
     4
 10
456.915802
 20
39.666489
 11
458.215790
 21
39.666389
  0
LINE
  8
0
 62
     4
 10
459.416351
 20
46.666294
 11
458.416351
 21
46.666367
  0
LINE
  8
0
 62
     4
 10
456.915802
 20
39.666512
 11
456.915894
 21
40.666512
  0
LINE
  8
0
 62
     4
 10
459.415894
 20
40.866302
 11
459.416351
 21
46.666306
  0
LINE
  8
0
 62
     4
 10
458.416351
 20
46.666363
 11
458.415924
 21
41.166363
  0
LINE
  8
0
 62
     4
 10
452.916046
 20
42.666801
 11
452.916077
 21
43.083229
  0
LINE
  8
0
 62
     4
 10
455.916046
 20
42.666561
 11
455.916077
 21
43.082989
  0
LINE
  8
0
 62
     4
 10
456.416107
 20
43.681023
 11
457.916107
 21
43.680908
  0
LINE
  8
0
 62
     4
 10
450.416016
 20
42.416977
 11
450.566010
 21
42.416965
  0
LINE
  8
0
 62
     4
 10
458.266022
 20
42.416386
 11
458.416016
 21
42.416374
  0
LINE
  8
0
 62
     4
 10
450.566040
 20
42.416981
 11
450.566345
 21
46.666981
  0
LINE
  8
0
 62
     4
 10
458.266052
 20
42.416397
 11
458.266357
 21
46.666397
  0
LINE
  8
0
 62
     4
 10
452.915863
 20
40.181293
 11
452.915894
 21
40.666798
  0
LINE
  8
0
 62
     4
 10
452.915802
 20
40.181282
 11
455.915802
 21
40.181057
  0
LINE
  8
0
 62
     4
 10
455.915863
 20
40.181068
 11
455.915894
 21
40.666573
  0
LINE
  8
0
 62
     1
 10
455.669434
 20
87.816742
 11
455.669373
 21
87.331238
  0
LINE
  8
0
 62
     1
 10
455.665863
 20
40.181080
 11
455.665894
 21
40.666584
  0
LINE
  8
0
 62
     1
 10
453.169250
 20
85.331406
 11
453.169189
 21
84.316902
  0
LINE
  8
0
 62
     1
 10
453.165863
 20
40.181274
 11
453.165894
 21
40.666779
  0
LINE
  8
0
 62
     1
 10
455.666046
 20
42.666588
 11
455.666077
 21
42.953911
  0
LINE
  8
0
 62
     1
 10
453.166046
 20
42.666786
 11
453.166077
 21
42.954109
  0
LINE
  8
0
 62
     1
 10
453.169434
 20
87.816917
 11
453.169373
 21
87.331413
  0
LINE
  8
0
 62
     1
 10
455.669250
 20
85.331230
 11
455.669189
 21
84.316727
  0
LINE
  8
0
 10
432.416626
 20
99.500000
 11
432.416626
 21
28.500000
  0
LINE
  8
0
 10
432.416626
 20
20.500000
 11
432.416626
 21
13.500000
  0
LINE
  8
0
  6
CENTER
 62
     2
 10
233.750000
 20
-119.836761
 11
233.750000
 21
-188.666672
  0
LINE
  8
0
  6
CENTER
 62
     2
 10
350.292480
 20
-161.666672
 11
179.553589
 21
-161.666672
  0
LINE
  8
0
 10
255.749969
 20
-142.666672
 11
255.749969
 21
-180.666672
  0
LINE
  8
0
 10
211.750000
 20
-142.666672
 11
211.750000
 21
-180.666672
  0
LINE
  8
0
 10
252.749969
 20
-139.666672
 11
214.750000
 21
-139.666672
  0
LINE
  8
0
 10
252.749969
 20
-183.666672
 11
214.750000
 21
-183.666672
  0
LINE
  8
0
 10
229.997192
 20
-156.166656
 11
226.244400
 21
-149.666687
  0
LINE
  8
0
  6
CENTER
 62
     2
 10
242.250000
 20
-149.666672
 11
225.250000
 21
-149.666672
  0
LINE
  8
0
 10
226.244446
 20
-149.666672
 11
229.997208
 21
-143.166656
  0
LINE
  8
0
 10
229.997192
 20
-143.166672
 11
237.502747
 21
-143.166672
  0
LINE
  8
0
 10
237.502762
 20
-143.166626
 11
241.255569
 21
-149.666641
  0
LINE
  8
0
 10
241.255539
 20
-149.666656
 11
237.502792
 21
-156.166641
  0
LINE
  8
0
 10
237.502747
 20
-156.166672
 11
229.997192
 21
-156.166672
  0
LINE
  8
0
 10
255.449951
 20
-142.466675
 11
255.449951
 21
-180.866684
  0
LINE
  8
0
 10
212.049988
 20
-142.466675
 11
212.049988
 21
-180.866684
  0
LINE
  8
0
 10
252.949951
 20
-139.966660
 11
214.549988
 21
-139.966660
  0
LINE
  8
0
 10
252.949951
 20
-183.366684
 11
214.549988
 21
-183.366684
  0
LINE
  8
0
 10
245.249969
 20
-177.666672
 11
245.249969
 21
-183.366684
  0
LINE
  8
0
 10
222.250000
 20
-177.666672
 11
222.250000
 21
-183.366684
  0
LINE
  8
0
 10
217.750000
 20
-173.166672
 11
212.049988
 21
-173.166672
  0
LINE
  8
0
 10
255.449951
 20
-173.166672
 11
249.749969
 21
-173.166672
  0
LINE
  8
0
 10
245.249969
 20
-139.966675
 11
245.249969
 21
-145.666672
  0
LINE
  8
0
 10
255.449951
 20
-150.166672
 11
249.749969
 21
-150.166672
  0
LINE
  8
0
 10
222.250000
 20
-139.966675
 11
222.250000
 21
-145.666672
  0
LINE
  8
0
 10
217.750000
 20
-150.166672
 11
212.049988
 21
-150.166672
  0
LINE
  8
0
 62
     4
 10
182.750000
 20
-158.466675
 11
182.750000
 21
-164.866653
  0
LINE
  8
0
 62
     4
 10
203.750000
 20
-157.966660
 11
194.395325
 21
-157.966660
  0
LINE
  8
0
 62
     4
 10
203.750000
 20
-165.366653
 11
194.395325
 21
-165.366653
  0
LINE
  8
0
 62
     4
 10
182.750046
 20
-164.866547
 11
183.250046
 21
-165.366547
  0
LINE
  8
0
 62
     4
 10
182.750046
 20
-158.466629
 11
183.250031
 21
-157.966644
  0
LINE
  8
0
 62
     4
 10
183.250000
 20
-165.366653
 11
183.250000
 21
-163.186539
  0
LINE
  8
0
 62
     4
 10
200.750000
 20
-157.966675
 11
200.750000
 21
-160.146790
  0
LINE
  8
0
 62
     4
 10
202.750000
 20
-157.966675
 11
202.750000
 21
-160.146790
  0
LINE
  8
0
 62
     4
 10
202.750000
 20
-160.146774
 11
194.395325
 21
-160.146774
  0
LINE
  8
0
 62
     4
 10
202.750000
 20
-163.186539
 11
194.395325
 21
-163.186539
  0
LINE
  8
0
 62
     4
 10
183.250000
 20
-160.146790
 11
183.250000
 21
-157.966675
  0
LINE
  8
0
 62
     4
 10
183.249939
 20
-160.146790
 11
182.749924
 21
-160.646805
  0
LINE
  8
0
 62
     4
 10
183.250107
 20
-163.186462
 11
182.750092
 21
-162.686447
  0
LINE
  8
0
 62
     4
 10
202.750000
 20
-163.186539
 11
202.750000
 21
-165.366653
  0
LINE
  8
0
 62
     4
 10
200.750000
 20
-163.186539
 11
200.750000
 21
-165.366653
  0
LINE
  8
0
 62
     4
 10
202.749924
 20
-160.146835
 11
203.750015
 21
-158.414673
  0
LINE
  8
0
 62
     4
 10
202.749878
 20
-163.186615
 11
203.750015
 21
-164.918869
  0
LINE
  8
0
 62
     1
 10
200.750000
 20
-164.866653
 11
194.395325
 21
-164.866653
  0
LINE
  8
0
 62
     1
 10
200.750000
 20
-158.466660
 11
194.395325
 21
-158.466660
  0
LINE
  8
0
 62
     1
 10
200.750107
 20
-164.866501
 11
201.616135
 21
-165.366501
  0
LINE
  8
0
 62
     1
 10
200.749924
 20
-158.466644
 11
201.615936
 21
-157.966644
  0
LINE
  8
0
 62
     1
 10
189.395325
 20
-164.866653
 11
182.750000
 21
-164.866653
  0
LINE
  8
0
 62
     4
 10
189.395325
 20
-165.366653
 11
183.250000
 21
-165.366653
  0
LINE
  8
0
 62
     4
 10
189.395325
 20
-163.186539
 11
183.250000
 21
-163.186539
  0
LINE
  8
0
 62
     4
 10
189.395325
 20
-160.146774
 11
183.250000
 21
-160.146774
  0
LINE
  8
0
 62
     1
 10
189.395325
 20
-158.466660
 11
182.750000
 21
-158.466660
  0
LINE
  8
0
 62
     4
 10
189.395325
 20
-157.966660
 11
183.250000
 21
-157.966660
  0
LINE
  8
0
 62
     4
 10
194.395325
 20
-155.166672
 11
194.395325
 21
-161.666672
  0
LINE
  8
0
 62
     4
 10
193.814758
 20
-154.161087
 11
191.895325
 21
-154.161087
  0
LINE
  8
0
 62
     4
 10
194.395157
 20
-155.166718
 11
193.814590
 21
-154.161148
  0
LINE
  8
0
 62
     4
 10
189.395325
 20
-155.166672
 11
189.395325
 21
-161.666672
  0
LINE
  8
0
 62
     4
 10
189.975891
 20
-154.161087
 11
191.895325
 21
-154.161087
  0
LINE
  8
0
 62
     4
 10
189.395325
 20
-155.166672
 11
189.975891
 21
-154.161087
  0
LINE
  8
0
 62
     4
 10
194.395325
 20
-168.166672
 11
194.395325
 21
-161.666672
  0
LINE
  8
0
 62
     4
 10
193.814758
 20
-169.172256
 11
191.895325
 21
-169.172256
  0
LINE
  8
0
 62
     4
 10
194.395355
 20
-168.166687
 11
193.814774
 21
-169.172287
  0
LINE
  8
0
 62
     4
 10
189.395325
 20
-168.166672
 11
189.395325
 21
-161.666672
  0
LINE
  8
0
 62
     4
 10
189.975891
 20
-169.172256
 11
191.895325
 21
-169.172256
  0
LINE
  8
0
 62
     4
 10
189.395370
 20
-168.166641
 11
189.975937
 21
-169.172241
  0
LINE
  8
0
 62
     4
 10
193.814758
 20
-157.913895
 11
189.975891
 21
-157.913895
  0
LINE
  8
0
 62
     4
 10
193.814758
 20
-165.419449
 11
189.975891
 21
-165.419449
  0
LINE
  8
0
 10
340.749969
 20
-149.466675
 11
340.749969
 21
-173.866684
  0
LINE
  8
0
 10
331.749969
 20
-148.466675
 11
331.749969
 21
-174.866669
  0
LINE
  8
0
 10
268.749969
 20
-142.666672
 11
268.749969
 21
-180.666672
  0
LINE
  8
0
 10
268.749969
 20
-142.666672
 11
255.749969
 21
-142.666672
  0
LINE
  8
0
 10
268.749969
 20
-180.666672
 11
255.749969
 21
-180.666672
  0
LINE
  8
0
  6
CENTER
 62
     2
 10
262.249969
 20
-137.666672
 11
262.249969
 21
-151.987625
  0
LINE
  8
0
 10
339.749969
 20
-148.466660
 11
321.749969
 21
-148.466660
  0
LINE
  8
0
 10
339.749969
 20
-174.866684
 11
321.749969
 21
-174.866684
  0
LINE
  8
0
 10
339.749969
 20
-148.466690
 11
340.749969
 21
-149.466690
  0
LINE
  8
0
 10
339.749725
 20
-174.866455
 11
340.749725
 21
-173.866470
  0
LINE
  8
0
 10
339.749969
 20
-148.466675
 11
339.749969
 21
-152.502060
  0
LINE
  8
0
 10
339.749969
 20
-170.831284
 11
335.749969
 21
-170.831284
  0
LINE
  8
0
 10
339.749969
 20
-152.502060
 11
335.749969
 21
-152.502060
  0
LINE
  8
0
 10
340.750183
 20
-169.321213
 11
339.750183
 21
-170.831390
  0
LINE
  8
0
 10
340.749969
 20
-154.012253
 11
339.749969
 21
-152.502045
  0
LINE
  8
0
 10
339.749969
 20
-170.831284
 11
339.749969
 21
-174.866669
  0
LINE
  8
0
 10
335.749969
 20
-152.502060
 11
335.749969
 21
-170.831284
  0
LINE
  8
0
 10
216.335754
 20
-147.080933
 11
219.164185
 21
-144.252502
  0
LINE
  8
0
 10
216.335785
 20
-144.252487
 11
219.164215
 21
-147.080933
  0
LINE
  8
0
 10
251.164230
 20
-147.080872
 11
248.335800
 21
-144.252441
  0
LINE
  8
0
 10
251.164291
 20
-144.252548
 11
248.335861
 21
-147.080978
  0
LINE
  8
0
 10
216.335815
 20
-176.252380
 11
219.164246
 21
-179.080811
  0
LINE
  8
0
 10
216.335815
 20
-179.080948
 11
219.164230
 21
-176.252518
  0
LINE
  8
0
 10
251.164246
 20
-176.252441
 11
248.335815
 21
-179.080872
  0
LINE
  8
0
 10
251.164124
 20
-179.080978
 11
248.335693
 21
-176.252548
  0
LINE
  8
0
 10
211.750000
 20
-199.166672
 11
203.750000
 21
-199.166672
  0
LINE
  8
0
 10
211.750000
 20
-124.166672
 11
203.750000
 21
-124.166672
  0
LINE
  8
0
  6
CENTER
 62
     2
 10
214.083939
 20
-191.666672
 11
200.750000
 21
-191.666672
  0
LINE
  8
0
  6
CENTER
 62
     2
 10
214.083939
 20
-131.666672
 11
200.750000
 21
-131.666672
  0
LINE
  8
0
 10
211.750000
 20
-128.166672
 11
203.750000
 21
-128.166672
  0
LINE
  8
0
 10
211.750000
 20
-195.166672
 11
203.750000
 21
-195.166672
  0
LINE
  8
0
 10
203.750000
 20
-124.166672
 11
203.750000
 21
-199.166672
  0
LINE
  8
0
 10
211.750000
 20
-124.166672
 11
211.750000
 21
-199.166672
  0
LINE
  8
0
 62
     4
 10
230.949966
 20
-139.166672
 11
230.949966
 21
-133.666672
  0
LINE
  8
0
 62
     4
 10
255.749969
 20
-140.666672
 11
255.749969
 21
-137.666672
  0
LINE
  8
0
 62
     4
 10
247.749969
 20
-133.666672
 11
230.949966
 21
-133.666672
  0
LINE
  8
0
 62
     4
 10
255.749969
 20
-140.666672
 11
254.986038
 21
-140.666672
  0
LINE
  8
0
 62
     4
 10
255.749924
 20
-137.666672
 11
247.749924
 21
-133.666672
  0
LINE
  8
0
 62
     4
 10
242.749969
 20
-139.166672
 11
235.749969
 21
-139.166672
  0
LINE
  8
0
 62
     4
 10
242.749969
 20
-139.666672
 11
242.749969
 21
-139.166672
  0
LINE
  8
0
 62
     4
 10
239.949966
 20
-132.694855
 11
239.949966
 21
-133.666672
  0
LINE
  8
0
 62
     4
 10
245.549973
 20
-132.694855
 11
245.549973
 21
-133.666672
  0
LINE
  8
0
 62
     4
 10
235.749969
 20
-139.166672
 11
235.749969
 21
-135.666672
  0
LINE
  8
0
 62
     4
 10
231.749969
 20
-139.166672
 11
231.749969
 21
-135.666672
  0
LINE
  8
0
 62
     4
 10
235.749969
 20
-135.666672
 11
231.749969
 21
-135.666672
  0
LINE
  8
0
 62
     4
 10
231.749969
 20
-139.166672
 11
230.949966
 21
-139.166672
  0
LINE
  8
0
 62
     4
 10
231.749969
 20
-135.666672
 11
235.749969
 21
-135.666672
  0
LINE
  8
0
 62
     4
 10
231.749969
 20
-135.666672
 11
231.749969
 21
-139.666687
  0
LINE
  8
0
 62
     4
 10
235.749969
 20
-135.666672
 11
235.749969
 21
-139.666687
  0
LINE
  8
0
 62
     4
 10
241.249969
 20
-139.666672
 11
241.249969
 21
-139.166672
  0
LINE
  8
0
 62
     4
 10
289.749969
 20
-148.316879
 11
289.749969
 21
-175.016464
  0
LINE
  8
0
 62
     4
 10
297.749969
 20
-148.316879
 11
297.749969
 21
-175.016464
  0
LINE
  8
0
 62
     4
 10
297.749969
 20
-148.316879
 11
289.749969
 21
-148.316879
  0
LINE
  8
0
 62
     4
 10
297.749969
 20
-175.016464
 11
289.749969
 21
-175.016464
  0
LINE
  8
0
 62
     4
 10
304.749969
 20
-159.966690
 11
299.749969
 21
-159.966690
  0
LINE
  8
0
 62
     4
 10
304.749969
 20
-163.366684
 11
299.749969
 21
-163.366684
  0
LINE
  8
0
 62
     4
 10
306.749939
 20
-159.166687
 11
304.749939
 21
-159.166687
  0
LINE
  8
0
 62
     4
 10
306.749939
 20
-164.166672
 11
304.749939
 21
-164.166672
  0
LINE
  8
0
 62
     4
 10
304.749969
 20
-159.166656
 11
304.749969
 21
-164.166672
  0
LINE
  8
0
 62
     4
 10
322.249939
 20
-156.666687
 11
313.249939
 21
-156.666687
  0
LINE
  8
0
 62
     4
 10
322.749939
 20
-166.666672
 11
319.999939
 21
-166.666672
  0
LINE
  8
0
 62
     4
 10
328.749939
 20
-158.166687
 11
322.749939
 21
-158.166687
  0
LINE
  8
0
 62
     4
 10
328.749939
 20
-165.166672
 11
322.749939
 21
-165.166672
  0
LINE
  8
0
 62
     4
 10
322.749969
 20
-157.166656
 11
322.749969
 21
-165.166672
  0
LINE
  8
0
 62
     4
 10
328.749969
 20
-158.166656
 11
328.749969
 21
-165.166672
  0
LINE
  8
0
 62
     4
 10
312.749969
 20
-157.166656
 11
312.749969
 21
-165.166672
  0
LINE
  8
0
 62
     4
 10
306.749969
 20
-158.166656
 11
306.749969
 21
-165.166672
  0
LINE
  8
0
 62
     4
 10
319.749969
 20
-167.032700
 11
319.749969
 21
-167.966660
  0
LINE
  8
0
 62
     4
 10
315.749969
 20
-167.032700
 11
315.749969
 21
-167.966660
  0
LINE
  8
0
 62
     4
 10
322.249939
 20
-165.666672
 11
321.115967
 21
-165.666672
  0
LINE
  8
0
 62
     4
 10
319.749939
 20
-167.966690
 11
315.749939
 21
-167.966690
  0
LINE
  8
0
 62
     4
 10
314.383911
 20
-165.666672
 11
313.249939
 21
-165.666672
  0
LINE
  8
0
 62
     4
 10
322.749969
 20
-165.166672
 11
322.749969
 21
-166.666672
  0
LINE
  8
0
 62
     4
 10
312.749969
 20
-165.166672
 11
312.749969
 21
-166.666672
  0
LINE
  8
0
 62
     4
 10
315.499939
 20
-166.666672
 11
312.749939
 21
-166.666672
  0
LINE
  8
0
 62
     4
 10
312.749939
 20
-158.166687
 11
306.749939
 21
-158.166687
  0
LINE
  8
0
 62
     4
 10
312.749939
 20
-165.166672
 11
306.749939
 21
-165.166672
  0
LINE
  8
0
 62
     4
 10
315.499969
 20
-166.666672
 11
315.499969
 21
-165.198410
  0
LINE
  8
0
 62
     4
 10
319.999969
 20
-166.666672
 11
319.999969
 21
-165.198410
  0
LINE
  8
0
 62
     4
 10
321.749969
 20
-148.316681
 11
313.749969
 21
-148.316681
  0
LINE
  8
0
 62
     4
 10
321.749969
 20
-148.316681
 11
321.749969
 21
-156.666656
  0
LINE
  8
0
 62
     4
 10
313.749969
 20
-148.316681
 11
313.749969
 21
-156.666656
  0
LINE
  8
0
 62
     4
 10
321.749969
 20
-175.016678
 11
313.749969
 21
-175.016678
  0
LINE
  8
0
 62
     4
 10
321.749969
 20
-166.666672
 11
321.749969
 21
-175.016663
  0
LINE
  8
0
 62
     4
 10
313.749969
 20
-166.666672
 11
313.749969
 21
-175.016663
  0
LINE
  8
0
 62
     4
 10
318.669159
 20
-162.585907
 11
316.830719
 21
-160.747452
  0
LINE
  8
0
 62
     4
 10
318.669220
 20
-160.747437
 11
316.830750
 21
-162.585922
  0
LINE
  8
0
 62
     1
 10
241.520462
 20
-139.666672
 11
241.520462
 21
-139.166672
  0
LINE
  8
0
 10
289.749969
 20
-148.466660
 11
268.749969
 21
-148.466660
  0
LINE
  8
0
 10
289.749969
 20
-174.866684
 11
268.749969
 21
-174.866684
  0
LINE
  8
0
 10
313.749969
 20
-174.866684
 11
297.749969
 21
-174.866684
  0
LINE
  8
0
 10
313.749969
 20
-148.466660
 11
297.749969
 21
-148.466660
  0
LINE
  8
0
 62
     4
 10
158.283386
 20
-301.374512
 11
150.883423
 21
-301.374512
  0
LINE
  8
0
 62
     4
 10
158.283386
 20
-308.774536
 11
150.883423
 21
-308.774536
  0
LINE
  8
0
 62
     4
 10
158.283386
 20
-301.374512
 11
158.283386
 21
-308.774536
  0
LINE
  8
0
 62
     4
 10
150.883423
 20
-301.374512
 11
150.883423
 21
-308.774536
  0
LINE
  8
0
  6
CENTER
 62
     1
 10
154.583374
 20
-299.074524
 11
154.583374
 21
-311.074524
  0
LINE
  8
0
  6
CENTER
 62
     1
 10
160.583374
 20
-305.074524
 11
148.583374
 21
-305.074524
  0
LINE
  8
0
 62
     4
 10
305.783386
 20
-301.374359
 11
304.583466
 21
-303.554474
  0
LINE
  8
0
 62
     4
 10
304.583374
 20
-306.594086
 11
287.083374
 21
-306.594086
  0
LINE
  8
0
 62
     4
 10
307.583374
 20
-308.774200
 11
287.083374
 21
-308.774200
  0
LINE
  8
0
 62
     4
 10
304.583374
 20
-303.554321
 11
287.083374
 21
-303.554321
  0
LINE
  8
0
 62
     4
 10
307.583374
 20
-301.374176
 11
287.083374
 21
-301.374176
  0
LINE
  8
0
 62
     4
 10
286.583374
 20
-301.874207
 11
286.583374
 21
-308.274200
  0
LINE
  8
0
 62
     4
 10
286.583496
 20
-308.273987
 11
287.083496
 21
-308.773987
  0
LINE
  8
0
 62
     4
 10
286.583496
 20
-301.874054
 11
287.083496
 21
-301.374054
  0
LINE
  8
0
 62
     4
 10
287.083374
 20
-308.774200
 11
287.083374
 21
-306.594055
  0
LINE
  8
0
 62
     4
 10
287.083374
 20
-303.554321
 11
287.083374
 21
-301.374207
  0
LINE
  8
0
 62
     4
 10
287.083405
 20
-303.554291
 11
286.583405
 21
-304.054260
  0
LINE
  8
0
 62
     4
 10
287.083496
 20
-306.593811
 11
286.583466
 21
-306.093781
  0
LINE
  8
0
 62
     4
 10
304.583374
 20
-301.374207
 11
304.583374
 21
-303.554321
  0
LINE
  8
0
 62
     4
 10
304.583374
 20
-306.594055
 11
304.583374
 21
-308.774200
  0
LINE
  8
0
 62
     4
 10
305.783203
 20
-308.774323
 11
304.583191
 21
-306.594177
  0
LINE
  8
0
  6
CENTER
 62
     1
 10
281.961670
 20
-305.074188
 11
321.081757
 21
-305.074188
  0
ARC
  8
0
 10
-335.015625
 20
121.000000
 40
0.500011
 50
5.000035
 51
90.000000
  0
ARC
  8
0
 10
-376.484436
 20
121.000000
 40
0.500000
 50
90.000000
 51
174.999969
  0
ARC
  8
0
 10
-345.254578
 20
121.000000
 40
0.500011
 50
5.000035
 51
90.000000
  0
ARC
  8
0
 10
-366.245483
 20
121.000000
 40
0.500000
 50
90.000000
 51
174.999969
  0
ARC
  8
0
 10
-343.953308
 20
117.600006
 40
0.500011
 50
185.000031
 51
270.000000
  0
ARC
  8
0
 10
-367.546753
 20
117.600006
 40
0.500000
 50
270.000000
 51
354.999969
  0
ARC
  8
0
 10
-371.750000
 20
117.044220
 40
3.655770
 50
16.785875
 51
163.214127
  0
ARC
  8
0
 10
-339.750031
 20
117.044220
 40
3.655770
 50
16.785875
 51
163.214127
  0
ARC
  8
0
 10
-367.546753
 20
10.400002
 40
0.500011
 50
5.000035
 51
90.000000
  0
ARC
  8
0
 10
-343.953308
 20
10.400002
 40
0.500000
 50
90.000000
 51
175.000076
  0
ARC
  8
0
 10
-339.750031
 20
10.955772
 40
3.655770
 50
196.785904
 51
343.214172
  0
ARC
  8
0
 10
-371.750000
 20
10.955772
 40
3.655770
 50
196.785904
 51
343.214172
  0
ARC
  8
0
 10
-335.015625
 20
7.000000
 40
0.500000
 50
270.000000
 51
355.000122
  0
ARC
  8
0
 10
-376.484436
 20
7.000000
 40
0.500011
 50
185.000137
 51
270.000000
  0
ARC
  8
0
 10
-345.254578
 20
7.000000
 40
0.500000
 50
270.000000
 51
354.999969
  0
ARC
  8
0
 10
-366.245483
 20
7.000000
 40
0.500011
 50
184.999985
 51
270.000000
  0
ARC
  8
0
 10
-349.750000
 20
121.500000
 40
2.000000
 50
0.000000
 51
90.000000
  0
ARC
  8
0
 10
-361.750000
 20
121.500000
 40
2.000000
 50
90.000000
 51
180.000000
  0
CIRCLE
  8
0
 10
-369.750000
 20
85.000000
 40
3.300000
  0
CIRCLE
  8
0
 10
-369.750000
 20
43.000000
 40
3.300000
  0
CIRCLE
  8
0
 10
-369.750000
 20
43.000000
 40
5.500000
  0
CIRCLE
  8
0
 10
-369.750000
 20
85.000000
 40
5.500000
  0
ARC
  8
0
 10
-350.120850
 20
126.822556
 40
3.322548
 50
235.615814
 51
304.384186
  0
ARC
  8
0
 10
-355.750000
 20
135.919403
 40
12.419395
 50
270.000000
 51
287.588013
  0
ARC
  8
0
 10
-355.750000
 20
116.080597
 40
12.419395
 50
72.411972
 51
90.000000
  0
ARC
  8
0
 10
-350.120850
 20
125.177444
 40
3.322548
 50
55.615810
 51
124.384193
  0
ARC
  8
0
 10
-355.750000
 20
135.919403
 40
12.419395
 50
252.411972
 51
270.000000
  0
ARC
  8
0
 10
-355.750000
 20
116.080597
 40
12.419403
 50
90.000000
 51
107.588028
  0
ARC
  8
0
 10
-361.379211
 20
125.177444
 40
3.322565
 50
55.615376
 51
124.384193
  0
ARC
  8
0
 10
-361.379211
 20
126.822556
 40
3.322548
 50
235.615814
 51
304.384186
  0
ARC
  8
0
 10
-361.379211
 20
2.822556
 40
3.322548
 50
235.615814
 51
304.384644
  0
ARC
  8
0
 10
-361.379211
 20
1.177444
 40
3.322547
 50
55.615807
 51
124.384201
  0
ARC
  8
0
 10
-349.750000
 20
6.500000
 40
2.000000
 50
270.000000
 51
0.000000
  0
ARC
  8
0
 10
-361.750000
 20
6.500000
 40
2.000000
 50
180.000046
 51
270.000000
  0
ARC
  8
0
 10
-350.120850
 20
1.177444
 40
3.322547
 50
55.615807
 51
124.384201
  0
ARC
  8
0
 10
-355.750000
 20
-7.919395
 40
12.419395
 50
72.411972
 51
90.000000
  0
ARC
  8
0
 10
-355.750000
 20
11.919395
 40
12.419395
 50
270.000000
 51
287.588013
  0
ARC
  8
0
 10
-350.120850
 20
2.822556
 40
3.322547
 50
235.615799
 51
304.384186
  0
ARC
  8
0
 10
-355.750000
 20
-7.919395
 40
12.419395
 50
90.000000
 51
107.588028
  0
ARC
  8
0
 10
-355.750000
 20
11.919395
 40
12.419398
 50
252.411972
 51
270.000000
  0
CIRCLE
  8
0
 62
     2
 10
-327.250031
 20
64.000000
 40
5.000000
  0
CIRCLE
  8
0
 10
-327.250031
 20
64.000000
 40
4.250000
  0
ARC
  8
0
 62
     4
 10
-404.491699
 20
60.750000
 40
9.386992
 50
339.743530
 51
20.256514
  0
ARC
  8
0
 62
     4
 10
-390.717651
 20
60.750000
 40
9.386994
 50
159.743484
 51
200.256470
  0
ARC
  8
0
 62
     4
 10
-404.491699
 20
67.250000
 40
9.386994
 50
339.743500
 51
20.256470
  0
ARC
  8
0
 62
     4
 10
-390.717651
 20
67.250000
 40
9.386994
 50
159.743484
 51
200.256470
  0
ARC
  8
0
 62
     4
 10
-267.250031
 20
46.166458
 40
0.500000
 50
0.000000
 51
90.000000
  0
ARC
  8
0
 62
     4
 10
-276.250031
 20
46.166458
 40
0.500000
 50
90.000000
 51
180.000000
  0
ARC
  8
0
 62
     4
 10
-269.950012
 20
37.480957
 40
0.799999
 50
270.000000
 51
0.000000
  0
ARC
  8
0
 62
     4
 10
-290.276794
 20
46.630959
 40
1.000005
 50
301.788940
 51
58.211052
  0
ARC
  8
0
 62
     4
 10
-289.223267
 20
46.630959
 40
1.000005
 50
121.788948
 51
238.211044
  0
ARC
  8
0
 62
     4
 10
-289.223267
 20
48.330956
 40
1.000005
 50
121.788948
 51
238.211044
  0
ARC
  8
0
 62
     4
 10
-264.250031
 20
45.680954
 40
3.000006
 50
229.262329
 51
310.737671
  0
ARC
  8
0
 62
     4
 10
-356.500031
 20
42.812500
 40
0.812500
 50
202.619858
 51
337.380127
  0
ARC
  8
0
 62
     4
 10
-355.000031
 20
42.187500
 40
0.812500
 50
22.619865
 51
157.380142
  0
ARC
  8
0
 62
     4
 10
-356.500031
 20
42.187500
 40
0.812500
 50
22.619865
 51
157.380142
  0
CIRCLE
  8
0
 62
     4
 10
-346.750031
 20
24.500000
 40
2.800000
  0
ARC
  8
0
 62
     4
 10
-356.500031
 20
85.187500
 40
0.812500
 50
22.619865
 51
157.380142
  0
ARC
  8
0
 62
     4
 10
-355.000031
 20
85.812500
 40
0.812500
 50
202.619858
 51
337.380127
  0
ARC
  8
0
 62
     4
 10
-356.500031
 20
85.812500
 40
0.812500
 50
202.619858
 51
337.380127
  0
CIRCLE
  8
0
 62
     4
 10
-346.750031
 20
103.500000
 40
2.800000
  0
ARC
  8
0
 62
     4
 10
-273.550018
 20
37.480957
 40
0.799988
 50
180.000000
 51
270.000000
  0
ARC
  8
0
 62
     4
 10
-297.550049
 20
90.519043
 40
0.800003
 50
90.000000
 51
180.000000
  0
ARC
  8
0
 62
     4
 10
-278.276794
 20
79.669044
 40
1.000005
 50
301.788940
 51
58.211052
  0
ARC
  8
0
 62
     4
 10
-278.276794
 20
81.369041
 40
1.000005
 50
301.788940
 51
58.211052
  0
ARC
  8
0
 62
     4
 10
-277.223267
 20
81.369041
 40
1.000005
 50
121.788948
 51
238.211044
  0
ARC
  8
0
 62
     4
 10
-294.300018
 20
86.119041
 40
0.999995
 50
303.366364
 51
36.870247
  0
ARC
  8
0
 62
     4
 10
-297.200012
 20
86.119041
 40
0.999989
 50
143.129745
 51
236.633636
  0
ARC
  8
0
 62
     4
 10
-291.250031
 20
81.833542
 40
0.500000
 50
270.000000
 51
0.000000
  0
ARC
  8
0
 62
     4
 10
-300.250031
 20
81.833542
 40
0.500000
 50
180.000000
 51
270.000000
  0
ARC
  8
0
 62
     4
 10
-303.250031
 20
82.319046
 40
3.000009
 50
49.262375
 51
130.737625
  0
ARC
  8
0
 62
     4
 10
-293.950043
 20
90.519043
 40
0.799988
 50
0.000000
 51
90.000000
  0
CIRCLE
  8
0
 62
     2
 10
-488.916626
 20
51.500000
 40
2.500000
  0
CIRCLE
  8
0
 62
     2
 10
-513.916626
 20
51.500000
 40
2.500000
  0
CIRCLE
  8
0
 62
     2
 10
-513.916626
 20
76.500000
 40
2.500000
  0
CIRCLE
  8
0
 62
     2
 10
-488.916626
 20
76.500000
 40
2.500000
  0
CIRCLE
  8
0
 10
-488.916626
 20
76.500000
 40
2.000000
  0
CIRCLE
  8
0
 10
-513.916626
 20
76.500000
 40
2.000000
  0
CIRCLE
  8
0
 10
-513.916626
 20
51.500000
 40
2.000000
  0
CIRCLE
  8
0
 10
-488.916626
 20
51.500000
 40
2.000000
  0
CIRCLE
  8
0
 10
-501.416626
 20
64.000000
 40
14.000000
  0
ARC
  8
0
 10
-483.416626
 20
121.500000
 40
2.000000
 50
0.000000
 51
90.000000
  0
ARC
  8
0
 10
-495.416626
 20
121.500000
 40
2.000000
 50
90.000000
 51
180.000000
  0
ARC
  8
0
 10
-495.416626
 20
6.500000
 40
2.000000
 50
180.000046
 51
270.000000
  0
ARC
  8
0
 10
-483.416626
 20
6.500000
 40
2.000000
 50
270.000000
 51
0.000000
  0
CIRCLE
  8
0
 10
-501.416626
 20
64.000000
 40
10.000000
  0
CIRCLE
  8
0
 10
-501.416626
 20
64.000000
 40
9.300000
  0
ARC
  8
0
 62
     4
 10
-501.416626
 20
64.000000
 40
4.000004
 50
112.331604
 51
157.668076
  0
CIRCLE
  8
0
 62
     1
 10
-501.416626
 20
64.000000
 40
3.500000
  0
ARC
  8
0
 62
     4
 10
-501.416626
 20
64.000000
 40
4.000014
 50
202.331665
 51
247.668381
  0
ARC
  8
0
 62
     4
 10
-501.416626
 20
64.000000
 40
4.000000
 50
292.331635
 51
337.668335
  0
ARC
  8
0
 62
     4
 10
-501.416626
 20
64.000000
 40
4.000014
 50
22.331659
 51
67.668358
  0
ARC
  8
0
 10
-517.416626
 20
117.044220
 40
3.655770
 50
16.785875
 51
163.214127
  0
ARC
  8
0
 10
-485.416626
 20
117.044220
 40
3.655770
 50
16.785875
 51
163.214127
  0
ARC
  8
0
 10
-511.912109
 20
121.000000
 40
0.500000
 50
90.000000
 51
174.999969
  0
ARC
  8
0
 10
-489.619934
 20
117.600006
 40
0.500011
 50
185.000031
 51
270.000000
  0
ARC
  8
0
 10
-517.416626
 20
10.955772
 40
3.655770
 50
196.785904
 51
343.214172
  0
ARC
  8
0
 10
-522.151062
 20
121.000000
 40
0.500000
 50
90.000000
 51
174.999969
  0
ARC
  8
0
 10
-480.682251
 20
121.000000
 40
0.500011
 50
5.000035
 51
90.000000
  0
ARC
  8
0
 10
-513.213379
 20
117.600006
 40
0.500000
 50
270.000000
 51
354.999969
  0
ARC
  8
0
 10
-490.921204
 20
121.000000
 40
0.500011
 50
5.000035
 51
90.000000
  0
ARC
  8
0
 10
-485.416626
 20
10.955772
 40
3.655770
 50
196.785904
 51
343.214172
  0
ARC
  8
0
 10
-486.166626
 20
-4.887115
 40
9.387115
 50
69.743759
 51
110.256233
  0
ARC
  8
0
 10
-486.166626
 20
8.887119
 40
9.387120
 50
249.743774
 51
290.256256
  0
ARC
  8
0
 10
-492.666626
 20
-4.887115
 40
9.387115
 50
69.743759
 51
110.256226
  0
ARC
  8
0
 10
-492.666626
 20
8.887119
 40
9.387122
 50
249.743576
 51
290.256042
  0
ARC
  8
0
 10
-486.166626
 20
119.112885
 40
9.387115
 50
69.743759
 51
110.256226
  0
ARC
  8
0
 10
-486.166626
 20
132.887115
 40
9.387123
 50
249.743774
 51
290.256226
  0
ARC
  8
0
 10
-492.666626
 20
132.887115
 40
9.387123
 50
249.743774
 51
290.256226
  0
ARC
  8
0
 10
-492.666626
 20
119.112885
 40
9.387113
 50
69.743950
 51
110.256432
  0
CIRCLE
  8
0
 62
     4
 10
-501.416626
 20
64.000000
 40
6.500000
  0
ARC
  8
0
 10
-513.213501
 20
10.400002
 40
0.500011
 50
5.000471
 51
90.000000
  0
ARC
  8
0
 10
-511.912201
 20
7.000000
 40
0.499980
 50
185.000671
 51
270.000000
  0
ARC
  8
0
 10
-522.151001
 20
7.000000
 40
0.500011
 50
185.000092
 51
270.000000
  0
ARC
  8
0
 10
-480.682220
 20
7.000000
 40
0.500000
 50
270.000000
 51
354.999908
  0
ARC
  8
0
 10
-489.619843
 20
10.400002
 40
0.500000
 50
90.000000
 51
175.000839
  0
ARC
  8
0
 10
-490.921082
 20
7.000000
 40
0.500000
 50
270.000000
 51
355.000793
  0
ARC
  8
0
 62
     4
 10
-476.666626
 20
42.187500
 40
0.812500
 50
22.619865
 51
157.380142
  0
ARC
  8
0
 62
     4
 10
-478.166626
 20
42.187500
 40
0.812500
 50
22.619865
 51
157.380142
  0
ARC
  8
0
 62
     4
 10
-472.444794
 20
26.633331
 40
0.666675
 50
29.491766
 51
90.000000
  0
ARC
  8
0
 62
     4
 10
-472.444794
 20
22.366669
 40
0.666666
 50
270.000000
 51
330.508087
  0
ARC
  8
0
 62
     4
 10
-476.216614
 20
24.500000
 40
5.000007
 50
330.507629
 51
29.492264
  0
ARC
  8
0
 62
     4
 10
-478.166626
 20
85.187500
 40
0.812500
 50
22.619865
 51
157.380142
  0
ARC
  8
0
 62
     4
 10
-476.666626
 20
85.812500
 40
0.812500
 50
202.619858
 51
337.380127
  0
ARC
  8
0
 62
     4
 10
-478.166626
 20
85.812500
 40
0.812500
 50
202.619858
 51
337.380127
  0
ARC
  8
0
 62
     4
 10
-472.444794
 20
101.366661
 40
0.666664
 50
270.000000
 51
330.508362
  0
ARC
  8
0
 62
     4
 10
-472.444794
 20
105.633331
 40
0.666674
 50
29.491623
 51
90.000000
  0
ARC
  8
0
 62
     4
 10
-476.216614
 20
103.500000
 40
5.000002
 50
330.507721
 51
29.492359
  0
ARC
  8
0
 62
     4
 10
-478.166626
 20
42.812500
 40
0.812500
 50
202.619858
 51
337.380127
  0
CIRCLE
  8
0
 62
     2
 10
-123.083374
 20
108.000000
 40
5.000000
  0
CIRCLE
  8
0
 62
     2
 10
-123.083374
 20
20.000000
 40
5.000000
  0
CIRCLE
  8
0
 10
-123.083374
 20
20.000000
 40
4.250000
  0
CIRCLE
  8
0
 10
-123.083374
 20
108.000000
 40
4.250000
  0
ARC
  8
0
 10
-133.083374
 20
6.500000
 40
2.000000
 50
179.999954
 51
270.000000
  0
ARC
  8
0
 10
-99.083374
 20
10.955772
 40
3.655768
 50
196.785797
 51
343.214081
  0
ARC
  8
0
 10
-121.083374
 20
6.500000
 40
2.000000
 50
270.000000
 51
359.999939
  0
ARC
  8
0
 10
-131.083374
 20
10.955772
 40
3.655768
 50
196.785797
 51
343.214081
  0
ARC
  8
0
 10
-121.083374
 20
121.500000
 40
2.000000
 50
0.000000
 51
90.000000
  0
ARC
  8
0
 10
-131.083374
 20
117.044220
 40
3.655770
 50
16.785875
 51
163.214127
  0
ARC
  8
0
 10
-99.083374
 20
117.044220
 40
3.655770
 50
16.785875
 51
163.214127
  0
ARC
  8
0
 10
-133.083374
 20
121.500000
 40
2.000000
 50
90.000000
 51
180.000000
  0
ARC
  8
0
 10
-115.083374
 20
64.000000
 40
22.499998
 50
32.387497
 51
77.153481
  0
ARC
  8
0
 10
-115.083374
 20
64.000000
 40
22.499998
 50
212.387527
 51
257.158752
  0
CIRCLE
  8
0
 62
     2
 10
-115.083374
 20
64.000000
 40
5.000000
  0
CIRCLE
  8
0
 10
-115.083374
 20
64.000000
 40
4.250000
  0
CIRCLE
  8
0
 10
-102.583374
 20
76.500000
 40
3.500000
  0
CIRCLE
  8
0
 10
-102.583374
 20
51.500000
 40
3.500000
  0
CIRCLE
  8
0
 10
-127.583374
 20
51.500000
 40
3.500000
  0
CIRCLE
  8
0
 10
-127.583374
 20
76.500000
 40
3.500000
  0
CIRCLE
  8
0
 10
-102.583374
 20
51.500000
 40
3.000000
  0
CIRCLE
  8
0
 10
-127.583374
 20
51.500000
 40
3.000000
  0
CIRCLE
  8
0
 10
-127.583374
 20
76.500000
 40
3.000000
  0
CIRCLE
  8
0
 10
-102.583374
 20
76.500000
 40
3.000000
  0
ARC
  8
0
 10
-123.833374
 20
119.112885
 40
9.387118
 50
69.743713
 51
110.256180
  0
ARC
  8
0
 10
-130.333374
 20
119.112885
 40
9.387117
 50
69.743866
 51
110.256340
  0
ARC
  8
0
 10
-130.333374
 20
132.887115
 40
9.387123
 50
249.743774
 51
290.256287
  0
ARC
  8
0
 10
-123.833374
 20
132.887115
 40
9.387120
 50
249.743820
 51
290.256287
  0
ARC
  8
0
 10
-123.833374
 20
-4.887115
 40
9.387118
 50
69.743713
 51
110.256187
  0
ARC
  8
0
 10
-130.333374
 20
-4.887115
 40
9.387117
 50
69.743713
 51
110.256226
  0
ARC
  8
0
 10
-123.833374
 20
8.887119
 40
9.387118
 50
249.743820
 51
290.256287
  0
ARC
  8
0
 10
-130.333374
 20
8.887119
 40
9.387117
 50
249.743668
 51
290.256134
  0
ARC
  8
0
 10
-115.083374
 20
64.000000
 40
12.199999
 50
308.859314
 51
51.140652
  0
ARC
  8
0
 10
-115.083374
 20
64.000000
 40
12.199997
 50
179.999969
 51
231.140656
  0
ARC
  8
0
 10
-115.083374
 20
64.000000
 40
12.199997
 50
128.859268
 51
179.999969
  0
CIRCLE
  8
0
 10
-115.083374
 20
64.000000
 40
13.200000
  0
ARC
  8
0
 10
-135.817871
 20
121.000000
 40
0.500000
 50
90.000000
 51
174.999817
  0
ARC
  8
0
 10
-126.880142
 20
117.600006
 40
0.500000
 50
270.000000
 51
354.999878
  0
ARC
  8
0
 10
-103.286606
 20
117.600006
 40
0.500003
 50
185.000107
 51
270.000000
  0
ARC
  8
0
 10
-104.587875
 20
121.000000
 40
0.500003
 50
5.000111
 51
90.000000
  0
ARC
  8
0
 10
-125.578903
 20
121.000000
 40
0.500000
 50
90.000000
 51
174.999893
  0
ARC
  8
0
 10
-94.349075
 20
121.000000
 40
0.500003
 50
5.000111
 51
90.000000
  0
ARC
  8
0
 10
-135.817902
 20
7.000000
 40
0.499995
 50
184.999802
 51
270.000000
  0
ARC
  8
0
 10
-94.349075
 20
7.000000
 40
0.500000
 50
270.000000
 51
354.999847
  0
ARC
  8
0
 10
-103.286591
 20
10.400002
 40
0.500000
 50
90.000000
 51
175.000000
  0
ARC
  8
0
 10
-126.880203
 20
10.400002
 40
0.500003
 50
5.000438
 51
90.000000
  0
ARC
  8
0
 10
-125.578888
 20
7.000000
 40
0.500003
 50
185.000595
 51
270.000000
  0
ARC
  8
0
 10
-104.587875
 20
7.000000
 40
0.500000
 50
270.000000
 51
354.999847
  0
ARC
  8
0
 62
     4
 10
-119.081093
 20
81.331635
 40
0.149997
 50
330.044373
 51
359.997101
  0
ARC
  8
0
 62
     4
 10
-119.080025
 20
81.331894
 40
0.150002
 50
324.357635
 51
359.991272
  0
ARC
  8
0
 62
     4
 10
-111.083656
 20
46.666382
 40
0.150002
 50
124.037613
 51
179.995636
  0
ARC
  8
0
 62
     4
 10
-116.884354
 20
37.481316
 40
0.800003
 50
179.995636
 51
269.995636
  0
ARC
  8
0
 62
     4
 10
-111.081093
 20
81.331039
 40
0.150002
 50
179.994171
 51
221.746552
  0
ARC
  8
0
 62
     4
 10
-119.081093
 20
81.331635
 40
0.150005
 50
318.243042
 51
359.994171
  0
ARC
  8
0
 62
     4
 10
-113.284348
 20
37.481041
 40
0.799999
 50
269.995636
 51
359.995636
  0
ARC
  8
0
 62
     4
 10
-111.081093
 20
81.331039
 40
0.150002
 50
179.994171
 51
226.558075
  0
ARC
  8
0
 62
     4
 10
-119.081093
 20
81.331635
 40
0.149999
 50
313.433685
 51
359.994171
  0
ARC
  8
0
 62
     4
 10
-111.081078
 20
81.331039
 40
0.150002
 50
179.994171
 51
231.521790
  0
ARC
  8
0
 62
     4
 10
-119.081078
 20
81.331635
 40
0.149999
 50
308.470032
 51
359.994171
  0
ARC
  8
0
 62
     4
 10
-111.081062
 20
81.331024
 40
0.150002
 50
179.994171
 51
235.952698
  0
ARC
  8
0
 62
     4
 10
-119.081062
 20
81.331619
 40
0.149998
 50
304.038422
 51
359.994171
  0
ARC
  8
0
 62
     4
 10
-113.280380
 20
90.516685
 40
0.800003
 50
359.995636
 51
89.995628
  0
ARC
  8
0
 62
     4
 10
-116.880386
 20
90.516960
 40
0.800003
 50
89.995628
 51
179.995636
  0
ARC
  8
0
 62
     4
 10
-115.081726
 20
72.516823
 40
4.999999
 50
64.153671
 51
115.837570
  0
ARC
  8
0
 62
     4
 10
-111.280701
 20
86.131042
 40
1.199997
 50
359.995636
 51
89.995628
  0
ARC
  8
0
 62
     4
 10
-119.880707
 20
86.131683
 40
1.199997
 50
99.589882
 51
179.995636
  0
ARC
  8
0
 62
     4
 10
-117.680756
 20
85.531517
 40
0.800003
 50
359.995636
 51
89.995628
  0
ARC
  8
0
 62
     4
 10
-112.480743
 20
85.531120
 40
0.800003
 50
89.995628
 51
179.995636
  0
ARC
  8
0
 62
     4
 10
-111.580727
 20
85.831055
 40
0.500000
 50
359.995636
 51
89.995628
  0
ARC
  8
0
 62
     4
 10
-118.880630
 20
87.131607
 40
1.199997
 50
89.995628
 51
179.995636
  0
ARC
  8
0
 62
     4
 10
-118.580650
 20
86.831589
 40
0.500000
 50
89.995628
 51
179.995636
  0
ARC
  8
0
 62
     4
 10
-115.082352
 20
64.000008
 40
13.349999
 50
324.363586
 51
215.636292
  0
ARC
  8
0
 62
     4
 10
-119.083626
 20
46.666962
 40
0.150002
 50
359.995636
 51
29.946398
  0
ARC
  8
0
 62
     4
 10
-111.083626
 20
46.666367
 40
0.149997
 50
150.044388
 51
179.995636
  0
ARC
  8
0
 62
     4
 10
-111.084694
 20
46.666107
 40
0.150005
 50
144.356461
 51
179.992722
  0
ARC
  8
0
 62
     4
 10
-119.083626
 20
46.666962
 40
0.150002
 50
359.995636
 51
41.747646
  0
ARC
  8
0
 62
     4
 10
-111.083626
 20
46.666367
 40
0.150003
 50
138.244125
 51
179.995636
  0
ARC
  8
0
 62
     4
 10
-119.083626
 20
46.666962
 40
0.150002
 50
359.995636
 51
46.558067
  0
ARC
  8
0
 62
     4
 10
-115.083733
 20
45.681175
 40
3.000001
 50
229.258209
 51
310.733124
  0
ARC
  8
0
 62
     4
 10
-115.082993
 20
55.481178
 40
4.999999
 50
244.153671
 51
295.837585
  0
ARC
  8
0
 62
     4
 10
-118.884018
 20
41.866959
 40
1.199997
 50
179.995636
 51
269.995636
  0
ARC
  8
0
 62
     4
 10
-110.284019
 20
41.866318
 40
1.200001
 50
279.589844
 51
359.995636
  0
ARC
  8
0
 62
     4
 10
-112.483971
 20
42.466484
 40
0.800003
 50
179.995636
 51
269.995636
  0
ARC
  8
0
 62
     4
 10
-117.683975
 20
42.466881
 40
0.799999
 50
269.995636
 51
359.995636
  0
ARC
  8
0
 62
     4
 10
-118.584000
 20
42.166946
 40
0.500000
 50
179.995636
 51
269.995636
  0
ARC
  8
0
 62
     4
 10
-111.284088
 20
40.866394
 40
1.200001
 50
269.995636
 51
359.995636
  0
ARC
  8
0
 62
     4
 10
-111.083626
 20
46.666367
 40
0.149999
 50
133.433685
 51
179.995636
  0
ARC
  8
0
 62
     4
 10
-119.083641
 20
46.666962
 40
0.150002
 50
359.995636
 51
51.522697
  0
ARC
  8
0
 62
     4
 10
-111.584068
 20
41.166412
 40
0.500000
 50
269.995636
 51
359.995636
  0
CIRCLE
  8
0
 62
     4
 10
-115.082352
 20
80.519043
 40
1.699997
  0
CIRCLE
  8
0
 62
     4
 10
-115.082352
 20
80.519043
 40
2.500000
  0
ARC
  8
0
 62
     4
 10
-119.083656
 20
46.666977
 40
0.150002
 50
359.995636
 51
55.951878
  0
ARC
  8
0
 62
     4
 10
-115.082367
 20
63.997993
 40
13.350003
 50
215.629303
 51
324.370667
  0
ARC
  8
0
 62
     4
 10
-111.083641
 20
46.666367
 40
0.150002
 50
128.469116
 51
179.995636
  0
ARC
  8
0
 62
     4
 10
-139.833374
 20
42.812500
 40
0.812500
 50
202.619858
 51
337.380127
  0
ARC
  8
0
 62
     4
 10
-138.333374
 20
42.187500
 40
0.812500
 50
22.619865
 51
157.380142
  0
ARC
  8
0
 62
     4
 10
-139.833374
 20
42.187500
 40
0.812500
 50
22.619865
 51
157.380142
  0
ARC
  8
0
 62
     4
 10
-144.055206
 20
22.366665
 40
0.666662
 50
209.492416
 51
270.000000
  0
ARC
  8
0
 62
     4
 10
-144.055206
 20
26.633331
 40
0.666666
 50
90.000000
 51
150.507446
  0
ARC
  8
0
 62
     4
 10
-140.283386
 20
24.500000
 40
4.999994
 50
150.507523
 51
209.492249
  0
ARC
  8
0
 62
     4
 10
-139.833374
 20
85.187500
 40
0.812500
 50
22.619865
 51
157.380142
  0
ARC
  8
0
 62
     4
 10
-138.333374
 20
85.812500
 40
0.812500
 50
202.619858
 51
337.380127
  0
ARC
  8
0
 62
     4
 10
-139.833374
 20
85.812500
 40
0.812500
 50
202.619858
 51
337.380127
  0
ARC
  8
0
 62
     4
 10
-144.055206
 20
105.633331
 40
0.666664
 50
90.000000
 51
150.507736
  0
ARC
  8
0
 62
     4
 10
-144.055206
 20
101.366669
 40
0.666665
 50
209.492844
 51
270.000000
  0
ARC
  8
0
 62
     4
 10
-140.283386
 20
103.500000
 40
5.000002
 50
150.507721
 51
209.492355
  0
ARC
  8
0
 62
     4
 10
-111.081093
 20
81.331039
 40
0.150002
 50
179.994171
 51
209.947662
  0
ARC
  8
0
 10
-115.083374
 20
64.000000
 40
22.499998
 50
285.464386
 51
327.612457
  0
ARC
  8
0
 10
-115.083374
 20
64.000000
 40
22.499998
 50
105.459061
 51
147.612411
  0
ARC
  8
0
 10
-336.250031
 20
-180.666672
 40
3.000000
 50
270.000000
 51
0.000000
  0
ARC
  8
0
 10
-336.250031
 20
-142.666672
 40
3.000000
 50
0.000000
 51
90.000000
  0
ARC
  8
0
 10
-374.250000
 20
-142.666672
 40
3.000000
 50
90.000000
 51
180.000000
  0
ARC
  8
0
 10
-374.250000
 20
-180.666672
 40
3.000000
 50
180.000000
 51
270.000000
  0
CIRCLE
  8
0
 10
-355.250000
 20
-149.666672
 40
6.500000
  0
CIRCLE
  8
0
 10
-355.250000
 20
-149.666672
 40
4.000000
  0
CIRCLE
  8
0
 62
     2
 10
-355.250000
 20
-149.666672
 40
3.375000
  0
ARC
  8
0
 10
-336.050049
 20
-180.866684
 40
2.500000
 50
270.000000
 51
0.000000
  0
ARC
  8
0
 10
-374.450012
 20
-180.866684
 40
2.500000
 50
180.000000
 51
270.000000
  0
ARC
  8
0
 10
-374.450012
 20
-142.466675
 40
2.500000
 50
90.000000
 51
180.000000
  0
ARC
  8
0
 10
-336.050049
 20
-142.466675
 40
2.500000
 50
0.000000
 51
90.000000
  0
ARC
  8
0
 10
-339.250031
 20
-177.666672
 40
4.500000
 50
90.000000
 51
180.000000
  0
ARC
  8
0
 10
-339.250031
 20
-145.666672
 40
4.500000
 50
180.000000
 51
270.000000
  0
ARC
  8
0
 10
-371.250000
 20
-145.666672
 40
4.500000
 50
270.000000
 51
0.000000
  0
ARC
  8
0
 10
-371.250000
 20
-177.666672
 40
4.500000
 50
0.000000
 51
90.000000
  0
CIRCLE
  8
0
 10
-339.250031
 20
-177.666672
 40
3.500000
  0
CIRCLE
  8
0
 10
-339.250031
 20
-177.666672
 40
3.800000
  0
CIRCLE
  8
0
 10
-371.250000
 20
-177.666672
 40
3.500000
  0
CIRCLE
  8
0
 10
-371.250000
 20
-177.666672
 40
3.800000
  0
CIRCLE
  8
0
 10
-339.250031
 20
-145.666672
 40
3.500000
  0
CIRCLE
  8
0
 10
-339.250031
 20
-145.666672
 40
3.800000
  0
CIRCLE
  8
0
 10
-371.250000
 20
-145.666672
 40
3.500000
  0
CIRCLE
  8
0
 10
-371.250000
 20
-145.666672
 40
3.800000
  0
ARC
  8
0
 62
     4
 10
-407.023804
 20
-161.666672
 40
12.419159
 50
359.999939
 51
17.588232
  0
ARC
  8
0
 62
     4
 10
-397.927246
 20
-156.037506
 40
3.322596
 50
325.615753
 51
34.384552
  0
ARC
  8
0
 62
     4
 10
-387.185547
 20
-161.666672
 40
12.419158
 50
162.411697
 51
180.000000
  0
ARC
  8
0
 62
     4
 10
-396.282104
 20
-156.037506
 40
3.322571
 50
145.615448
 51
214.384247
  0
ARC
  8
0
 62
     4
 10
-407.023804
 20
-161.666672
 40
12.419154
 50
342.411774
 51
0.000070
  0
ARC
  8
0
 62
     4
 10
-397.927246
 20
-167.295853
 40
3.322571
 50
325.615448
 51
34.384254
  0
ARC
  8
0
 62
     4
 10
-387.185547
 20
-161.666672
 40
12.419159
 50
180.000000
 51
197.588226
  0
ARC
  8
0
 62
     4
 10
-396.282104
 20
-167.295853
 40
3.322596
 50
145.615753
 51
214.384552
  0
ARC
  8
0
 62
     4
 10
-346.250031
 20
-136.466675
 40
5.000010
 50
60.507565
 51
119.492432
  0
ARC
  8
0
 62
     4
 10
-348.383362
 20
-132.694855
 40
0.666669
 50
119.493408
 51
180.000000
  0
ARC
  8
0
 62
     4
 10
-344.116699
 20
-132.694855
 40
0.666656
 50
0.000000
 51
60.506588
  0
CIRCLE
  8
0
 62
     4
 10
-355.250031
 20
-137.666672
 40
1.499996
  0
ARC
  8
0
 62
     4
 10
-275.750061
 20
-165.166672
 40
0.500000
 50
180.000000
 51
270.000000
  0
ARC
  8
0
 62
     4
 10
-288.723236
 20
-162.516678
 40
0.999998
 50
121.789177
 51
238.211288
  0
ARC
  8
0
 62
     4
 10
-288.723236
 20
-160.816681
 40
0.999998
 50
121.789177
 51
238.211288
  0
ARC
  8
0
 62
     4
 10
-289.776794
 20
-160.816681
 40
0.999998
 50
301.789185
 51
58.211281
  0
CIRCLE
  8
0
 62
     4
 10
-263.750031
 20
-161.666672
 40
2.000000
  0
ARC
  8
0
 62
     4
 10
-273.750061
 20
-166.166672
 40
1.000002
 50
299.999939
 51
150.000076
  0
ARC
  8
0
 62
     4
 10
-268.750031
 20
-166.166672
 40
1.000002
 50
29.999931
 51
240.000076
  0
CIRCLE
  8
0
 62
     4
 10
-271.250031
 20
-161.666672
 40
2.600006
  0
ARC
  8
0
 62
     4
 10
-266.750031
 20
-157.166656
 40
0.500000
 50
0.000000
 51
90.000000
  0
ARC
  8
0
 62
     4
 10
-275.750031
 20
-157.166656
 40
0.500000
 50
90.000000
 51
180.000000
  0
ARC
  8
0
 62
     4
 10
-266.750031
 20
-165.166672
 40
0.500000
 50
270.000000
 51
0.000000
  0
ARC
  8
0
 62
     4
 10
-442.416626
 20
-305.074524
 40
4.000011
 50
112.331558
 51
157.668274
  0
ARC
  8
0
 62
     4
 10
-442.416626
 20
-305.074524
 40
4.000011
 50
292.331573
 51
337.668274
  0
ARC
  8
0
 62
     4
 10
-442.416626
 20
-305.074524
 40
4.000011
 50
202.331558
 51
247.668442
  0
ARC
  8
0
 62
     4
 10
-442.416626
 20
-305.074524
 40
4.000011
 50
22.331558
 51
67.668442
  0
CIRCLE
  8
0
 62
     1
 10
-442.416626
 20
-305.074524
 40
2.000000
  0
CIRCLE
  8
0
 62
     4
 10
-442.416626
 20
-305.074524
 40
1.500000
  0
ARC
  8
0
 10
254.484375
 20
121.000000
 40
0.499995
 50
5.000187
 51
90.000000
  0
ARC
  8
0
 10
213.015564
 20
121.000000
 40
0.500000
 50
90.000000
 51
174.999817
  0
ARC
  8
0
 10
244.245422
 20
121.000000
 40
0.499995
 50
5.000187
 51
90.000000
  0
ARC
  8
0
 10
223.254517
 20
121.000000
 40
0.500000
 50
90.000000
 51
174.999817
  0
ARC
  8
0
 10
245.546692
 20
117.600006
 40
0.499995
 50
185.000183
 51
270.000000
  0
ARC
  8
0
 10
221.953247
 20
117.600006
 40
0.500000
 50
270.000000
 51
354.999817
  0
ARC
  8
0
 10
217.750000
 20
117.044220
 40
3.655770
 50
16.785875
 51
163.214127
  0
ARC
  8
0
 10
249.749969
 20
117.044220
 40
3.655770
 50
16.785875
 51
163.214127
  0
ARC
  8
0
 10
221.953247
 20
10.399994
 40
0.499995
 50
5.000187
 51
90.000000
  0
ARC
  8
0
 10
245.546692
 20
10.399994
 40
0.500000
 50
90.000000
 51
174.999924
  0
ARC
  8
0
 10
249.749969
 20
10.955780
 40
3.655770
 50
196.785904
 51
343.214172
  0
ARC
  8
0
 10
217.750000
 20
10.955780
 40
3.655770
 50
196.785904
 51
343.214172
  0
ARC
  8
0
 10
254.484375
 20
7.000000
 40
0.500000
 50
270.000000
 51
354.999969
  0
ARC
  8
0
 10
213.015564
 20
7.000000
 40
0.499995
 50
185.000290
 51
270.000000
  0
ARC
  8
0
 10
244.245422
 20
7.000000
 40
0.500000
 50
270.000000
 51
354.999817
  0
ARC
  8
0
 10
223.254517
 20
7.000000
 40
0.499995
 50
185.000137
 51
270.000000
  0
ARC
  8
0
 10
239.750000
 20
121.500000
 40
2.000000
 50
0.000000
 51
90.000000
  0
ARC
  8
0
 10
227.750000
 20
121.500000
 40
2.000000
 50
90.000000
 51
180.000000
  0
CIRCLE
  8
0
 10
219.750000
 20
85.000000
 40
3.300000
  0
CIRCLE
  8
0
 10
219.750000
 20
43.000000
 40
3.300000
  0
CIRCLE
  8
0
 10
219.750000
 20
43.000000
 40
5.500000
  0
CIRCLE
  8
0
 10
219.750000
 20
85.000000
 40
5.500000
  0
ARC
  8
0
 10
239.379150
 20
126.822556
 40
3.322556
 50
235.615585
 51
304.384399
  0
ARC
  8
0
 10
233.750000
 20
135.919403
 40
12.419395
 50
270.000000
 51
287.588013
  0
ARC
  8
0
 10
233.750000
 20
116.080597
 40
12.419395
 50
72.411972
 51
90.000000
  0
ARC
  8
0
 10
239.379150
 20
125.177444
 40
3.322556
 50
55.615593
 51
124.384407
  0
ARC
  8
0
 10
233.750000
 20
135.919403
 40
12.419395
 50
252.411972
 51
270.000000
  0
ARC
  8
0
 10
233.750000
 20
116.080597
 40
12.419403
 50
90.000000
 51
107.588028
  0
ARC
  8
0
 10
228.120789
 20
125.177444
 40
3.322556
 50
55.615593
 51
124.384407
  0
ARC
  8
0
 10
228.120789
 20
126.822556
 40
3.322556
 50
235.615585
 51
304.384399
  0
ARC
  8
0
 10
228.120789
 20
2.822571
 40
3.322557
 50
235.615601
 51
304.384430
  0
ARC
  8
0
 10
228.120789
 20
1.177429
 40
3.322556
 50
55.615589
 51
124.384415
  0
ARC
  8
0
 10
239.750000
 20
6.500000
 40
2.000000
 50
270.000000
 51
0.000000
  0
ARC
  8
0
 10
227.750000
 20
6.500000
 40
2.000000
 50
180.000046
 51
270.000000
  0
ARC
  8
0
 10
239.379150
 20
1.177429
 40
3.322556
 50
55.615589
 51
124.384415
  0
ARC
  8
0
 10
233.750000
 20
-7.919403
 40
12.419395
 50
72.411972
 51
90.000000
  0
ARC
  8
0
 10
233.750000
 20
11.919403
 40
12.419395
 50
270.000000
 51
287.588013
  0
ARC
  8
0
 10
239.379150
 20
2.822571
 40
3.322556
 50
235.615585
 51
304.384399
  0
ARC
  8
0
 10
233.750000
 20
-7.919403
 40
12.419395
 50
90.000000
 51
107.588028
  0
ARC
  8
0
 10
233.750000
 20
11.919403
 40
12.419398
 50
252.411972
 51
270.000000
  0
CIRCLE
  8
0
 62
     2
 10
262.249969
 20
64.000000
 40
5.000000
  0
CIRCLE
  8
0
 10
262.249969
 20
64.000000
 40
4.250000
  0
ARC
  8
0
 62
     4
 10
185.008301
 20
60.750000
 40
9.387006
 50
339.743561
 51
20.256481
  0
ARC
  8
0
 62
     4
 10
198.782349
 20
60.750000
 40
9.387009
 50
159.743515
 51
200.256439
  0
ARC
  8
0
 62
     4
 10
185.008301
 20
67.250000
 40
9.387009
 50
339.743530
 51
20.256437
  0
ARC
  8
0
 62
     4
 10
198.782349
 20
67.250000
 40
9.387009
 50
159.743515
 51
200.256439
  0
ARC
  8
0
 62
     4
 10
315.949982
 20
37.480957
 40
0.799988
 50
180.000000
 51
270.000000
  0
CIRCLE
  8
0
 62
     4
 10
242.749969
 20
103.500000
 40
2.800000
  0
ARC
  8
0
 62
     4
 10
232.999969
 20
85.812500
 40
0.812500
 50
202.619858
 51
337.380127
  0
ARC
  8
0
 62
     4
 10
234.499969
 20
85.812500
 40
0.812500
 50
202.619858
 51
337.380127
  0
ARC
  8
0
 62
     4
 10
232.999969
 20
85.187500
 40
0.812500
 50
22.619865
 51
157.380142
  0
CIRCLE
  8
0
 62
     4
 10
242.749969
 20
24.500000
 40
2.800000
  0
ARC
  8
0
 62
     4
 10
232.999969
 20
42.187500
 40
0.812500
 50
22.619865
 51
157.380142
  0
ARC
  8
0
 62
     4
 10
234.499969
 20
42.187500
 40
0.812500
 50
22.619865
 51
157.380142
  0
ARC
  8
0
 62
     4
 10
232.999969
 20
42.812500
 40
0.812500
 50
202.619858
 51
337.380127
  0
ARC
  8
0
 62
     4
 10
325.249969
 20
45.680954
 40
3.000006
 50
229.262329
 51
310.737671
  0
ARC
  8
0
 62
     4
 10
300.276733
 20
48.330956
 40
1.000005
 50
121.788948
 51
238.211044
  0
ARC
  8
0
 62
     4
 10
300.276733
 20
46.630959
 40
1.000005
 50
121.788948
 51
238.211044
  0
ARC
  8
0
 62
     4
 10
299.223206
 20
46.630959
 40
1.000005
 50
301.788940
 51
58.211052
  0
ARC
  8
0
 62
     4
 10
313.249969
 20
46.166458
 40
0.500000
 50
90.000000
 51
180.000000
  0
ARC
  8
0
 62
     4
 10
322.249969
 20
46.166458
 40
0.500000
 50
0.000000
 51
90.000000
  0
ARC
  8
0
 62
     4
 10
291.949951
 20
90.519043
 40
0.800003
 50
90.000000
 51
180.000000
  0
ARC
  8
0
 62
     4
 10
295.549957
 20
90.519043
 40
0.799988
 50
0.000000
 51
90.000000
  0
ARC
  8
0
 62
     4
 10
286.249969
 20
82.319046
 40
3.000009
 50
49.262375
 51
130.737625
  0
ARC
  8
0
 62
     4
 10
289.249969
 20
81.833542
 40
0.500000
 50
180.000000
 51
270.000000
  0
ARC
  8
0
 62
     4
 10
298.249969
 20
81.833542
 40
0.500000
 50
270.000000
 51
0.000000
  0
ARC
  8
0
 62
     4
 10
292.299988
 20
86.119041
 40
0.999989
 50
143.129745
 51
236.633636
  0
ARC
  8
0
 62
     4
 10
295.199982
 20
86.119041
 40
0.999995
 50
303.366364
 51
36.870247
  0
ARC
  8
0
 62
     4
 10
312.276733
 20
81.369041
 40
1.000005
 50
121.788948
 51
238.211044
  0
ARC
  8
0
 62
     4
 10
311.223206
 20
81.369041
 40
1.000005
 50
301.788940
 51
58.211052
  0
ARC
  8
0
 62
     4
 10
311.223206
 20
79.669044
 40
1.000005
 50
301.788940
 51
58.211052
  0
ARC
  8
0
 62
     4
 10
319.549988
 20
37.480957
 40
0.799999
 50
270.000000
 51
0.000000
  0
ARC
  8
0
 10
86.083374
 20
121.500000
 40
2.000000
 50
0.000000
 51
90.000000
  0
ARC
  8
0
 10
74.083374
 20
121.500000
 40
2.000000
 50
90.000000
 51
180.000000
  0
ARC
  8
0
 10
74.083374
 20
6.500000
 40
2.000000
 50
180.000046
 51
270.000000
  0
ARC
  8
0
 10
86.083374
 20
6.500000
 40
2.000000
 50
270.000000
 51
0.000000
  0
CIRCLE
  8
0
 10
68.083374
 20
64.000000
 40
10.000000
  0
ARC
  8
0
 62
     4
 10
68.083374
 20
64.000000
 40
4.000004
 50
112.331604
 51
157.668152
  0
CIRCLE
  8
0
 62
     1
 10
68.083374
 20
64.000000
 40
3.500000
  0
ARC
  8
0
 62
     4
 10
68.083374
 20
64.000000
 40
4.000000
 50
202.331741
 51
247.668381
  0
ARC
  8
0
 62
     4
 10
68.083374
 20
64.000000
 40
4.000000
 50
292.331635
 51
337.668243
  0
ARC
  8
0
 62
     4
 10
68.083374
 20
64.000000
 40
4.000000
 50
22.331743
 51
67.668358
  0
ARC
  8
0
 10
52.083374
 20
117.044220
 40
3.655770
 50
16.785875
 51
163.214127
  0
ARC
  8
0
 10
84.083374
 20
117.044220
 40
3.655770
 50
16.785875
 51
163.214127
  0
ARC
  8
0
 10
57.587891
 20
121.000000
 40
0.500000
 50
90.000000
 51
174.999847
  0
ARC
  8
0
 10
79.880066
 20
117.600006
 40
0.500003
 50
185.000107
 51
270.000000
  0
ARC
  8
0
 10
52.083374
 20
10.955780
 40
3.655770
 50
196.785904
 51
343.214172
  0
ARC
  8
0
 10
47.348938
 20
121.000000
 40
0.500000
 50
90.000000
 51
174.999847
  0
ARC
  8
0
 10
88.817749
 20
121.000000
 40
0.500003
 50
5.000111
 51
90.000000
  0
ARC
  8
0
 10
56.286621
 20
117.600006
 40
0.500000
 50
270.000000
 51
354.999847
  0
ARC
  8
0
 10
78.578796
 20
121.000000
 40
0.500003
 50
5.000111
 51
90.000000
  0
ARC
  8
0
 10
84.083374
 20
10.955780
 40
3.655770
 50
196.785904
 51
343.214172
  0
ARC
  8
0
 10
83.333374
 20
-4.887115
 40
9.387118
 50
69.743713
 51
110.256187
  0
ARC
  8
0
 10
83.333374
 20
8.887115
 40
9.387118
 50
249.743820
 51
290.256287
  0
ARC
  8
0
 10
76.833374
 20
-4.887115
 40
9.387117
 50
69.743713
 51
110.256187
  0
ARC
  8
0
 10
76.833374
 20
8.887115
 40
9.387117
 50
249.743668
 51
290.256134
  0
ARC
  8
0
 10
83.333374
 20
119.112885
 40
9.387118
 50
69.743713
 51
110.256180
  0
ARC
  8
0
 10
83.333374
 20
132.887115
 40
9.387120
 50
249.743820
 51
290.256287
  0
ARC
  8
0
 10
76.833374
 20
132.887115
 40
9.387120
 50
249.743820
 51
290.256287
  0
ARC
  8
0
 10
76.833374
 20
119.112885
 40
9.387117
 50
69.743866
 51
110.256340
  0
CIRCLE
  8
0
 62
     4
 10
68.083374
 20
64.000000
 40
6.500000
  0
ARC
  8
0
 10
56.286499
 20
10.399994
 40
0.500000
 50
5.000585
 51
90.000000
  0
ARC
  8
0
 10
57.587799
 20
7.000000
 40
0.499999
 50
185.000473
 51
270.000000
  0
ARC
  8
0
 10
47.349030
 20
7.000000
 40
0.499999
 50
185.000198
 51
270.000000
  0
ARC
  8
0
 10
88.817780
 20
7.000000
 40
0.500000
 50
270.000000
 51
354.999847
  0
ARC
  8
0
 10
79.880157
 20
10.399994
 40
0.500000
 50
90.000000
 51
175.000763
  0
ARC
  8
0
 10
78.578918
 20
7.000000
 40
0.500000
 50
270.000000
 51
355.000702
  0
CIRCLE
  8
0
 10
68.083374
 20
64.000000
 40
9.300000
  0
CIRCLE
  8
0
 10
38.083374
 20
49.000000
 40
2.750000
  0
CIRCLE
  8
0
 10
38.083374
 20
79.000000
 40
2.750000
  0
CIRCLE
  8
0
 10
98.083374
 20
49.000000
 40
2.750000
  0
CIRCLE
  8
0
 10
98.083374
 20
79.000000
 40
2.750000
  0
ARC
  8
0
 62
     4
 10
91.333374
 20
42.812500
 40
0.812500
 50
202.619858
 51
337.380127
  0
ARC
  8
0
 62
     4
 10
93.283386
 20
103.500000
 40
4.999995
 50
330.507660
 51
29.492401
  0
ARC
  8
0
 62
     4
 10
97.055206
 20
105.633331
 40
0.666668
 50
29.491947
 51
90.000000
  0
ARC
  8
0
 62
     4
 10
97.055206
 20
101.366661
 40
0.666664
 50
270.000000
 51
330.508057
  0
ARC
  8
0
 62
     4
 10
91.333374
 20
85.812500
 40
0.812500
 50
202.619858
 51
337.380127
  0
ARC
  8
0
 62
     4
 10
92.833374
 20
85.812500
 40
0.812500
 50
202.619858
 51
337.380127
  0
ARC
  8
0
 62
     4
 10
91.333374
 20
85.187500
 40
0.812500
 50
22.619865
 51
157.380142
  0
ARC
  8
0
 62
     4
 10
93.283386
 20
24.500000
 40
5.000000
 50
330.507568
 51
29.492264
  0
ARC
  8
0
 62
     4
 10
97.055206
 20
22.366669
 40
0.666666
 50
270.000000
 51
330.507782
  0
ARC
  8
0
 62
     4
 10
97.055206
 20
26.633331
 40
0.666669
 50
29.492088
 51
90.000000
  0
ARC
  8
0
 62
     4
 10
91.333374
 20
42.187500
 40
0.812500
 50
22.619865
 51
157.380142
  0
ARC
  8
0
 62
     4
 10
92.833374
 20
42.187500
 40
0.812500
 50
22.619865
 51
157.380142
  0
CIRCLE
  8
0
 62
     2
 10
446.416626
 20
108.000000
 40
5.000000
  0
CIRCLE
  8
0
 62
     2
 10
446.416626
 20
20.000000
 40
5.000000
  0
CIRCLE
  8
0
 10
446.416626
 20
20.000000
 40
4.250000
  0
CIRCLE
  8
0
 10
446.416626
 20
108.000000
 40
4.250000
  0
ARC
  8
0
 10
436.416626
 20
6.500000
 40
2.000000
 50
179.999954
 51
270.000000
  0
ARC
  8
0
 10
470.416626
 20
10.955780
 40
3.655768
 50
196.785797
 51
343.214081
  0
ARC
  8
0
 10
448.416626
 20
6.500000
 40
2.000000
 50
270.000000
 51
359.999939
  0
ARC
  8
0
 10
438.416626
 20
10.955780
 40
3.655768
 50
196.785797
 51
343.214081
  0
ARC
  8
0
 10
448.416626
 20
121.500000
 40
2.000000
 50
0.000000
 51
90.000000
  0
ARC
  8
0
 10
438.416626
 20
117.044220
 40
3.655770
 50
16.785875
 51
163.214127
  0
ARC
  8
0
 10
470.416626
 20
117.044220
 40
3.655770
 50
16.785875
 51
163.214127
  0
ARC
  8
0
 10
436.416626
 20
121.500000
 40
2.000000
 50
90.000000
 51
180.000000
  0
ARC
  8
0
 10
454.416626
 20
64.000000
 40
22.500004
 50
32.387558
 51
77.153481
  0
ARC
  8
0
 10
454.416626
 20
64.000000
 40
22.499998
 50
212.387527
 51
257.158813
  0
CIRCLE
  8
0
 62
     2
 10
454.416626
 20
64.000000
 40
5.000000
  0
CIRCLE
  8
0
 10
454.416626
 20
64.000000
 40
4.250000
  0
CIRCLE
  8
0
 10
466.916626
 20
76.500000
 40
3.500000
  0
CIRCLE
  8
0
 10
466.916626
 20
51.500000
 40
3.500000
  0
CIRCLE
  8
0
 10
441.916626
 20
51.500000
 40
3.500000
  0
CIRCLE
  8
0
 10
441.916626
 20
76.500000
 40
3.500000
  0
CIRCLE
  8
0
 10
466.916626
 20
51.500000
 40
3.000000
  0
CIRCLE
  8
0
 10
441.916626
 20
51.500000
 40
3.000000
  0
CIRCLE
  8
0
 10
441.916626
 20
76.500000
 40
3.000000
  0
CIRCLE
  8
0
 10
466.916626
 20
76.500000
 40
3.000000
  0
ARC
  8
0
 10
445.666626
 20
119.112885
 40
9.387115
 50
69.743759
 51
110.256226
  0
ARC
  8
0
 10
439.166626
 20
119.112885
 40
9.387113
 50
69.743950
 51
110.256432
  0
ARC
  8
0
 10
439.166626
 20
132.887115
 40
9.387123
 50
249.743774
 51
290.256226
  0
ARC
  8
0
 10
445.666626
 20
132.887115
 40
9.387123
 50
249.743774
 51
290.256226
  0
ARC
  8
0
 10
445.666626
 20
-4.887115
 40
9.387115
 50
69.743759
 51
110.256233
  0
ARC
  8
0
 10
439.166626
 20
-4.887115
 40
9.387115
 50
69.743759
 51
110.256226
  0
ARC
  8
0
 10
445.666626
 20
8.887115
 40
9.387120
 50
249.743774
 51
290.256256
  0
ARC
  8
0
 10
439.166626
 20
8.887115
 40
9.387122
 50
249.743576
 51
290.256042
  0
ARC
  8
0
 10
454.416626
 20
64.000000
 40
12.200008
 50
308.859375
 51
51.140625
  0
ARC
  8
0
 10
454.416626
 20
64.000000
 40
12.200012
 50
179.999969
 51
231.140625
  0
ARC
  8
0
 10
454.416626
 20
64.000000
 40
12.199992
 50
128.859238
 51
179.999969
  0
CIRCLE
  8
0
 10
454.416626
 20
64.000000
 40
13.200000
  0
ARC
  8
0
 10
433.682129
 20
121.000000
 40
0.500000
 50
90.000000
 51
174.999969
  0
ARC
  8
0
 10
442.619873
 20
117.600006
 40
0.500000
 50
270.000000
 51
354.999969
  0
ARC
  8
0
 10
466.213379
 20
117.600006
 40
0.500011
 50
185.000031
 51
270.000000
  0
ARC
  8
0
 10
464.912109
 20
121.000000
 40
0.500011
 50
5.000035
 51
90.000000
  0
ARC
  8
0
 10
443.921082
 20
121.000000
 40
0.500000
 50
90.000000
 51
174.999969
  0
ARC
  8
0
 10
475.150940
 20
121.000000
 40
0.500011
 50
5.000035
 51
90.000000
  0
ARC
  8
0
 10
433.682098
 20
7.000000
 40
0.500010
 50
184.999649
 51
270.000000
  0
ARC
  8
0
 10
475.150940
 20
7.000000
 40
0.500000
 50
270.000000
 51
354.999908
  0
ARC
  8
0
 10
466.213409
 20
10.399994
 40
0.500000
 50
90.000000
 51
175.000076
  0
ARC
  8
0
 10
442.619812
 20
10.399994
 40
0.500011
 50
5.000361
 51
90.000000
  0
ARC
  8
0
 10
443.921112
 20
7.000000
 40
0.500011
 50
185.000519
 51
270.000000
  0
ARC
  8
0
 10
464.912109
 20
7.000000
 40
0.500000
 50
270.000000
 51
354.999908
  0
CIRCLE
  8
0
 10
424.416626
 20
79.000000
 40
4.750000
  0
CIRCLE
  8
0
 10
424.416626
 20
49.000000
 40
4.750000
  0
CIRCLE
  8
0
 10
424.416626
 20
79.000000
 40
2.750000
  0
CIRCLE
  8
0
 10
424.416626
 20
49.000000
 40
2.750000
  0
CIRCLE
  8
0
 10
484.416626
 20
79.000000
 40
4.750000
  0
CIRCLE
  8
0
 10
484.416626
 20
49.000000
 40
4.750000
  0
CIRCLE
  8
0
 10
484.416626
 20
79.000000
 40
2.750000
  0
CIRCLE
  8
0
 10
484.416626
 20
49.000000
 40
2.750000
  0
ARC
  8
0
 62
     4
 10
458.418915
 20
81.331039
 40
0.149994
 50
179.994171
 51
209.947662
  0
ARC
  8
0
 62
     4
 10
429.216614
 20
103.500000
 40
5.000002
 50
150.507721
 51
209.492355
  0
ARC
  8
0
 62
     4
 10
425.444794
 20
101.366669
 40
0.666678
 50
209.492187
 51
270.000000
  0
ARC
  8
0
 62
     4
 10
425.444794
 20
105.633331
 40
0.666664
 50
90.000000
 51
150.508377
  0
ARC
  8
0
 62
     4
 10
429.666626
 20
85.812500
 40
0.812500
 50
202.619858
 51
337.380127
  0
ARC
  8
0
 62
     4
 10
431.166626
 20
85.812500
 40
0.812500
 50
202.619858
 51
337.380127
  0
ARC
  8
0
 62
     4
 10
429.666626
 20
85.187500
 40
0.812500
 50
22.619865
 51
157.380142
  0
ARC
  8
0
 62
     4
 10
429.216614
 20
24.500000
 40
5.000008
 50
150.507599
 51
209.492249
  0
ARC
  8
0
 62
     4
 10
425.444794
 20
26.633331
 40
0.666666
 50
90.000000
 51
150.508087
  0
ARC
  8
0
 62
     4
 10
425.444794
 20
22.366665
 40
0.666675
 50
209.491760
 51
270.000000
  0
ARC
  8
0
 62
     4
 10
429.666626
 20
42.187500
 40
0.812500
 50
22.619865
 51
157.380142
  0
ARC
  8
0
 62
     4
 10
431.166626
 20
42.187500
 40
0.812500
 50
22.619865
 51
157.380142
  0
ARC
  8
0
 62
     4
 10
429.666626
 20
42.812500
 40
0.812500
 50
202.619858
 51
337.380127
  0
ARC
  8
0
 62
     4
 10
458.416351
 20
46.666367
 40
0.150007
 50
128.471390
 51
179.995636
  0
ARC
  8
0
 62
     4
 10
454.417633
 20
63.997993
 40
13.350003
 50
215.629303
 51
324.370697
  0
ARC
  8
0
 62
     4
 10
450.416351
 20
46.666977
 40
0.149994
 50
359.995636
 51
55.951878
  0
CIRCLE
  8
0
 62
     4
 10
454.417633
 20
80.519043
 40
2.500000
  0
CIRCLE
  8
0
 62
     4
 10
454.417633
 20
80.519043
 40
1.699997
  0
ARC
  8
0
 62
     4
 10
457.915924
 20
41.166412
 40
0.500000
 50
269.996490
 51
359.995636
  0
ARC
  8
0
 62
     4
 10
450.416351
 20
46.666962
 40
0.149994
 50
359.995636
 51
51.524979
  0
ARC
  8
0
 62
     4
 10
458.416382
 20
46.666367
 40
0.149994
 50
133.431580
 51
179.995636
  0
ARC
  8
0
 62
     4
 10
458.215912
 20
40.866394
 40
1.200001
 50
269.995636
 51
359.995636
  0
ARC
  8
0
 62
     4
 10
450.916016
 20
42.166946
 40
0.500000
 50
179.995636
 51
269.996490
  0
ARC
  8
0
 62
     4
 10
451.816010
 20
42.466881
 40
0.799999
 50
269.995636
 51
359.995636
  0
ARC
  8
0
 62
     4
 10
457.016022
 20
42.466484
 40
0.799988
 50
179.995636
 51
269.995636
  0
ARC
  8
0
 62
     4
 10
459.215973
 20
41.866318
 40
1.200002
 50
279.590210
 51
359.995636
  0
ARC
  8
0
 62
     4
 10
450.615967
 20
41.866959
 40
1.200012
 50
179.995636
 51
269.995636
  0
ARC
  8
0
 62
     4
 10
454.417023
 20
55.481178
 40
5.000006
 50
244.153519
 51
295.837585
  0
ARC
  8
0
 62
     4
 10
454.416260
 20
45.681175
 40
2.999996
 50
229.258316
 51
310.733124
  0
ARC
  8
0
 62
     4
 10
450.416382
 20
46.666962
 40
0.149994
 50
359.995636
 51
46.555950
  0
ARC
  8
0
 62
     4
 10
458.416382
 20
46.666367
 40
0.150008
 50
138.246063
 51
179.995636
  0
ARC
  8
0
 62
     4
 10
450.416382
 20
46.666962
 40
0.149994
 50
359.995636
 51
41.749584
  0
ARC
  8
0
 62
     4
 10
458.415314
 20
46.666107
 40
0.149992
 50
144.353058
 51
179.992722
  0
ARC
  8
0
 62
     4
 10
458.416382
 20
46.666367
 40
0.150010
 50
150.047287
 51
179.995636
  0
ARC
  8
0
 62
     4
 10
450.416382
 20
46.666962
 40
0.149994
 50
359.995636
 51
29.946398
  0
ARC
  8
0
 62
     4
 10
454.417633
 20
64.000008
 40
13.349994
 50
324.363556
 51
215.636276
  0
ARC
  8
0
 62
     4
 10
450.919342
 20
86.831589
 40
0.500000
 50
89.996506
 51
179.995636
  0
ARC
  8
0
 62
     4
 10
450.619354
 20
87.131607
 40
1.199997
 50
89.995628
 51
179.995636
  0
ARC
  8
0
 62
     4
 10
457.919281
 20
85.831055
 40
0.500000
 50
359.995636
 51
89.996506
  0
ARC
  8
0
 62
     4
 10
457.019257
 20
85.531120
 40
0.800003
 50
89.995628
 51
179.995636
  0
ARC
  8
0
 62
     4
 10
451.819244
 20
85.531517
 40
0.799988
 50
359.995636
 51
89.995628
  0
ARC
  8
0
 62
     4
 10
449.619293
 20
86.131683
 40
1.199998
 50
99.590240
 51
179.995636
  0
ARC
  8
0
 62
     4
 10
458.219299
 20
86.131042
 40
1.200012
 50
359.995636
 51
89.995628
  0
ARC
  8
0
 62
     4
 10
454.418274
 20
72.516823
 40
5.000006
 50
64.153519
 51
115.837570
  0
ARC
  8
0
 62
     4
 10
452.619629
 20
90.516960
 40
0.800003
 50
89.995628
 51
179.995636
  0
ARC
  8
0
 62
     4
 10
456.219635
 20
90.516685
 40
0.799988
 50
359.995636
 51
89.995628
  0
ARC
  8
0
 62
     4
 10
450.418945
 20
81.331619
 40
0.149994
 50
304.036011
 51
359.994171
  0
ARC
  8
0
 62
     4
 10
458.418945
 20
81.331024
 40
0.149994
 50
179.994171
 51
235.952698
  0
ARC
  8
0
 62
     4
 10
450.418915
 20
81.331635
 40
0.150004
 50
308.472290
 51
359.994171
  0
ARC
  8
0
 62
     4
 10
458.418915
 20
81.331039
 40
0.149994
 50
179.994171
 51
231.524078
  0
ARC
  8
0
 62
     4
 10
450.418915
 20
81.331635
 40
0.149994
 50
313.431580
 51
359.994171
  0
ARC
  8
0
 62
     4
 10
458.418915
 20
81.331039
 40
0.149994
 50
179.994171
 51
226.555954
  0
ARC
  8
0
 62
     4
 10
456.215668
 20
37.481041
 40
0.799999
 50
269.995636
 51
359.995636
  0
ARC
  8
0
 62
     4
 10
450.418915
 20
81.331635
 40
0.150011
 50
318.244965
 51
359.994171
  0
ARC
  8
0
 62
     4
 10
458.418915
 20
81.331039
 40
0.149994
 50
179.994171
 51
221.748505
  0
ARC
  8
0
 62
     4
 10
452.615662
 20
37.481316
 40
0.799988
 50
179.995636
 51
269.995636
  0
ARC
  8
0
 62
     4
 10
458.416351
 20
46.666382
 40
0.149997
 50
124.035202
 51
179.995636
  0
ARC
  8
0
 62
     4
 10
450.419983
 20
81.331894
 40
0.149990
 50
324.354248
 51
359.991272
  0
ARC
  8
0
 62
     4
 10
450.418915
 20
81.331635
 40
0.150010
 50
330.047302
 51
359.997101
  0
ARC
  8
0
 10
454.416626
 20
64.000000
 40
22.500000
 50
105.459076
 51
147.612427
  0
ARC
  8
0
 10
454.416626
 20
64.000000
 40
22.500000
 50
285.464386
 51
327.612457
  0
ARC
  8
0
 10
252.749969
 20
-180.666672
 40
3.000000
 50
270.000000
 51
0.000000
  0
ARC
  8
0
 10
252.749969
 20
-142.666672
 40
3.000000
 50
0.000000
 51
90.000000
  0
ARC
  8
0
 10
214.750000
 20
-142.666672
 40
3.000000
 50
90.000000
 51
180.000000
  0
ARC
  8
0
 10
214.750000
 20
-180.666672
 40
3.000000
 50
180.000000
 51
270.000000
  0
CIRCLE
  8
0
 10
233.750000
 20
-149.666672
 40
6.500000
  0
CIRCLE
  8
0
 10
233.750000
 20
-149.666672
 40
4.000000
  0
CIRCLE
  8
0
 62
     2
 10
233.750000
 20
-149.666672
 40
3.375000
  0
ARC
  8
0
 10
252.949951
 20
-180.866684
 40
2.500000
 50
270.000000
 51
0.000000
  0
ARC
  8
0
 10
214.549988
 20
-180.866684
 40
2.500000
 50
180.000000
 51
270.000000
  0
ARC
  8
0
 10
214.549988
 20
-142.466660
 40
2.500000
 50
90.000000
 51
180.000000
  0
ARC
  8
0
 10
252.949951
 20
-142.466660
 40
2.500000
 50
0.000000
 51
90.000000
  0
ARC
  8
0
 10
249.749969
 20
-177.666672
 40
4.500000
 50
90.000000
 51
180.000000
  0
ARC
  8
0
 10
249.749969
 20
-145.666672
 40
4.500000
 50
180.000000
 51
270.000000
  0
ARC
  8
0
 10
217.750000
 20
-145.666672
 40
4.500000
 50
270.000000
 51
0.000000
  0
ARC
  8
0
 10
217.750000
 20
-177.666672
 40
4.500000
 50
0.000000
 51
90.000000
  0
CIRCLE
  8
0
 10
249.749969
 20
-177.666672
 40
3.500000
  0
CIRCLE
  8
0
 10
249.749969
 20
-177.666672
 40
3.800000
  0
CIRCLE
  8
0
 10
217.750000
 20
-177.666672
 40
3.500000
  0
CIRCLE
  8
0
 10
217.750000
 20
-177.666672
 40
3.800000
  0
CIRCLE
  8
0
 10
249.749969
 20
-145.666672
 40
3.500000
  0
CIRCLE
  8
0
 10
249.749969
 20
-145.666672
 40
3.800000
  0
CIRCLE
  8
0
 10
217.750000
 20
-145.666672
 40
3.500000
  0
CIRCLE
  8
0
 10
217.750000
 20
-145.666672
 40
3.800000
  0
ARC
  8
0
 62
     4
 10
181.976196
 20
-161.666672
 40
12.419144
 50
359.999939
 51
17.588253
  0
ARC
  8
0
 62
     4
 10
191.072754
 20
-156.037491
 40
3.322584
 50
325.615601
 51
34.384403
  0
ARC
  8
0
 62
     4
 10
201.814453
 20
-161.666672
 40
12.419144
 50
162.411682
 51
180.000000
  0
ARC
  8
0
 62
     4
 10
192.717896
 20
-156.037491
 40
3.322584
 50
145.615601
 51
214.384399
  0
ARC
  8
0
 62
     4
 10
181.976196
 20
-161.666672
 40
12.419154
 50
342.411774
 51
0.000070
  0
ARC
  8
0
 62
     4
 10
191.072754
 20
-167.295853
 40
3.322584
 50
325.615601
 51
34.384403
  0
ARC
  8
0
 62
     4
 10
201.814453
 20
-161.666672
 40
12.419144
 50
180.000000
 51
197.588257
  0
ARC
  8
0
 62
     4
 10
192.717896
 20
-167.295853
 40
3.322584
 50
145.615601
 51
214.384399
  0
ARC
  8
0
 62
     4
 10
242.749969
 20
-136.466675
 40
5.000002
 50
60.507717
 51
119.492279
  0
ARC
  8
0
 62
     4
 10
240.616638
 20
-132.694855
 40
0.666661
 50
119.492271
 51
180.000000
  0
ARC
  8
0
 62
     4
 10
244.883301
 20
-132.694855
 40
0.666672
 50
0.000000
 51
60.507732
  0
CIRCLE
  8
0
 62
     4
 10
233.749969
 20
-137.666672
 40
1.499996
  0
ARC
  8
0
 62
     4
 10
313.249939
 20
-165.166672
 40
0.500000
 50
180.000000
 51
270.000000
  0
ARC
  8
0
 62
     4
 10
300.276764
 20
-162.516678
 40
0.999998
 50
121.789177
 51
238.211288
  0
ARC
  8
0
 62
     4
 10
300.276764
 20
-160.816681
 40
0.999998
 50
121.789177
 51
238.211288
  0
ARC
  8
0
 62
     4
 10
299.223206
 20
-160.816681
 40
0.999998
 50
301.789185
 51
58.211281
  0
CIRCLE
  8
0
 62
     4
 10
325.249969
 20
-161.666672
 40
2.000000
  0
ARC
  8
0
 62
     4
 10
315.249939
 20
-166.166672
 40
1.000002
 50
299.999939
 51
150.000076
  0
ARC
  8
0
 62
     4
 10
320.249969
 20
-166.166672
 40
1.000002
 50
29.999931
 51
240.000076
  0
CIRCLE
  8
0
 62
     4
 10
317.749969
 20
-161.666672
 40
2.600006
  0
ARC
  8
0
 62
     4
 10
322.249969
 20
-157.166656
 40
0.500000
 50
0.000000
 51
90.000000
  0
ARC
  8
0
 62
     4
 10
313.249969
 20
-157.166656
 40
0.500000
 50
90.000000
 51
180.000000
  0
ARC
  8
0
 62
     4
 10
322.249969
 20
-165.166672
 40
0.500000
 50
270.000000
 51
0.000000
  0
ARC
  8
0
 62
     4
 10
154.583374
 20
-305.074524
 40
4.000011
 50
112.331558
 51
157.668365
  0
ARC
  8
0
 62
     4
 10
154.583374
 20
-305.074524
 40
4.000011
 50
292.331573
 51
337.668365
  0
ARC
  8
0
 62
     4
 10
154.583374
 20
-305.074524
 40
3.999997
 50
202.331635
 51
247.668442
  0
ARC
  8
0
 62
     4
 10
154.583374
 20
-305.074524
 40
3.999997
 50
22.331642
 51
67.668442
  0
CIRCLE
  8
0
 62
     1
 10
154.583374
 20
-305.074524
 40
2.000000
  0
CIRCLE
  8
0
 62
     4
 10
154.583374
 20
-305.074524
 40
1.500000
  0
TEXT
  8
0
 10
-507.285156
 20
375.250000
 40
12.500000
  1
SWING CYL
 50
0.000000
 41
1.052632
 51
0.000000
  7
STANDARD
  0
TEXT
  8
0
 10
-542.285156
 20
330.250000
 40
12.500000
  1
MODEL:SDA25*25-135(180)
 50
0.000000
 41
1.052632
 51
0.000000
  7
STANDARD
  0
TEXT
  8
0
 10
364.214844
 20
375.250000
 40
12.500000
  1
DATE: JUL ,1993
 50
0.000000
 41
1.052632
 51
0.000000
  7
STANDARD
  0
TEXT
  8
0
 10
345.179352
 20
-400.700012
 40
18.000000
  1
KOGANEI CORP.
 50
0.000000
 41
1.052632
 51
0.000000
  7
STANDARD
  0
TEXT
  8
0
 10
27.214844
 20
330.250000
 40
12.500000
  1
MODEL:SDA25*25-135(180)-3
 50
0.000000
 41
1.052632
 51
0.000000
  7
STANDARD
  0
TEXT
  8
0
 10
-533.285156
 20
290.250000
 40
12.500000
  1
STROKE:15,25,50
 50
0.000000
 41
1.052632
 51
0.000000
  7
STANDARD
  0
TEXT
  8
0
 10
-533.285156
 20
310.250000
 40
12.500000
  1
(WITH SENSOR SWITCH)
 50
0.000000
 41
1.052632
 51
0.000000
  7
STANDARD
  0
TEXT
  8
0
 10
36.214844
 20
290.250000
 40
12.500000
  1
STROKE:15,25,50
 50
0.000000
 41
1.052632
 51
0.000000
  7
STANDARD
  0
TEXT
  8
0
 10
36.214844
 20
310.250000
 40
12.500000
  1
(WITH SENSOR SWITCH)
 50
0.000000
 41
1.052632
 51
0.000000
  7
STANDARD
  0
TEXT
  8
0
 10
212.690948
 20
-364.793915
 40
9.000000
  1
N
 50
0.000000
 41
1.052632
 51
0.000000
  7
STANDARD
  0
TEXT
  8
0
 10
-374.142426
 20
-364.793915
 40
9.000000
  1
N
 50
0.000000
 41
1.052632
 51
0.000000
  7
STANDARD
  0
TEXT
  8
0
 62
     2
 10
274.714264
 20
144.472214
 40
9.000000
  1
60+ST
 50
0.000000
 41
1.052632
 51
0.000000
  7
STANDARD
  0
LINE
  8
0
 62
     2
 10
340.749969
 20
143.472214
 11
255.749969
 21
143.472214
  0
LINE
  8
0
 62
     2
 10
340.749969
 20
143.472214
 11
337.852203
 21
142.695755
  0
LINE
  8
0
 62
     2
 10
340.749969
 20
143.472214
 11
337.852203
 21
144.248672
  0
LINE
  8
0
 62
     2
 10
255.749969
 20
143.472214
 11
258.647736
 21
144.248672
  0
LINE
  8
0
 62
     2
 10
255.749969
 20
143.472214
 11
258.647736
 21
142.695755
  0
LINE
  8
0
 62
     2
 10
340.749969
 20
73.500000
 11
340.749969
 21
144.972214
  0
LINE
  8
0
 62
     2
 10
255.749969
 20
114.500000
 11
255.749969
 21
144.972214
  0
TEXT
  8
0
 62
     2
 10
233.714279
 20
164.472214
 40
9.000000
  1
133+ST
 50
0.000000
 41
1.052632
 51
0.000000
  7
STANDARD
  0
LINE
  8
0
 62
     2
 10
340.749969
 20
163.472214
 11
182.750000
 21
163.472214
  0
LINE
  8
0
 62
     2
 10
340.749969
 20
163.472214
 11
337.852203
 21
162.695755
  0
LINE
  8
0
 62
     2
 10
340.749969
 20
163.472214
 11
337.852203
 21
164.248672
  0
LINE
  8
0
 62
     2
 10
182.750000
 20
163.472214
 11
185.647781
 21
164.248672
  0
LINE
  8
0
 62
     2
 10
182.750000
 20
163.472214
 11
185.647781
 21
162.695755
  0
LINE
  8
0
 62
     2
 10
340.749969
 20
73.500000
 11
340.749969
 21
164.972214
  0
LINE
  8
0
 62
     2
 10
182.750000
 20
67.199997
 11
182.750000
 21
164.972214
  0
TEXT
  8
0
 62
     2
 10
-355.785706
 20
164.472214
 40
9.000000
  1
133+ST
 50
0.000000
 41
1.052632
 51
0.000000
  7
STANDARD
  0
LINE
  8
0
 62
     2
 10
-248.750031
 20
163.472214
 11
-406.750000
 21
163.472214
  0
LINE
  8
0
 62
     2
 10
-248.750031
 20
163.472214
 11
-251.647812
 21
162.695755
  0
LINE
  8
0
 62
     2
 10
-248.750031
 20
163.472214
 11
-251.647812
 21
164.248672
  0
LINE
  8
0
 62
     2
 10
-406.750000
 20
163.472214
 11
-403.852234
 21
164.248672
  0
LINE
  8
0
 62
     2
 10
-406.750000
 20
163.472214
 11
-403.852234
 21
162.695755
  0
LINE
  8
0
 62
     2
 10
-248.750031
 20
73.500000
 11
-248.750031
 21
164.972214
  0
LINE
  8
0
 62
     2
 10
-406.750000
 20
67.199997
 11
-406.750000
 21
164.972214
  0
TEXT
  8
0
 62
     2
 10
-314.785736
 20
144.472214
 40
9.000000
  1
60+ST
 50
0.000000
 41
1.052632
 51
0.000000
  7
STANDARD
  0
LINE
  8
0
 62
     2
 10
-248.750031
 20
143.472214
 11
-333.750031
 21
143.472214
  0
LINE
  8
0
 62
     2
 10
-248.750031
 20
143.472214
 11
-251.647812
 21
142.695755
  0
LINE
  8
0
 62
     2
 10
-248.750031
 20
143.472214
 11
-251.647812
 21
144.248672
  0
LINE
  8
0
 62
     2
 10
-333.750031
 20
143.472214
 11
-330.852264
 21
144.248672
  0
LINE
  8
0
 62
     2
 10
-333.750031
 20
143.472214
 11
-330.852264
 21
142.695755
  0
LINE
  8
0
 62
     2
 10
-248.750031
 20
73.500000
 11
-248.750031
 21
144.972214
  0
LINE
  8
0
 62
     2
 10
-333.750031
 20
114.500000
 11
-333.750031
 21
144.972214
  0
ENDSEC
  0
EOF
