  0
SECTION
  2
HEADER
  0
ENDSEC
  0
SECTION
  2
TABLES
  0
TABLE
  2
LTYPE
 70
     4
  0
LTYPE
  2
CONTINUOUS
 70
    64
  3
Solid line
 72
    65
 73
     0
 40
0.000000
  0
LTYPE
  2
DASHED
 70
    64
  3
__ __ __ __ __ __ __ __ __ __ __ __ __ __ __
 72
    65
 73
     2
 40
3.500000
 49
2.000000
 49
-1.500000
  0
LTYPE
  2
CENTER
 70
    64
  3
____ _ ____ _ ____ _ ____ _ ____ _ ____ _ ____
 72
    65
 73
     4
 40
17.500000
 49
13.000000
 49
-1.500000
 49
1.500000
 49
-1.500000
  0
LTYPE
  2
PHANTOM
 70
    64
  3
_____ _ _ _____ _ _ _____ _ _ _____ _ _ ____  
 72
    65
 73
     6
 40
15.500000
 49
8.000000
 49
-1.500000
 49
1.500000
 49
-1.500000
 49
1.500000
 49
-1.500000
  0
LTYPE
  2
DASHED1
 70
    64
  3
__ __ __ __ __ __ __ __ __ __ __ __ __ __ __
 72
    65
 73
     2
 40
1.500000
 49
1.000000
 49
-0.500000
  0
LTYPE
  2
DASHED2
 70
    64
  3
__ __ __ __ __ __ __ __ __ __ __ __ __ __ __
 72
    65
 73
     2
 40
3.500000
 49
2.500000
 49
-1.000000
  0
LTYPE
  2
DASHED3
 70
    64
  3
__ __ __ __ __ __ __ __ __ __ __ __ __ __ __
 72
    65
 73
     2
 40
6.000000
 49
4.000000
 49
-2.000000
  0
LTYPE
  2
DASHED4
 70
    64
  3
__ __ __ __ __ __ __ __ __ __ __ __ __ __ __
 72
    65
 73
     2
 40
12.000000
 49
10.000000
 49
-2.000000
  0
LTYPE
  2
DASHED5
 70
    64
  3
__ __ __ __ __ __ __ __ __ __ __ __ __ __ __
 72
    65
 73
     2
 40
17.000000
 49
15.000000
 49
-2.000000
  0
LTYPE
  2
DASHED6
 70
    64
  3
__ __ __ __ __ __ __ __ __ __ __ __ __ __ __
 72
    65
 73
     2
 40
29.000000
 49
27.000000
 49
-2.000000
  0
LTYPE
  2
PHANTOM1
 70
    64
  3
_____ _ _ _____ _ _ _____ _ _ _____ _ _ ____  
 72
    65
 73
     6
 40
31.000000
 49
25.000000
 49
-1.500000
 49
1.000000
 49
-1.000000
 49
1.000000
 49
-1.500000
  0
LTYPE
  2
PHANTOM2
 70
    64
  3
_____ _ _ _____ _ _ _____ _ _ _____ _ _ ____  
 72
    65
 73
     6
 40
36.000000
 49
27.000000
 49
-1.500000
 49
2.500000
 49
-1.000000
 49
2.500000
 49
-1.500000
  0
LTYPE
  2
PHANTOM3
 70
    64
  3
_____ _ _ _____ _ _ _____ _ _ _____ _ _ ____  
 72
    65
 73
     6
 40
78.000000
 49
64.000000
 49
-2.000000
 49
4.000000
 49
-2.000000
 49
4.000000
 49
-2.000000
  0
LTYPE
  2
CENTER1
 70
    64
  3
____ _ ____ _ ____ _ ____ _ ____ _ ____ _ ____
 72
    65
 73
     4
 40
19.000000
 49
14.000000
 49
-1.000000
 49
3.000000
 49
-1.000000
  0
LTYPE
  2
CENTER2
 70
    64
  3
____ _ ____ _ ____ _ ____ _ ____ _ ____ _ ____
 72
    65
 73
     4
 40
28.500000
 49
25.000000
 49
-1.000000
 49
1.500000
 49
-1.000000
  0
LTYPE
  2
CENTER3
 70
    64
  3
____ _ ____ _ ____ _ ____ _ ____ _ ____ _ ____
 72
    65
 73
     4
 40
31.500000
 49
27.000000
 49
-1.000000
 49
2.500000
 49
-1.000000
  0
LTYPE
  2
CENTER4
 70
    64
  3
____ _ ____ _ ____ _ ____ _ ____ _ ____ _ ____
 72
    65
 73
     4
 40
50.000000
 49
45.000000
 49
-1.000000
 49
3.000000
 49
-1.000000
  0
LTYPE
  2
CENTER5
 70
    64
  3
____ _ ____ _ ____ _ ____ _ ____ _ ____ _ ____
 72
    65
 73
     4
 40
100.000000
 49
92.000000
 49
-2.000000
 49
4.000000
 49
-2.000000
  0
LTYPE
  2
SBK1
 70
    64
  3
______ _ _ _ ______ _ _ _ ______ _ _ _ _____  
 72
    65
 73
     8
 40
60.500000
 49
45.000000
 49
-2.000000
 49
2.500000
 49
-2.000000
 49
2.500000
 49
-2.000000
 49
2.500000
 49
-2.000000
  0
LTYPE
  2
SBK2
 70
    64
  3
______ _ _ _ ______ _ _ _ ______ _ _ _ _____  
 72
    65
 73
     8
 40
84.000000
 49
64.000000
 49
-2.000000
 49
4.000000
 49
-2.000000
 49
4.000000
 49
-2.000000
 49
4.000000
 49
-2.000000
  0
LTYPE
  2
STCH
 70
    64
  3
__ __ __ __ __ __ __ __ __ __ __ __ __ __ __
 72
    65
 73
     2
 40
3.000000
 49
1.000000
 49
-2.000000
  0
LTYPE
  2
MTCH
 70
    64
  3
_____ _ _ _____ _ _ _____ _ _ _____ _ _ ____  
 72
    65
 73
     6
 40
80.000000
 49
66.000000
 49
-2.000000
 49
4.000000
 49
-2.000000
 49
4.000000
 49
-2.000000
  0
ENDTAB
  0
TABLE
  2
LAYER
 70
     1
  0
LAYER
  2
0
 70
     0
 62
     7
  6
CONTINUOUS
  0
ENDTAB
  0
TABLE
  2
STYLE
 70
     1
  0
STYLE
  2
STANDARD
 70
     0
 40
0.000000
 41
1.000000
 50
0.000000
 71
     0
 42
0.200000
  3
txt
  4
BIGFONT
  0
ENDTAB
  0
TABLE
  2
VIEW
 70
     0
  0
ENDTAB
  0
ENDSEC
  0
SECTION
  2
BLOCKS
  0
ENDSEC
  0
SECTION
  2
ENTITIES
  0
LINE
  8
0
 10
574.500000
 20
400.500000
 11
574.500000
 21
-400.500000
  0
LINE
  8
0
 10
-564.500000
 20
400.500000
 11
574.500000
 21
400.500000
  0
LINE
  8
0
 10
-564.500000
 20
-400.500000
 11
574.500000
 21
-400.500000
  0
LINE
  8
0
 10
-564.500000
 20
400.500000
 11
-564.500000
 21
-400.500000
  0
LINE
  8
0
 10
-564.500000
 20
370.500000
 11
-334.500000
 21
370.500000
  0
LINE
  8
0
 10
344.500000
 20
370.500000
 11
574.500000
 21
370.500000
  0
LINE
  8
0
 10
344.500000
 20
-370.500000
 11
574.500000
 21
-370.500000
  0
LINE
  8
0
 10
344.500000
 20
-370.500000
 11
344.500000
 21
-400.500000
  0
LINE
  8
0
 10
344.500000
 20
400.500000
 11
344.500000
 21
370.500000
  0
LINE
  8
0
 10
-334.500000
 20
400.500000
 11
-334.500000
 21
370.500000
  0
LINE
  8
0
 10
298.250000
 20
-274.890045
 11
298.250000
 21
-334.814148
  0
LINE
  8
0
 10
-291.750000
 20
-289.774506
 11
-291.750000
 21
-320.374512
  0
LINE
  8
0
 10
-288.750000
 20
-321.074524
 11
-291.049988
 21
-321.074524
  0
LINE
  8
0
 10
-288.750000
 20
-289.074524
 11
-291.049988
 21
-289.074524
  0
LINE
  8
0
 10
-291.049988
 20
-289.074524
 11
-291.049988
 21
-321.074524
  0
LINE
  8
0
 10
-291.049927
 20
-289.074554
 11
-291.749908
 21
-289.774536
  0
LINE
  8
0
 10
-291.050323
 20
-321.074738
 11
-291.750275
 21
-320.374725
  0
LINE
  8
0
 10
-288.750000
 20
-287.394012
 11
-288.750000
 21
-323.300140
  0
LINE
  8
0
 10
195.892883
 20
-365.693909
 11
205.892883
 21
-365.693909
  0
LINE
  8
0
 10
290.250000
 20
-278.074188
 11
290.250000
 21
-332.074188
  0
LINE
  8
0
 10
290.250000
 20
-278.074188
 11
298.250000
 21
-278.074188
  0
LINE
  8
0
 10
290.250000
 20
-280.074188
 11
298.250000
 21
-280.074188
  0
LINE
  8
0
  6
CENTER
 62
     2
 10
288.866333
 20
-285.074188
 11
300.838135
 21
-285.074188
  0
LINE
  8
0
  6
CENTER
 62
     2
 10
288.866333
 20
-325.074188
 11
300.838135
 21
-325.074188
  0
LINE
  8
0
 10
290.250000
 20
-330.074188
 11
298.250000
 21
-330.074188
  0
LINE
  8
0
 10
290.250000
 20
-332.074188
 11
298.250000
 21
-332.074188
  0
LINE
  8
0
 10
5.000000
 20
400.500000
 11
5.000000
 21
-400.500000
  0
LINE
  8
0
 10
-373.607117
 20
-365.693909
 11
-363.607117
 21
-365.693909
  0
LINE
  8
0
  6
CENTER
 62
     2
 10
-216.750000
 20
64.000000
 11
-402.622925
 21
64.000000
  0
LINE
  8
0
  6
CENTER
 62
     2
 10
-338.750000
 20
133.357376
 11
-338.750000
 21
-5.545593
  0
LINE
  8
0
 10
-364.750000
 20
112.000046
 11
-364.750000
 21
15.999989
  0
LINE
  8
0
 10
-312.750000
 20
112.000046
 11
-312.750000
 21
15.999989
  0
LINE
  8
0
 10
-312.750000
 20
112.000061
 11
-337.182983
 21
112.000061
  0
LINE
  8
0
 10
-312.750000
 20
16.000000
 11
-337.182922
 21
16.000000
  0
LINE
  8
0
  6
CENTER
 62
     2
 10
-316.250000
 20
37.000000
 11
-331.250000
 21
37.000000
  0
LINE
  8
0
  6
CENTER
 62
     2
 10
-323.750000
 20
46.223995
 11
-323.750000
 21
28.312431
  0
LINE
  8
0
  6
CENTER
 62
     2
 10
-323.750000
 20
83.499985
 11
-323.750000
 21
98.499985
  0
LINE
  8
0
  6
CENTER
 62
     2
 10
-316.250000
 20
91.000000
 11
-331.250000
 21
91.000000
  0
LINE
  8
0
  6
CENTER
 62
     2
 10
-353.750000
 20
46.223995
 11
-353.750000
 21
28.590134
  0
LINE
  8
0
  6
CENTER
 62
     2
 10
-361.250000
 20
37.000000
 11
-346.250000
 21
37.000000
  0
LINE
  8
0
  6
CENTER
 62
     2
 10
-353.750000
 20
83.499985
 11
-353.750000
 21
98.499985
  0
LINE
  8
0
  6
CENTER
 62
     2
 10
-361.250000
 20
91.000000
 11
-346.250000
 21
91.000000
  0
LINE
  8
0
 10
-314.303101
 20
120.000000
 11
-363.196899
 21
120.000000
  0
LINE
  8
0
 10
-313.424988
 20
115.200043
 11
-324.516968
 21
115.200043
  0
LINE
  8
0
 10
-313.250000
 20
113.200012
 11
-364.250000
 21
113.200012
  0
LINE
  8
0
 10
-313.250000
 20
113.200027
 11
-313.250000
 21
112.000031
  0
LINE
  8
0
 10
-364.250000
 20
113.200027
 11
-364.250000
 21
112.000031
  0
LINE
  8
0
 10
-352.983032
 20
115.200043
 11
-364.075012
 21
115.200043
  0
LINE
  8
0
 10
-313.250061
 20
113.200035
 11
-313.805054
 21
119.543633
  0
LINE
  8
0
 10
-325.314026
 20
115.930267
 11
-325.574219
 21
118.904564
  0
LINE
  8
0
 10
-352.185913
 20
115.930267
 11
-351.925720
 21
118.904610
  0
LINE
  8
0
 10
-364.249939
 20
113.199959
 11
-363.694885
 21
119.543564
  0
LINE
  8
0
 10
-324.500000
 20
117.674057
 11
-324.500000
 21
116.500031
  0
LINE
  8
0
 10
-315.000000
 20
117.674057
 11
-315.000000
 21
116.500031
  0
LINE
  8
0
 10
-324.500000
 20
116.500000
 11
-315.000000
 21
116.500000
  0
LINE
  8
0
 10
-324.250000
 20
116.500031
 11
-324.250000
 21
115.200027
  0
LINE
  8
0
 10
-315.250000
 20
116.500031
 11
-315.250000
 21
115.200027
  0
LINE
  8
0
 10
-362.500000
 20
117.674057
 11
-362.500000
 21
116.500031
  0
LINE
  8
0
 10
-353.000000
 20
117.674057
 11
-353.000000
 21
116.500031
  0
LINE
  8
0
 10
-362.500000
 20
116.500000
 11
-353.000000
 21
116.500000
  0
LINE
  8
0
 10
-362.250000
 20
116.500031
 11
-362.250000
 21
115.200027
  0
LINE
  8
0
 10
-353.250000
 20
116.500031
 11
-353.250000
 21
115.200027
  0
LINE
  8
0
 10
-313.424988
 20
12.799988
 11
-324.516968
 21
12.799988
  0
LINE
  8
0
 10
-313.250000
 20
14.799988
 11
-364.250000
 21
14.799988
  0
LINE
  8
0
 10
-313.250000
 20
14.799995
 11
-313.250000
 21
15.999989
  0
LINE
  8
0
 10
-364.250000
 20
14.799995
 11
-364.250000
 21
15.999989
  0
LINE
  8
0
 10
-352.983032
 20
12.799988
 11
-364.075012
 21
12.799988
  0
LINE
  8
0
 10
-313.250244
 20
14.800039
 11
-313.805237
 21
8.456442
  0
LINE
  8
0
 10
-325.314178
 20
12.069721
 11
-325.574371
 21
9.095412
  0
LINE
  8
0
 10
-352.185852
 20
12.069730
 11
-351.925659
 21
9.095417
  0
LINE
  8
0
 10
-364.250580
 20
14.799963
 11
-363.695526
 21
8.456379
  0
LINE
  8
0
 10
-324.500000
 20
10.325970
 11
-324.500000
 21
11.499992
  0
LINE
  8
0
 10
-315.000000
 20
10.325970
 11
-315.000000
 21
11.499992
  0
LINE
  8
0
 10
-324.500000
 20
11.500000
 11
-315.000000
 21
11.500000
  0
LINE
  8
0
 10
-324.250000
 20
11.499992
 11
-324.250000
 21
12.799992
  0
LINE
  8
0
 10
-315.250000
 20
11.499992
 11
-315.250000
 21
12.799992
  0
LINE
  8
0
 10
-362.500000
 20
10.325970
 11
-362.500000
 21
11.499992
  0
LINE
  8
0
 10
-353.000000
 20
10.325970
 11
-353.000000
 21
11.499992
  0
LINE
  8
0
 10
-362.500000
 20
11.500000
 11
-353.000000
 21
11.500000
  0
LINE
  8
0
 10
-362.250000
 20
11.499992
 11
-362.250000
 21
12.799992
  0
LINE
  8
0
 10
-353.250000
 20
11.499992
 11
-353.250000
 21
12.799992
  0
LINE
  8
0
 10
-332.250000
 20
125.000000
 11
-345.250000
 21
125.000000
  0
LINE
  8
0
 10
-331.244446
 20
124.419495
 11
-331.244446
 21
120.580582
  0
LINE
  8
0
 10
-346.255554
 20
124.419449
 11
-346.255554
 21
120.580582
  0
LINE
  8
0
 10
-334.997192
 20
124.419495
 11
-334.997192
 21
120.580566
  0
LINE
  8
0
 10
-342.502747
 20
124.419495
 11
-342.502747
 21
120.580582
  0
LINE
  8
0
 10
-332.250183
 20
124.999748
 11
-331.244629
 21
124.419182
  0
LINE
  8
0
 10
-345.250214
 20
125.000458
 11
-346.255737
 21
124.419937
  0
LINE
  8
0
 10
-332.250275
 20
120.000412
 11
-331.244690
 21
120.580963
  0
LINE
  8
0
 10
-345.250000
 20
120.000168
 11
-346.255463
 21
120.580673
  0
LINE
  8
0
 10
-335.250000
 20
129.500061
 11
-342.250000
 21
129.500061
  0
LINE
  8
0
 10
-342.750000
 20
129.000031
 11
-342.750000
 21
125.000031
  0
LINE
  8
0
 10
-334.750000
 20
129.000031
 11
-334.750000
 21
125.000031
  0
LINE
  8
0
 10
-334.750000
 20
129.000000
 11
-335.249969
 21
129.500015
  0
LINE
  8
0
 10
-342.749451
 20
128.999481
 11
-342.249420
 21
129.499512
  0
LINE
  8
0
 10
-334.750000
 20
129.000031
 11
-342.750000
 21
129.000031
  0
LINE
  8
0
 62
     2
 10
-335.426514
 20
129.500015
 11
-335.426514
 21
125.000031
  0
LINE
  8
0
 62
     2
 10
-342.073486
 20
129.500015
 11
-342.073486
 21
125.000031
  0
LINE
  8
0
 10
-314.303101
 20
8.000000
 11
-363.196899
 21
8.000000
  0
LINE
  8
0
 10
-332.250000
 20
3.000000
 11
-345.250000
 21
3.000000
  0
LINE
  8
0
 10
-331.244446
 20
3.580544
 11
-331.244446
 21
7.419437
  0
LINE
  8
0
 10
-346.255554
 20
3.580559
 11
-346.255554
 21
7.419437
  0
LINE
  8
0
 10
-334.997192
 20
3.580544
 11
-334.997192
 21
7.419453
  0
LINE
  8
0
 10
-342.502747
 20
3.580544
 11
-342.502747
 21
7.419437
  0
LINE
  8
0
 10
-332.250153
 20
3.000193
 11
-331.244629
 21
3.580706
  0
LINE
  8
0
 10
-345.250153
 20
2.999847
 11
-346.255737
 21
3.580394
  0
LINE
  8
0
 10
-332.250092
 20
7.999862
 11
-331.244507
 21
7.419311
  0
LINE
  8
0
 10
-345.250183
 20
8.000157
 11
-346.255707
 21
7.419635
  0
LINE
  8
0
 10
-335.250000
 20
-1.500000
 11
-342.250000
 21
-1.500000
  0
LINE
  8
0
 10
-342.750000
 20
-1.000008
 11
-342.750000
 21
2.999992
  0
LINE
  8
0
 10
-334.750000
 20
-1.000008
 11
-334.750000
 21
2.999992
  0
LINE
  8
0
 10
-334.749908
 20
-1.000186
 11
-335.249817
 21
-1.500156
  0
LINE
  8
0
 10
-342.750031
 20
-1.000045
 11
-342.250092
 21
-1.500020
  0
LINE
  8
0
 10
-334.750000
 20
-1.000000
 11
-342.750000
 21
-1.000000
  0
LINE
  8
0
 62
     2
 10
-335.426514
 20
-1.500015
 11
-335.426514
 21
2.999992
  0
LINE
  8
0
 62
     2
 10
-342.073486
 20
-1.500015
 11
-342.073486
 21
2.999992
  0
LINE
  8
0
 10
-299.750000
 20
95.999985
 11
-299.750000
 21
31.999996
  0
LINE
  8
0
 10
-299.750000
 20
96.000000
 11
-312.750000
 21
96.000000
  0
LINE
  8
0
 10
-299.750000
 20
85.166016
 11
-312.750000
 21
85.166016
  0
LINE
  8
0
 10
-299.750000
 20
42.833984
 11
-312.750000
 21
42.833984
  0
LINE
  8
0
 10
-299.750000
 20
32.000000
 11
-312.750000
 21
32.000000
  0
LINE
  8
0
  6
CENTER
 62
     2
 10
-306.250000
 20
71.142845
 11
-306.250000
 21
57.142853
  0
LINE
  8
0
 10
-219.750000
 20
75.000000
 11
-219.750000
 21
52.999992
  0
LINE
  8
0
 10
-219.750000
 20
53.000000
 11
-225.750000
 21
53.000000
  0
LINE
  8
0
 10
-219.750000
 20
75.000000
 11
-225.750000
 21
75.000000
  0
LINE
  8
0
 10
-220.750000
 20
75.000000
 11
-220.750000
 21
52.999992
  0
LINE
  8
0
 10
-225.750000
 20
84.799988
 11
-225.750000
 21
75.000000
  0
LINE
  8
0
 10
-225.750000
 20
52.999992
 11
-225.750000
 21
43.200012
  0
LINE
  8
0
 10
-225.750000
 20
84.799988
 11
-242.750000
 21
84.799988
  0
LINE
  8
0
 10
-225.750000
 20
43.200012
 11
-242.750000
 21
43.200012
  0
LINE
  8
0
 62
     4
 10
-398.750000
 20
69.287567
 11
-398.750000
 21
58.712448
  0
LINE
  8
0
 62
     4
 10
-367.750000
 20
57.500000
 11
-385.750000
 21
57.500000
  0
LINE
  8
0
 62
     4
 10
-367.750000
 20
70.500000
 11
-385.750000
 21
70.500000
  0
LINE
  8
0
 62
     4
 10
-398.049988
 20
70.500000
 11
-398.049988
 21
57.500008
  0
LINE
  8
0
 62
     4
 10
-398.050079
 20
70.500038
 11
-398.750061
 21
69.287613
  0
LINE
  8
0
 62
     4
 10
-398.050232
 20
57.499889
 11
-398.750214
 21
58.712288
  0
LINE
  8
0
 62
     4
 10
-375.750000
 20
70.500000
 11
-375.750000
 21
66.598076
  0
LINE
  8
0
 62
     4
 10
-375.750000
 20
66.598083
 11
-385.750000
 21
66.598083
  0
LINE
  8
0
 62
     4
 10
-375.750000
 20
61.401917
 11
-385.750000
 21
61.401917
  0
LINE
  8
0
 62
     4
 10
-375.750000
 20
61.401917
 11
-375.750000
 21
57.500008
  0
LINE
  8
0
 62
     4
 10
-398.049805
 20
66.597900
 11
-398.749817
 21
65.897865
  0
LINE
  8
0
 62
     4
 10
-398.050018
 20
61.401863
 11
-398.750031
 21
62.101830
  0
LINE
  8
0
 62
     4
 10
-375.749664
 20
66.597893
 11
-373.496735
 21
70.500031
  0
LINE
  8
0
 62
     4
 10
-375.749451
 20
61.402199
 11
-373.496613
 21
57.500092
  0
LINE
  8
0
 62
     1
 10
-375.750000
 20
58.082520
 11
-385.750000
 21
58.082520
  0
LINE
  8
0
 62
     1
 10
-375.750000
 20
69.917511
 11
-385.750000
 21
69.917511
  0
LINE
  8
0
 62
     1
 10
-375.749786
 20
69.917175
 11
-374.740906
 21
70.499695
  0
LINE
  8
0
 62
     1
 10
-375.750031
 20
58.082504
 11
-374.741119
 21
57.500023
  0
LINE
  8
0
 62
     4
 10
-385.750000
 20
73.499985
 11
-385.750000
 21
54.500000
  0
LINE
  8
0
 62
     4
 10
-393.750000
 20
70.500000
 11
-398.049988
 21
70.500000
  0
LINE
  8
0
 62
     1
 10
-393.750000
 20
69.917511
 11
-398.386292
 21
69.917511
  0
LINE
  8
0
 62
     4
 10
-393.750000
 20
66.598083
 11
-398.049988
 21
66.598083
  0
LINE
  8
0
 62
     4
 10
-393.750000
 20
61.401917
 11
-398.049988
 21
61.401917
  0
LINE
  8
0
 62
     1
 10
-393.750000
 20
58.082520
 11
-398.386292
 21
58.082520
  0
LINE
  8
0
 62
     4
 10
-393.750000
 20
57.500000
 11
-398.049988
 21
57.500000
  0
LINE
  8
0
 62
     4
 10
-386.598511
 20
74.969666
 11
-392.901489
 21
74.969666
  0
LINE
  8
0
 62
     4
 10
-386.598511
 20
69.484802
 11
-392.901489
 21
69.484802
  0
LINE
  8
0
 62
     4
 10
-386.598511
 20
58.515167
 11
-392.901489
 21
58.515167
  0
LINE
  8
0
 62
     4
 10
-385.749939
 20
73.499985
 11
-386.598450
 21
74.969650
  0
LINE
  8
0
 62
     4
 10
-385.750458
 20
54.500202
 11
-386.598969
 21
53.030540
  0
LINE
  8
0
 62
     4
 10
-386.598511
 20
53.030334
 11
-392.901489
 21
53.030334
  0
LINE
  8
0
 62
     4
 10
-393.750000
 20
54.499928
 11
-392.901520
 21
53.030262
  0
LINE
  8
0
 62
     4
 10
-393.750000
 20
73.499985
 11
-393.750000
 21
54.500000
  0
LINE
  8
0
 62
     4
 10
-393.750122
 20
73.500137
 11
-392.901611
 21
74.969803
  0
LINE
  8
0
 10
-367.750000
 20
79.300003
 11
-367.750000
 21
48.699989
  0
LINE
  8
0
 10
-364.750000
 20
48.000000
 11
-367.050049
 21
48.000000
  0
LINE
  8
0
 10
-364.750000
 20
80.000000
 11
-367.050049
 21
80.000000
  0
LINE
  8
0
 10
-367.050049
 20
80.000000
 11
-367.050049
 21
47.999992
  0
LINE
  8
0
 10
-367.049988
 20
47.999977
 11
-367.750031
 21
48.700005
  0
LINE
  8
0
 10
-367.050110
 20
80.000130
 11
-367.750244
 21
79.300095
  0
LINE
  8
0
 10
-231.750000
 20
84.799988
 11
-231.750000
 21
43.200012
  0
LINE
  8
0
 10
-340.317139
 20
16.000000
 11
-364.750000
 21
16.000000
  0
LINE
  8
0
 10
-340.317108
 20
112.000061
 11
-364.750000
 21
112.000061
  0
LINE
  8
0
 10
-250.750000
 20
43.200012
 11
-266.750000
 21
43.200012
  0
LINE
  8
0
 10
-274.750000
 20
43.200012
 11
-299.750000
 21
43.200012
  0
LINE
  8
0
 10
-274.750000
 20
84.799988
 11
-299.750000
 21
84.799988
  0
LINE
  8
0
 10
-250.750000
 20
84.799988
 11
-266.750000
 21
84.799988
  0
LINE
  8
0
 62
     4
 10
-275.250000
 20
89.000000
 11
-266.250000
 21
89.000000
  0
LINE
  8
0
 62
     4
 10
-272.750000
 20
92.500000
 11
-268.750000
 21
92.500000
  0
LINE
  8
0
 62
     4
 10
-273.000000
 20
94.999992
 11
-268.500000
 21
94.999992
  0
LINE
  8
0
 62
     4
 10
-275.750000
 20
95.999992
 11
-273.000000
 21
95.999992
  0
LINE
  8
0
 62
     4
 10
-275.750000
 20
89.500000
 11
-275.750000
 21
95.999992
  0
LINE
  8
0
 62
     4
 10
-265.750000
 20
89.500000
 11
-265.750000
 21
95.999992
  0
LINE
  8
0
 62
     4
 10
-272.750000
 20
94.999992
 11
-272.750000
 21
92.500000
  0
LINE
  8
0
 62
     4
 10
-268.750000
 20
94.999992
 11
-268.750000
 21
92.500000
  0
LINE
  8
0
 62
     4
 10
-273.000000
 20
95.999992
 11
-273.000000
 21
94.385490
  0
LINE
  8
0
 62
     4
 10
-268.500000
 20
95.999992
 11
-268.500000
 21
94.385490
  0
LINE
  8
0
 62
     4
 10
-268.500000
 20
95.999992
 11
-265.750000
 21
95.999992
  0
LINE
  8
0
 62
     4
 10
-273.176727
 20
93.999992
 11
-272.750000
 21
93.999992
  0
LINE
  8
0
 62
     4
 10
-268.750000
 20
93.999992
 11
-268.323303
 21
93.999992
  0
LINE
  8
0
 62
     4
 10
-265.750000
 20
91.685486
 11
-259.750000
 21
91.685486
  0
LINE
  8
0
 62
     4
 10
-274.750000
 20
43.049988
 11
-266.750000
 21
43.049988
  0
LINE
  8
0
 62
     4
 10
-274.750000
 20
89.000000
 11
-274.750000
 21
43.049988
  0
LINE
  8
0
 62
     4
 10
-266.750000
 20
89.000000
 11
-266.750000
 21
43.049988
  0
LINE
  8
0
 62
     4
 10
-257.750000
 20
86.485504
 11
-252.750000
 21
86.485504
  0
LINE
  8
0
 62
     1
 10
-269.500000
 20
96.985497
 11
-269.500000
 21
94.999992
  0
LINE
  8
0
 62
     4
 10
-341.549988
 20
97.000046
 11
-341.549988
 21
105.000046
  0
LINE
  8
0
 62
     4
 10
-325.750000
 20
102.500046
 11
-326.250000
 21
102.500046
  0
LINE
  8
0
 62
     4
 10
-325.750000
 20
99.500046
 11
-326.250000
 21
99.500046
  0
LINE
  8
0
 62
     4
 10
-326.250000
 20
104.000046
 11
-340.750000
 21
104.000046
  0
LINE
  8
0
 62
     4
 10
-326.250000
 20
98.000046
 11
-340.750000
 21
98.000046
  0
LINE
  8
0
 62
     4
 10
-312.750000
 20
105.000046
 11
-341.549988
 21
105.000046
  0
LINE
  8
0
 62
     4
 10
-312.750000
 20
97.000046
 11
-341.549988
 21
97.000046
  0
LINE
  8
0
 62
     4
 10
-312.750000
 20
97.000046
 11
-312.750000
 21
105.000046
  0
LINE
  8
0
 62
     4
 10
-324.750000
 20
97.000046
 11
-324.750000
 21
105.000046
  0
LINE
  8
0
 62
     4
 10
-326.250000
 20
98.000046
 11
-326.250000
 21
104.000046
  0
LINE
  8
0
 62
     4
 10
-325.750000
 20
99.500046
 11
-325.750000
 21
102.500046
  0
LINE
  8
0
 62
     4
 10
-340.750000
 20
98.000046
 11
-340.750000
 21
104.000046
  0
LINE
  8
0
 62
     4
 10
-330.810669
 20
99.939384
 11
-328.689362
 21
102.060707
  0
LINE
  8
0
 62
     4
 10
-328.689362
 20
99.939392
 11
-330.810699
 21
102.060715
  0
LINE
  8
0
 62
     4
 10
-340.750000
 20
111.250046
 11
-340.750000
 21
105.000046
  0
LINE
  8
0
 62
     4
 10
-337.616028
 20
112.750046
 11
-339.883972
 21
112.750046
  0
LINE
  8
0
 62
     4
 10
-340.750031
 20
111.250084
 11
-339.884003
 21
112.750092
  0
LINE
  8
0
 62
     4
 10
-336.749939
 20
111.250084
 11
-337.615967
 21
112.750092
  0
LINE
  8
0
 62
     4
 10
-336.750000
 20
111.250046
 11
-336.750000
 21
105.000046
  0
LINE
  8
0
 62
     4
 10
-336.750000
 20
111.250046
 11
-340.750000
 21
111.250046
  0
LINE
  8
0
 62
     4
 10
-336.750000
 20
90.750046
 11
-340.750000
 21
90.750046
  0
LINE
  8
0
 62
     4
 10
-337.250000
 20
89.750046
 11
-340.250000
 21
89.750046
  0
LINE
  8
0
 62
     4
 10
-340.250000
 20
89.750046
 11
-340.250000
 21
84.750046
  0
LINE
  8
0
 62
     4
 10
-337.250000
 20
89.750046
 11
-337.250000
 21
84.750046
  0
LINE
  8
0
 62
     4
 10
-336.750031
 20
90.750061
 11
-337.250031
 21
89.750053
  0
LINE
  8
0
 62
     4
 10
-340.749969
 20
90.750031
 11
-340.249969
 21
89.750038
  0
LINE
  8
0
 62
     4
 10
-340.750000
 20
97.000046
 11
-340.750000
 21
90.750046
  0
LINE
  8
0
 62
     4
 10
-336.750000
 20
97.000046
 11
-336.750000
 21
90.750046
  0
LINE
  8
0
 62
     4
 10
-336.750000
 20
16.749954
 11
-340.750000
 21
16.749954
  0
LINE
  8
0
 62
     4
 10
-336.750000
 20
37.249954
 11
-340.750000
 21
37.249954
  0
LINE
  8
0
 62
     4
 10
-337.250000
 20
38.249954
 11
-340.250000
 21
38.249954
  0
LINE
  8
0
 62
     4
 10
-336.750000
 20
30.999954
 11
-336.750000
 21
37.249954
  0
LINE
  8
0
 62
     4
 10
-340.750000
 20
30.999954
 11
-340.750000
 21
37.249954
  0
LINE
  8
0
 62
     4
 10
-340.749939
 20
37.249962
 11
-340.249939
 21
38.249954
  0
LINE
  8
0
 62
     4
 10
-336.750000
 20
37.249924
 11
-337.250000
 21
38.249935
  0
LINE
  8
0
 62
     4
 10
-337.250000
 20
38.249954
 11
-337.250000
 21
43.249954
  0
LINE
  8
0
 62
     4
 10
-340.250000
 20
38.249954
 11
-340.250000
 21
43.249954
  0
LINE
  8
0
 62
     4
 10
-336.750000
 20
16.749954
 11
-336.750000
 21
22.999954
  0
LINE
  8
0
 62
     4
 10
-341.549988
 20
30.999954
 11
-341.549988
 21
22.999954
  0
LINE
  8
0
 62
     4
 10
-325.750000
 20
25.499954
 11
-326.250000
 21
25.499954
  0
LINE
  8
0
 62
     4
 10
-325.750000
 20
28.499954
 11
-326.250000
 21
28.499954
  0
LINE
  8
0
 62
     4
 10
-326.250000
 20
23.999954
 11
-340.750000
 21
23.999954
  0
LINE
  8
0
 62
     4
 10
-326.250000
 20
29.999954
 11
-340.750000
 21
29.999954
  0
LINE
  8
0
 62
     4
 10
-312.750000
 20
22.999954
 11
-341.549988
 21
22.999954
  0
LINE
  8
0
 62
     4
 10
-312.750000
 20
30.999954
 11
-341.549988
 21
30.999954
  0
LINE
  8
0
 62
     4
 10
-312.750000
 20
30.999954
 11
-312.750000
 21
22.999954
  0
LINE
  8
0
 62
     4
 10
-324.750000
 20
30.999954
 11
-324.750000
 21
22.999954
  0
LINE
  8
0
 62
     4
 10
-326.250000
 20
29.999954
 11
-326.250000
 21
23.999954
  0
LINE
  8
0
 62
     4
 10
-325.750000
 20
28.499954
 11
-325.750000
 21
25.499954
  0
LINE
  8
0
 62
     4
 10
-340.750000
 20
29.999954
 11
-340.750000
 21
23.999954
  0
LINE
  8
0
 62
     4
 10
-330.810669
 20
28.060614
 11
-328.689331
 21
25.939293
  0
LINE
  8
0
 62
     4
 10
-328.689331
 20
28.060614
 11
-330.810638
 21
25.939293
  0
LINE
  8
0
 62
     4
 10
-340.750000
 20
16.749954
 11
-340.750000
 21
22.999954
  0
LINE
  8
0
 62
     4
 10
-337.616028
 20
15.249954
 11
-339.883972
 21
15.249954
  0
LINE
  8
0
 62
     4
 10
-340.750153
 20
16.749884
 11
-339.884125
 21
15.249894
  0
LINE
  8
0
 62
     4
 10
-336.750000
 20
16.749928
 11
-337.616028
 21
15.249925
  0
LINE
  8
0
 62
     4
 10
-257.750000
 20
89.885498
 11
-252.750000
 21
89.885498
  0
LINE
  8
0
 62
     4
 10
-266.750000
 20
85.185486
 11
-259.750000
 21
85.185486
  0
LINE
  8
0
 62
     4
 10
-244.149994
 20
31.014503
 11
-249.349991
 21
31.014503
  0
LINE
  8
0
 62
     4
 10
-244.949997
 20
29.014503
 11
-246.449997
 21
29.014503
  0
LINE
  8
0
 62
     4
 10
-249.349991
 20
29.814507
 11
-249.349991
 21
31.014503
  0
LINE
  8
0
 62
     4
 10
-244.149994
 20
29.814507
 11
-244.149994
 21
31.014503
  0
LINE
  8
0
 62
     4
 10
-246.449997
 20
30.014503
 11
-246.449997
 21
29.014503
  0
LINE
  8
0
 62
     4
 10
-247.050003
 20
30.014503
 11
-247.050003
 21
29.014503
  0
LINE
  8
0
 62
     4
 10
-246.449997
 20
30.014503
 11
-247.050003
 21
30.014503
  0
LINE
  8
0
 62
     4
 10
-247.050003
 20
29.014503
 11
-248.549988
 21
29.014503
  0
LINE
  8
0
 62
     4
 10
-235.750000
 20
36.314514
 11
-241.750000
 21
36.314514
  0
LINE
  8
0
 62
     4
 10
-257.750000
 20
36.314514
 11
-257.750000
 21
43.200012
  0
LINE
  8
0
 62
     4
 10
-235.750000
 20
36.314514
 11
-235.750000
 21
42.814514
  0
LINE
  8
0
 62
     4
 10
-235.749985
 20
42.814499
 11
-236.135498
 21
43.200008
  0
LINE
  8
0
 62
     4
 10
-235.750000
 20
42.814514
 11
-242.750000
 21
42.814514
  0
LINE
  8
0
 62
     4
 10
-237.250000
 20
36.314514
 11
-237.250000
 21
35.814514
  0
LINE
  8
0
 62
     4
 10
-241.250000
 20
36.314514
 11
-241.250000
 21
35.814514
  0
LINE
  8
0
 62
     4
 10
-237.250000
 20
35.814514
 11
-241.250000
 21
35.814514
  0
LINE
  8
0
 62
     4
 10
-241.207764
 20
35.741398
 11
-241.249969
 21
35.814510
  0
LINE
  8
0
 62
     4
 10
-237.292191
 20
35.741367
 11
-237.249969
 21
35.814491
  0
LINE
  8
0
 62
     4
 10
-257.750000
 20
37.314514
 11
-259.750000
 21
37.314514
  0
LINE
  8
0
 62
     4
 10
-257.750000
 20
42.314514
 11
-259.750000
 21
42.314514
  0
LINE
  8
0
 62
     4
 10
-259.750000
 20
37.314514
 11
-259.750000
 21
42.314514
  0
LINE
  8
0
 62
     4
 10
-248.250000
 20
31.014503
 11
-248.250000
 21
32.000008
  0
LINE
  8
0
 62
     4
 10
-245.250000
 20
31.014503
 11
-245.250000
 21
32.000008
  0
LINE
  8
0
 62
     1
 10
-245.500000
 20
31.014503
 11
-245.500000
 21
32.000008
  0
LINE
  8
0
 62
     1
 10
-248.000000
 20
31.014503
 11
-248.000000
 21
32.000008
  0
LINE
  8
0
 62
     4
 10
-242.250000
 20
39.000000
 11
-251.250000
 21
39.000000
  0
LINE
  8
0
 62
     4
 10
-241.750000
 20
38.500000
 11
-241.750000
 21
32.000008
  0
LINE
  8
0
 62
     4
 10
-251.750000
 20
38.500000
 11
-251.750000
 21
32.000008
  0
LINE
  8
0
 62
     4
 10
-241.750000
 20
32.000008
 11
-251.750000
 21
32.000008
  0
LINE
  8
0
 62
     4
 10
-251.750000
 20
36.314514
 11
-257.750000
 21
36.314514
  0
LINE
  8
0
 62
     4
 10
-242.750000
 20
84.950012
 11
-250.750000
 21
84.950012
  0
LINE
  8
0
 62
     4
 10
-242.750000
 20
39.000000
 11
-242.750000
 21
84.950012
  0
LINE
  8
0
 62
     4
 10
-250.750000
 20
39.000000
 11
-250.750000
 21
84.950012
  0
LINE
  8
0
 62
     4
 10
-250.750000
 20
42.814514
 11
-257.750000
 21
42.814514
  0
LINE
  8
0
 62
     4
 10
-259.750000
 20
38.114502
 11
-264.750000
 21
38.114502
  0
LINE
  8
0
 62
     4
 10
-259.750000
 20
41.514496
 11
-264.750000
 21
41.514496
  0
LINE
  8
0
 62
     4
 10
-273.350006
 20
96.985497
 11
-268.150024
 21
96.985497
  0
LINE
  8
0
 62
     4
 10
-272.549988
 20
98.985497
 11
-271.049988
 21
98.985497
  0
LINE
  8
0
 62
     4
 10
-268.150024
 20
98.185493
 11
-268.150024
 21
96.985497
  0
LINE
  8
0
 62
     4
 10
-273.350006
 20
98.185493
 11
-273.350006
 21
96.985497
  0
LINE
  8
0
 62
     4
 10
-271.049988
 20
97.985497
 11
-271.049988
 21
98.985497
  0
LINE
  8
0
 62
     4
 10
-270.450012
 20
97.985497
 11
-270.450012
 21
98.985497
  0
LINE
  8
0
 62
     4
 10
-271.049988
 20
97.985497
 11
-270.450012
 21
97.985497
  0
LINE
  8
0
 62
     4
 10
-270.450012
 20
98.985497
 11
-268.950012
 21
98.985497
  0
LINE
  8
0
 62
     4
 10
-281.750000
 20
91.685486
 11
-275.750000
 21
91.685486
  0
LINE
  8
0
 62
     4
 10
-259.750000
 20
91.685486
 11
-259.750000
 21
84.799988
  0
LINE
  8
0
 62
     4
 10
-281.750000
 20
91.685486
 11
-281.750000
 21
85.185486
  0
LINE
  8
0
 62
     4
 10
-281.750000
 20
85.185501
 11
-281.364502
 21
84.799988
  0
LINE
  8
0
 62
     4
 10
-281.750000
 20
85.185486
 11
-274.750000
 21
85.185486
  0
LINE
  8
0
 62
     4
 10
-280.250000
 20
91.685486
 11
-280.250000
 21
92.185486
  0
LINE
  8
0
 62
     4
 10
-276.250000
 20
91.685486
 11
-276.250000
 21
92.185486
  0
LINE
  8
0
 62
     4
 10
-280.250000
 20
92.185486
 11
-276.250000
 21
92.185486
  0
LINE
  8
0
 62
     4
 10
-276.292267
 20
92.258606
 11
-276.250031
 21
92.185493
  0
LINE
  8
0
 62
     4
 10
-280.207733
 20
92.258606
 11
-280.249939
 21
92.185471
  0
LINE
  8
0
 62
     4
 10
-259.750000
 20
90.685486
 11
-257.750000
 21
90.685486
  0
LINE
  8
0
 62
     4
 10
-259.750000
 20
85.685486
 11
-257.750000
 21
85.685486
  0
LINE
  8
0
 62
     4
 10
-257.750000
 20
90.685486
 11
-257.750000
 21
85.685486
  0
LINE
  8
0
 62
     4
 10
-269.250000
 20
96.985497
 11
-269.250000
 21
94.999992
  0
LINE
  8
0
 62
     4
 10
-272.250000
 20
96.985497
 11
-272.250000
 21
94.999992
  0
LINE
  8
0
 62
     1
 10
-272.000000
 20
96.985497
 11
-272.000000
 21
94.999992
  0
LINE
  8
0
  6
CENTER
 62
     2
 10
-503.416626
 20
123.382980
 11
-503.416626
 21
4.882187
  0
LINE
  8
0
  6
CENTER
 62
     2
 10
-537.645752
 20
64.000000
 11
-470.239746
 21
64.000000
  0
LINE
  8
0
 10
-530.416626
 20
112.000046
 11
-530.416626
 21
15.999989
  0
LINE
  8
0
 10
-476.416626
 20
112.000046
 11
-476.416626
 21
15.999989
  0
LINE
  8
0
 10
-530.416748
 20
16.000000
 11
-476.416626
 21
16.000000
  0
LINE
  8
0
 10
-530.416748
 20
112.000061
 11
-476.416626
 21
112.000061
  0
LINE
  8
0
 10
-529.916626
 20
113.200027
 11
-529.916626
 21
112.000031
  0
LINE
  8
0
 10
-476.916748
 20
113.200027
 11
-476.916748
 21
112.000031
  0
LINE
  8
0
 10
-529.916626
 20
113.200012
 11
-476.916748
 21
113.200012
  0
LINE
  8
0
 10
-528.863525
 20
120.000000
 11
-477.969727
 21
120.000000
  0
LINE
  8
0
 10
-529.741699
 20
115.200043
 11
-518.649658
 21
115.200043
  0
LINE
  8
0
 10
-488.183594
 20
115.200043
 11
-477.091675
 21
115.200043
  0
LINE
  8
0
 10
-529.916321
 20
113.199913
 11
-529.361267
 21
119.543503
  0
LINE
  8
0
 10
-517.853699
 20
115.930389
 11
-517.593445
 21
118.904724
  0
LINE
  8
0
 10
-488.981476
 20
115.930260
 11
-489.241730
 21
118.904549
  0
LINE
  8
0
 10
-476.916351
 20
113.200027
 11
-477.471405
 21
119.543587
  0
LINE
  8
0
 10
-518.666626
 20
117.674057
 11
-518.666626
 21
116.500031
  0
LINE
  8
0
 10
-528.166748
 20
117.674057
 11
-528.166748
 21
116.500031
  0
LINE
  8
0
 10
-518.666626
 20
116.500000
 11
-528.166748
 21
116.500000
  0
LINE
  8
0
 10
-518.916626
 20
116.500031
 11
-518.916626
 21
115.200027
  0
LINE
  8
0
 10
-527.916626
 20
116.500031
 11
-527.916626
 21
115.200027
  0
LINE
  8
0
 10
-478.666626
 20
117.674057
 11
-478.666626
 21
116.500031
  0
LINE
  8
0
 10
-488.166748
 20
117.674057
 11
-488.166748
 21
116.500031
  0
LINE
  8
0
 10
-478.666748
 20
116.500000
 11
-488.166748
 21
116.500000
  0
LINE
  8
0
 10
-478.916626
 20
116.500031
 11
-478.916626
 21
115.200027
  0
LINE
  8
0
 10
-487.916626
 20
116.500031
 11
-487.916626
 21
115.200027
  0
LINE
  8
0
 10
-529.916626
 20
14.799995
 11
-529.916626
 21
15.999989
  0
LINE
  8
0
 10
-476.916748
 20
14.799995
 11
-476.916748
 21
15.999989
  0
LINE
  8
0
 10
-529.916626
 20
14.799988
 11
-476.916748
 21
14.799988
  0
LINE
  8
0
 10
-528.863525
 20
8.000000
 11
-477.969727
 21
8.000000
  0
LINE
  8
0
 10
-529.741699
 20
12.799988
 11
-518.649658
 21
12.799988
  0
LINE
  8
0
 10
-488.183594
 20
12.799988
 11
-477.091675
 21
12.799988
  0
LINE
  8
0
 10
-529.916443
 20
14.800008
 11
-529.361511
 21
8.456437
  0
LINE
  8
0
 10
-517.853149
 20
12.069663
 11
-517.592896
 21
9.095355
  0
LINE
  8
0
 10
-488.980530
 20
12.069687
 11
-489.240662
 21
9.095368
  0
LINE
  8
0
 10
-476.916840
 20
14.800002
 11
-477.471893
 21
8.456420
  0
LINE
  8
0
 10
-518.666626
 20
10.325970
 11
-518.666626
 21
11.499992
  0
LINE
  8
0
 10
-528.166748
 20
10.325970
 11
-528.166748
 21
11.499992
  0
LINE
  8
0
 10
-518.666626
 20
11.500000
 11
-528.166748
 21
11.500000
  0
LINE
  8
0
 10
-518.916626
 20
11.499992
 11
-518.916626
 21
12.799992
  0
LINE
  8
0
 10
-527.916626
 20
11.499992
 11
-527.916626
 21
12.799992
  0
LINE
  8
0
 10
-478.666626
 20
10.325970
 11
-478.666626
 21
11.499992
  0
LINE
  8
0
 10
-488.166748
 20
10.325970
 11
-488.166748
 21
11.499992
  0
LINE
  8
0
 10
-478.666748
 20
11.500000
 11
-488.166748
 21
11.500000
  0
LINE
  8
0
 10
-478.916626
 20
11.499992
 11
-478.916626
 21
12.799992
  0
LINE
  8
0
 10
-487.916626
 20
11.499992
 11
-487.916626
 21
12.799992
  0
LINE
  8
0
 10
-495.416748
 20
3.000000
 11
-482.416626
 21
3.000000
  0
LINE
  8
0
 10
-492.416626
 20
-1.500000
 11
-485.416626
 21
-1.500000
  0
LINE
  8
0
 10
-484.916626
 20
-1.000008
 11
-484.916626
 21
2.999992
  0
LINE
  8
0
 10
-492.916748
 20
-1.000008
 11
-492.916748
 21
2.999992
  0
LINE
  8
0
 10
-492.916351
 20
-0.999819
 11
-492.416473
 21
-1.499816
  0
LINE
  8
0
 10
-484.916534
 20
-1.000216
 11
-485.416504
 21
-1.500208
  0
LINE
  8
0
 10
-492.916748
 20
-1.000000
 11
-484.916626
 21
-1.000000
  0
LINE
  8
0
 62
     2
 10
-492.240234
 20
-1.500015
 11
-492.240234
 21
2.999992
  0
LINE
  8
0
 62
     2
 10
-485.593140
 20
-1.500015
 11
-485.593140
 21
2.999992
  0
LINE
  8
0
 10
-482.416626
 20
7.999992
 11
-482.416626
 21
2.999992
  0
LINE
  8
0
 10
-495.416748
 20
7.999992
 11
-495.416748
 21
2.999992
  0
LINE
  8
0
 10
-488.916626
 20
7.419437
 11
-488.916626
 21
3.580544
  0
LINE
  8
0
 10
-495.416748
 20
125.000000
 11
-482.416626
 21
125.000000
  0
LINE
  8
0
 10
-492.416626
 20
129.500061
 11
-485.416626
 21
129.500061
  0
LINE
  8
0
 10
-484.916626
 20
129.000031
 11
-484.916626
 21
125.000031
  0
LINE
  8
0
 10
-492.916748
 20
129.000031
 11
-492.916748
 21
125.000031
  0
LINE
  8
0
 10
-492.916473
 20
128.999908
 11
-492.416443
 21
129.499878
  0
LINE
  8
0
 10
-484.916412
 20
129.000061
 11
-485.416412
 21
129.500031
  0
LINE
  8
0
 10
-492.916748
 20
129.000031
 11
-484.916626
 21
129.000031
  0
LINE
  8
0
 62
     2
 10
-492.240234
 20
129.500015
 11
-492.240234
 21
125.000031
  0
LINE
  8
0
 62
     2
 10
-485.593140
 20
129.500015
 11
-485.593140
 21
125.000031
  0
LINE
  8
0
 10
-482.416626
 20
120.000031
 11
-482.416626
 21
125.000031
  0
LINE
  8
0
 10
-495.416748
 20
120.000031
 11
-495.416748
 21
125.000031
  0
LINE
  8
0
 10
-488.916626
 20
120.580582
 11
-488.916626
 21
124.419495
  0
LINE
  8
0
  6
CENTER
 62
     2
 10
-479.916748
 20
83.000031
 11
-488.916626
 21
83.000031
  0
LINE
  8
0
  6
CENTER
 62
     2
 10
-479.916626
 20
45.000000
 11
-488.916626
 21
45.000000
  0
LINE
  8
0
  6
CENTER
 62
     2
 10
-517.916626
 20
45.000000
 11
-526.916626
 21
45.000000
  0
LINE
  8
0
  6
CENTER
 62
     2
 10
-517.916626
 20
83.000000
 11
-526.916626
 21
83.000000
  0
LINE
  8
0
  6
CENTER
 62
     2
 10
-484.416748
 20
87.498657
 11
-484.416748
 21
78.867477
  0
LINE
  8
0
  6
CENTER
 62
     2
 10
-522.416626
 20
87.498657
 11
-522.416626
 21
78.414101
  0
LINE
  8
0
  6
CENTER
 62
     2
 10
-522.416626
 20
49.499989
 11
-522.416626
 21
40.500004
  0
LINE
  8
0
  6
CENTER
 62
     2
 10
-484.416626
 20
49.500000
 11
-484.416626
 21
40.500015
  0
LINE
  8
0
 62
     4
 10
-503.416687
 20
74.969734
 11
-512.916748
 21
69.484894
  0
LINE
  8
0
 62
     4
 10
-493.916748
 20
58.515202
 11
-503.416748
 21
53.030373
  0
LINE
  8
0
 62
     4
 10
-493.916595
 20
69.484863
 11
-503.416595
 21
74.969711
  0
LINE
  8
0
 62
     4
 10
-503.416595
 20
53.030342
 11
-512.916748
 21
58.515198
  0
LINE
  8
0
 62
     4
 10
-493.916626
 20
69.484825
 11
-493.916626
 21
58.515152
  0
LINE
  8
0
 62
     4
 10
-512.916626
 20
69.484833
 11
-512.916626
 21
58.515152
  0
LINE
  8
0
 62
     4
 10
-472.416656
 20
37.249943
 11
-472.916656
 21
38.249950
  0
LINE
  8
0
 62
     4
 10
-472.916626
 20
38.249954
 11
-472.916626
 21
43.249954
  0
LINE
  8
0
 62
     4
 10
-475.916626
 20
38.249954
 11
-475.916626
 21
43.249954
  0
LINE
  8
0
 62
     4
 10
-472.916626
 20
38.249954
 11
-475.916626
 21
38.249954
  0
LINE
  8
0
 62
     4
 10
-472.416626
 20
37.249954
 11
-476.416626
 21
37.249954
  0
LINE
  8
0
 62
     4
 10
-472.416626
 20
16.749954
 11
-476.416626
 21
16.749954
  0
LINE
  8
0
 62
     4
 10
-469.444794
 20
103.800049
 11
-470.416626
 21
103.800049
  0
LINE
  8
0
 62
     4
 10
-469.444794
 20
98.200043
 11
-470.416626
 21
98.200043
  0
LINE
  8
0
 62
     4
 10
-475.916626
 20
105.000046
 11
-470.416626
 21
105.000046
  0
LINE
  8
0
 62
     4
 10
-475.916626
 20
97.000046
 11
-470.416626
 21
97.000046
  0
LINE
  8
0
 62
     4
 10
-475.916626
 20
105.000046
 11
-475.916626
 21
97.000046
  0
LINE
  8
0
 62
     4
 10
-470.416626
 20
105.000046
 11
-470.416626
 21
97.000046
  0
LINE
  8
0
 62
     4
 10
-473.282654
 20
112.750046
 11
-475.550598
 21
112.750046
  0
LINE
  8
0
 62
     4
 10
-476.416626
 20
111.250046
 11
-475.550598
 21
112.750053
  0
LINE
  8
0
 62
     4
 10
-472.416534
 20
111.250061
 11
-473.282593
 21
112.750069
  0
LINE
  8
0
 62
     4
 10
-472.416626
 20
111.250046
 11
-472.416626
 21
105.000046
  0
LINE
  8
0
 62
     4
 10
-472.416626
 20
111.250046
 11
-476.416626
 21
111.250046
  0
LINE
  8
0
 62
     4
 10
-472.416626
 20
90.750046
 11
-476.416626
 21
90.750046
  0
LINE
  8
0
 62
     4
 10
-472.916626
 20
89.750046
 11
-475.916626
 21
89.750046
  0
LINE
  8
0
 62
     4
 10
-475.916626
 20
89.750046
 11
-475.916626
 21
84.750046
  0
LINE
  8
0
 62
     4
 10
-472.916626
 20
89.750046
 11
-472.916626
 21
84.750046
  0
LINE
  8
0
 62
     4
 10
-472.416687
 20
90.750092
 11
-472.916687
 21
89.750084
  0
LINE
  8
0
 62
     4
 10
-476.416534
 20
90.750046
 11
-475.916534
 21
89.750038
  0
LINE
  8
0
 62
     4
 10
-476.416626
 20
111.250046
 11
-476.416626
 21
90.750046
  0
LINE
  8
0
 62
     4
 10
-472.416626
 20
97.000046
 11
-472.416626
 21
90.750046
  0
LINE
  8
0
 62
     4
 10
-472.416626
 20
30.999954
 11
-472.416626
 21
37.249954
  0
LINE
  8
0
 62
     4
 10
-476.416595
 20
37.249981
 11
-475.916595
 21
38.249958
  0
LINE
  8
0
 62
     4
 10
-469.444794
 20
24.199951
 11
-470.416626
 21
24.199951
  0
LINE
  8
0
 62
     4
 10
-469.444794
 20
29.799957
 11
-470.416626
 21
29.799957
  0
LINE
  8
0
 62
     4
 10
-475.916626
 20
22.999954
 11
-470.416626
 21
22.999954
  0
LINE
  8
0
 62
     4
 10
-475.916626
 20
30.999954
 11
-470.416626
 21
30.999954
  0
LINE
  8
0
 62
     4
 10
-475.916626
 20
22.999954
 11
-475.916626
 21
30.999954
  0
LINE
  8
0
 62
     4
 10
-470.416626
 20
22.999954
 11
-470.416626
 21
30.999954
  0
LINE
  8
0
 62
     4
 10
-476.416626
 20
16.749954
 11
-476.416626
 21
37.249954
  0
LINE
  8
0
 62
     4
 10
-473.282654
 20
15.249954
 11
-475.550598
 21
15.249954
  0
LINE
  8
0
 62
     4
 10
-476.416626
 20
16.749914
 11
-475.550598
 21
15.249909
  0
LINE
  8
0
 62
     4
 10
-472.416504
 20
16.749916
 11
-473.282532
 21
15.249910
  0
LINE
  8
0
 62
     4
 10
-472.416626
 20
16.749954
 11
-472.416626
 21
22.999954
  0
LINE
  8
0
  6
CENTER
 62
     2
 10
-110.083374
 20
123.575531
 11
-110.083374
 21
4.680946
  0
LINE
  8
0
  6
CENTER
 62
     2
 10
-75.854248
 20
64.000000
 11
-143.260315
 21
64.000000
  0
LINE
  8
0
 10
-83.083313
 20
112.000015
 11
-83.083313
 21
15.999989
  0
LINE
  8
0
 10
-137.083374
 20
112.000015
 11
-137.083374
 21
105.000000
  0
LINE
  8
0
 10
-83.083313
 20
16.000000
 11
-137.083313
 21
16.000000
  0
LINE
  8
0
 10
-83.083313
 20
112.000000
 11
-137.083313
 21
112.000000
  0
LINE
  8
0
  6
CENTER
 62
     2
 10
-112.083313
 20
105.500000
 11
-126.083313
 21
105.500000
  0
LINE
  8
0
  6
CENTER
 62
     2
 10
-119.083313
 20
112.499992
 11
-119.083313
 21
98.499977
  0
LINE
  8
0
  6
CENTER
 62
     2
 10
-112.083313
 20
22.500000
 11
-126.083313
 21
22.500000
  0
LINE
  8
0
  6
CENTER
 62
     2
 10
-119.083313
 20
15.758015
 11
-119.083313
 21
29.582123
  0
LINE
  8
0
 10
-83.583374
 20
113.199997
 11
-83.583374
 21
112.000015
  0
LINE
  8
0
 10
-136.583313
 20
113.199997
 11
-136.583313
 21
112.000015
  0
LINE
  8
0
 10
-83.583374
 20
113.200012
 11
-136.583313
 21
113.200012
  0
LINE
  8
0
 10
-84.636414
 20
120.000000
 11
-135.530273
 21
120.000000
  0
LINE
  8
0
 10
-83.758301
 20
115.200012
 11
-94.850220
 21
115.200012
  0
LINE
  8
0
 10
-125.316406
 20
115.200012
 11
-136.408325
 21
115.200012
  0
LINE
  8
0
 10
-83.583611
 20
113.199974
 11
-84.138603
 21
119.543556
  0
LINE
  8
0
 10
-95.646652
 20
115.930351
 11
-95.906906
 21
118.904671
  0
LINE
  8
0
 10
-124.519226
 20
115.930275
 11
-124.258972
 21
118.904602
  0
LINE
  8
0
 10
-136.583557
 20
113.200035
 11
-136.028503
 21
119.543633
  0
LINE
  8
0
 10
-94.833374
 20
117.674026
 11
-94.833374
 21
116.500015
  0
LINE
  8
0
 10
-85.333313
 20
117.674026
 11
-85.333313
 21
116.500015
  0
LINE
  8
0
 10
-94.833374
 20
116.500000
 11
-85.333313
 21
116.500000
  0
LINE
  8
0
 10
-94.583374
 20
116.500015
 11
-94.583374
 21
115.200012
  0
LINE
  8
0
 10
-85.583313
 20
116.500015
 11
-85.583313
 21
115.200012
  0
LINE
  8
0
 10
-134.833374
 20
117.674026
 11
-134.833374
 21
116.500015
  0
LINE
  8
0
 10
-125.333313
 20
117.674026
 11
-125.333313
 21
116.500015
  0
LINE
  8
0
 10
-134.833313
 20
116.500000
 11
-125.333313
 21
116.500000
  0
LINE
  8
0
 10
-134.583374
 20
116.500015
 11
-134.583374
 21
115.200012
  0
LINE
  8
0
 10
-125.583313
 20
116.500015
 11
-125.583313
 21
115.200012
  0
LINE
  8
0
 10
-83.583374
 20
14.799992
 11
-83.583374
 21
15.999989
  0
LINE
  8
0
 10
-136.583313
 20
14.799992
 11
-136.583313
 21
15.999989
  0
LINE
  8
0
 10
-83.583374
 20
14.799988
 11
-136.583313
 21
14.799988
  0
LINE
  8
0
 10
-84.636414
 20
8.000000
 11
-135.530273
 21
8.000000
  0
LINE
  8
0
 10
-83.758301
 20
12.799988
 11
-94.850220
 21
12.799988
  0
LINE
  8
0
 10
-125.316406
 20
12.799988
 11
-136.408325
 21
12.799988
  0
LINE
  8
0
 10
-83.582916
 20
14.799949
 11
-84.137970
 21
8.456376
  0
LINE
  8
0
 10
-95.647011
 20
12.069686
 11
-95.907204
 21
9.095366
  0
LINE
  8
0
 10
-124.519981
 20
12.069671
 11
-124.259789
 21
9.095339
  0
LINE
  8
0
 10
-136.583038
 20
14.800028
 11
-136.027985
 21
8.456432
  0
LINE
  8
0
 10
-94.833374
 20
10.325970
 11
-94.833374
 21
11.499992
  0
LINE
  8
0
 10
-85.333313
 20
10.325970
 11
-85.333313
 21
11.499992
  0
LINE
  8
0
 10
-94.833374
 20
11.500000
 11
-85.333313
 21
11.500000
  0
LINE
  8
0
 10
-94.583374
 20
11.499992
 11
-94.583374
 21
12.799992
  0
LINE
  8
0
 10
-85.583313
 20
11.499992
 11
-85.583313
 21
12.799992
  0
LINE
  8
0
 10
-134.833374
 20
10.325970
 11
-134.833374
 21
11.499992
  0
LINE
  8
0
 10
-125.333313
 20
10.325970
 11
-125.333313
 21
11.499992
  0
LINE
  8
0
 10
-134.833313
 20
11.500000
 11
-125.333313
 21
11.500000
  0
LINE
  8
0
 10
-134.583374
 20
11.499992
 11
-134.583374
 21
12.799992
  0
LINE
  8
0
 10
-125.583313
 20
11.499992
 11
-125.583313
 21
12.799992
  0
LINE
  8
0
 10
-118.083313
 20
3.000000
 11
-131.083374
 21
3.000000
  0
LINE
  8
0
 10
-121.083374
 20
-1.500000
 11
-128.083374
 21
-1.500000
  0
LINE
  8
0
 10
-128.583374
 20
-1.000008
 11
-128.583374
 21
2.999992
  0
LINE
  8
0
 10
-120.583313
 20
-1.000008
 11
-120.583313
 21
2.999992
  0
LINE
  8
0
 10
-120.583588
 20
-0.999908
 11
-121.083519
 21
-1.499869
  0
LINE
  8
0
 10
-128.583557
 20
-1.000131
 11
-128.083496
 21
-1.500136
  0
LINE
  8
0
 10
-120.583313
 20
-1.000000
 11
-128.583374
 21
-1.000000
  0
LINE
  8
0
 62
     2
 10
-121.259827
 20
-1.500015
 11
-121.259827
 21
2.999992
  0
LINE
  8
0
 62
     2
 10
-127.906860
 20
-1.500015
 11
-127.906860
 21
2.999992
  0
LINE
  8
0
 10
-131.083374
 20
7.999992
 11
-131.083374
 21
2.999992
  0
LINE
  8
0
 10
-118.083313
 20
7.999992
 11
-118.083313
 21
2.999992
  0
LINE
  8
0
 10
-124.583374
 20
7.419437
 11
-124.583374
 21
3.580544
  0
LINE
  8
0
 10
-118.083313
 20
125.000000
 11
-131.083374
 21
125.000000
  0
LINE
  8
0
 10
-121.083374
 20
129.500000
 11
-128.083374
 21
129.500000
  0
LINE
  8
0
 10
-128.583374
 20
128.999985
 11
-128.583374
 21
125.000000
  0
LINE
  8
0
 10
-120.583313
 20
128.999985
 11
-120.583313
 21
125.000000
  0
LINE
  8
0
 10
-120.583595
 20
128.999832
 11
-121.083527
 21
129.499786
  0
LINE
  8
0
 10
-128.583252
 20
128.999878
 11
-128.083313
 21
129.499832
  0
LINE
  8
0
 10
-120.583313
 20
129.000000
 11
-128.583374
 21
129.000000
  0
LINE
  8
0
 62
     2
 10
-121.259827
 20
129.500000
 11
-121.259827
 21
125.000000
  0
LINE
  8
0
 62
     2
 10
-127.906860
 20
129.500000
 11
-127.906860
 21
125.000000
  0
LINE
  8
0
 10
-131.083374
 20
120.000000
 11
-131.083374
 21
125.000000
  0
LINE
  8
0
 10
-118.083313
 20
120.000000
 11
-118.083313
 21
125.000000
  0
LINE
  8
0
 10
-124.583374
 20
120.580566
 11
-124.583374
 21
124.419479
  0
LINE
  8
0
 10
-134.083313
 20
85.166016
 11
-134.083313
 21
42.834000
  0
LINE
  8
0
 10
-86.083374
 20
85.166016
 11
-86.083374
 21
42.834000
  0
LINE
  8
0
 10
-129.949341
 20
84.500000
 11
-128.217285
 21
84.500000
  0
LINE
  8
0
 10
-129.949341
 20
81.500000
 11
-128.217285
 21
81.500000
  0
LINE
  8
0
 10
-129.949173
 20
84.499847
 11
-130.815201
 21
82.999863
  0
LINE
  8
0
 10
-127.351051
 20
82.999901
 11
-128.217087
 21
81.499901
  0
LINE
  8
0
 10
-130.815659
 20
82.999855
 11
-129.949615
 21
81.499825
  0
LINE
  8
0
 10
-128.217560
 20
84.499832
 11
-127.351540
 21
82.999825
  0
LINE
  8
0
 10
-89.583374
 20
83.866035
 11
-89.583374
 21
82.133965
  0
LINE
  8
0
 10
-92.583374
 20
83.866035
 11
-92.583374
 21
82.133965
  0
LINE
  8
0
 10
-89.583336
 20
83.866310
 11
-91.083290
 21
84.732300
  0
LINE
  8
0
 10
-91.083221
 20
81.268204
 11
-92.583221
 21
82.134232
  0
LINE
  8
0
 10
-91.083466
 20
84.732147
 11
-92.583443
 21
83.866142
  0
LINE
  8
0
 10
-89.583481
 20
82.134125
 11
-91.083488
 21
81.268097
  0
LINE
  8
0
 10
-90.217285
 20
43.500000
 11
-91.949341
 21
43.500000
  0
LINE
  8
0
 10
-90.217285
 20
46.500000
 11
-91.949341
 21
46.500000
  0
LINE
  8
0
 10
-90.216988
 20
43.499817
 11
-89.350952
 21
44.999817
  0
LINE
  8
0
 10
-92.815079
 20
44.999886
 11
-91.949051
 21
46.499889
  0
LINE
  8
0
 10
-89.351143
 20
45.000000
 11
-90.217171
 21
46.500008
  0
LINE
  8
0
 10
-91.949196
 20
43.500053
 11
-92.815224
 21
45.000057
  0
LINE
  8
0
 10
-130.583374
 20
44.133972
 11
-130.583374
 21
45.866020
  0
LINE
  8
0
 10
-127.583374
 20
44.133972
 11
-127.583374
 21
45.866020
  0
LINE
  8
0
 10
-130.583191
 20
44.134483
 11
-129.083176
 21
43.268456
  0
LINE
  8
0
 10
-129.083069
 20
46.732559
 11
-127.583061
 21
45.866528
  0
LINE
  8
0
 10
-129.083359
 20
43.267944
 11
-127.583305
 21
44.133995
  0
LINE
  8
0
 10
-130.583328
 20
45.866039
 11
-129.083267
 21
46.732086
  0
LINE
  8
0
 10
-92.429993
 20
75.000000
 11
-127.736694
 21
75.000000
  0
LINE
  8
0
 10
-92.429993
 20
53.000000
 11
-127.736694
 21
53.000000
  0
LINE
  8
0
 10
-137.083374
 20
97.000000
 11
-137.083374
 21
31.000000
  0
LINE
  8
0
 10
-137.083374
 20
23.000000
 11
-137.083374
 21
15.999989
  0
LINE
  8
0
 62
     4
 10
-108.583344
 20
95.485489
 11
-108.583344
 21
94.999985
  0
LINE
  8
0
 62
     4
 10
-113.933350
 20
93.249985
 11
-113.933350
 21
88.999985
  0
LINE
  8
0
 62
     4
 10
-108.583344
 20
95.485489
 11
-111.583344
 21
95.485489
  0
LINE
  8
0
 62
     4
 10
-106.233337
 20
93.249985
 11
-106.233337
 21
88.999985
  0
LINE
  8
0
 62
     4
 10
-113.933350
 20
93.249985
 11
-114.083344
 21
93.249985
  0
LINE
  8
0
 62
     4
 10
-106.083344
 20
93.249985
 11
-106.233337
 21
93.249985
  0
LINE
  8
0
 62
     4
 10
-112.083344
 20
91.985489
 11
-113.583344
 21
91.985489
  0
LINE
  8
0
 62
     1
 10
-108.833344
 20
95.485489
 11
-108.833344
 21
94.999985
  0
LINE
  8
0
 62
     1
 10
-111.333344
 20
95.485489
 11
-111.333344
 21
94.999985
  0
LINE
  8
0
 62
     4
 10
-111.583344
 20
95.485489
 11
-111.583344
 21
94.999985
  0
LINE
  8
0
 62
     4
 10
-111.583344
 20
92.999985
 11
-111.583344
 21
92.583557
  0
LINE
  8
0
 62
     1
 10
-111.333344
 20
92.999985
 11
-111.333344
 21
92.712662
  0
LINE
  8
0
 62
     1
 10
-108.833344
 20
92.999985
 11
-108.833344
 21
92.712662
  0
LINE
  8
0
 62
     4
 10
-108.583344
 20
92.999985
 11
-108.583344
 21
92.583557
  0
LINE
  8
0
 62
     4
 10
-114.083344
 20
88.999985
 11
-114.083344
 21
94.499985
  0
LINE
  8
0
 62
     4
 10
-115.083344
 20
94.799988
 11
-115.083344
 21
88.999985
  0
LINE
  8
0
 62
     4
 10
-112.583344
 20
95.999985
 11
-112.583344
 21
94.999985
  0
LINE
  8
0
 62
     4
 10
-115.083344
 20
88.999985
 11
-114.083344
 21
88.999985
  0
LINE
  8
0
 62
     4
 10
-112.583344
 20
95.999985
 11
-113.883347
 21
95.999985
  0
LINE
  8
0
 62
     4
 10
-106.583344
 20
93.999985
 11
-107.483337
 21
93.999985
  0
LINE
  8
0
 62
     4
 10
-108.283340
 20
92.999985
 11
-108.283340
 21
93.199982
  0
LINE
  8
0
 62
     4
 10
-136.083374
 20
105.000000
 11
-136.083374
 21
97.000000
  0
LINE
  8
0
 62
     4
 10
-143.083374
 20
105.000000
 11
-136.083374
 21
105.000000
  0
LINE
  8
0
 62
     4
 10
-143.083374
 20
97.000000
 11
-136.083374
 21
97.000000
  0
LINE
  8
0
 62
     4
 10
-144.055206
 20
98.199997
 11
-143.083374
 21
98.199997
  0
LINE
  8
0
 62
     4
 10
-144.055206
 20
103.800003
 11
-143.083374
 21
103.800003
  0
LINE
  8
0
 62
     4
 10
-139.083374
 20
105.000000
 11
-139.083374
 21
97.000000
  0
LINE
  8
0
 62
     4
 10
-143.083374
 20
105.000000
 11
-143.083374
 21
97.000000
  0
LINE
  8
0
 62
     4
 10
-141.083374
 20
111.250000
 11
-141.083374
 21
105.000000
  0
LINE
  8
0
 62
     4
 10
-137.949402
 20
112.750000
 11
-140.217346
 21
112.750000
  0
LINE
  8
0
 62
     4
 10
-137.083374
 20
90.750000
 11
-141.083374
 21
90.750000
  0
LINE
  8
0
 62
     4
 10
-141.083450
 20
111.250031
 11
-140.217422
 21
112.750038
  0
LINE
  8
0
 62
     4
 10
-137.083328
 20
111.250053
 11
-137.949356
 21
112.750061
  0
LINE
  8
0
 62
     4
 10
-137.083374
 20
111.250000
 11
-137.083374
 21
105.000000
  0
LINE
  8
0
 62
     4
 10
-137.583374
 20
89.750000
 11
-140.583374
 21
89.750000
  0
LINE
  8
0
 62
     4
 10
-137.083374
 20
111.250000
 11
-141.083374
 21
111.250000
  0
LINE
  8
0
 62
     4
 10
-140.583374
 20
89.750000
 11
-140.583374
 21
84.750000
  0
LINE
  8
0
 62
     4
 10
-137.583374
 20
89.750000
 11
-137.583374
 21
84.750000
  0
LINE
  8
0
 62
     4
 10
-137.083389
 20
90.750015
 11
-137.583405
 21
89.750015
  0
LINE
  8
0
 62
     4
 10
-141.083344
 20
90.749985
 11
-140.583344
 21
89.749992
  0
LINE
  8
0
 62
     4
 10
-141.083374
 20
97.000000
 11
-141.083374
 21
90.750000
  0
LINE
  8
0
 62
     4
 10
-137.083374
 20
97.000000
 11
-137.083374
 21
90.750000
  0
LINE
  8
0
 62
     4
 10
-108.283340
 20
92.999985
 11
-111.883347
 21
92.999985
  0
LINE
  8
0
 62
     4
 10
-136.083374
 20
23.000000
 11
-136.083374
 21
31.000000
  0
LINE
  8
0
 62
     4
 10
-143.083374
 20
23.000000
 11
-136.083374
 21
23.000000
  0
LINE
  8
0
 62
     4
 10
-143.083374
 20
31.000000
 11
-136.083374
 21
31.000000
  0
LINE
  8
0
 62
     4
 10
-144.055206
 20
29.800003
 11
-143.083374
 21
29.800003
  0
LINE
  8
0
 62
     4
 10
-144.055206
 20
24.199997
 11
-143.083374
 21
24.199997
  0
LINE
  8
0
 62
     4
 10
-139.083374
 20
23.000000
 11
-139.083374
 21
31.000000
  0
LINE
  8
0
 62
     4
 10
-143.083374
 20
23.000000
 11
-143.083374
 21
31.000000
  0
LINE
  8
0
 62
     4
 10
-141.083374
 20
16.750000
 11
-141.083374
 21
23.000000
  0
LINE
  8
0
 62
     4
 10
-137.949402
 20
15.250000
 11
-140.217346
 21
15.250000
  0
LINE
  8
0
 62
     4
 10
-137.083374
 20
37.250000
 11
-141.083374
 21
37.250000
  0
LINE
  8
0
 62
     4
 10
-141.083527
 20
16.749931
 11
-140.217499
 21
15.249928
  0
LINE
  8
0
 62
     4
 10
-137.083313
 20
16.749945
 11
-137.949341
 21
15.249936
  0
LINE
  8
0
 62
     4
 10
-137.083374
 20
16.750000
 11
-137.083374
 21
23.000000
  0
LINE
  8
0
 62
     4
 10
-137.583374
 20
38.250000
 11
-140.583374
 21
38.250000
  0
LINE
  8
0
 62
     4
 10
-137.083374
 20
16.750000
 11
-141.083374
 21
16.750000
  0
LINE
  8
0
 62
     4
 10
-140.583374
 20
38.250000
 11
-140.583374
 21
43.250000
  0
LINE
  8
0
 62
     4
 10
-137.583374
 20
38.250000
 11
-137.583374
 21
43.250000
  0
LINE
  8
0
 62
     4
 10
-137.083389
 20
37.249981
 11
-137.583389
 21
38.249989
  0
LINE
  8
0
 62
     4
 10
-141.083344
 20
37.250000
 11
-140.583344
 21
38.249989
  0
LINE
  8
0
 62
     4
 10
-141.083374
 20
31.000000
 11
-141.083374
 21
37.250000
  0
LINE
  8
0
 62
     4
 10
-137.083374
 20
31.000000
 11
-137.083374
 21
37.250000
  0
LINE
  8
0
 62
     4
 10
-111.883347
 20
92.999985
 11
-111.883347
 21
93.199982
  0
LINE
  8
0
 62
     4
 10
-123.339432
 20
47.971409
 11
-113.980217
 21
39.108936
  0
LINE
  8
0
 62
     4
 10
-114.083397
 20
39.000046
 11
-123.438942
 21
47.859043
  0
LINE
  8
0
 62
     4
 10
-96.827293
 20
47.971371
 11
-106.186501
 21
39.108894
  0
LINE
  8
0
 62
     4
 10
-106.083351
 20
39.000050
 11
-96.727798
 21
47.859055
  0
LINE
  8
0
 62
     4
 10
-112.683411
 20
31.014511
 11
-107.483398
 21
31.014511
  0
LINE
  8
0
 62
     4
 10
-113.583405
 20
36.014511
 11
-112.083405
 21
36.014511
  0
LINE
  8
0
 62
     4
 10
-111.883408
 20
29.014511
 11
-108.283401
 21
29.014511
  0
LINE
  8
0
 62
     4
 10
-107.483398
 20
29.814514
 11
-107.483398
 21
31.014511
  0
LINE
  8
0
 62
     4
 10
-112.683411
 20
29.814514
 11
-112.683411
 21
31.014511
  0
LINE
  8
0
 62
     4
 10
-108.833405
 20
31.014511
 11
-108.833405
 21
32.514511
  0
LINE
  8
0
 62
     4
 10
-111.333405
 20
31.014511
 11
-111.333405
 21
32.514511
  0
LINE
  8
0
 62
     4
 10
-113.583405
 20
36.314514
 11
-106.583405
 21
36.314514
  0
LINE
  8
0
 62
     4
 10
-113.083405
 20
43.314514
 11
-112.262848
 21
43.314514
  0
LINE
  8
0
 62
     4
 10
-113.583405
 20
36.014511
 11
-113.583405
 21
42.814514
  0
LINE
  8
0
 62
     4
 10
-113.583397
 20
42.814507
 11
-113.083397
 21
43.314507
  0
LINE
  8
0
 62
     4
 10
-113.583405
 20
42.814514
 11
-106.583405
 21
42.814514
  0
LINE
  8
0
 62
     4
 10
-112.083405
 20
36.314514
 11
-112.083405
 21
35.814514
  0
LINE
  8
0
 62
     4
 10
-108.083405
 20
36.314514
 11
-108.083405
 21
35.814514
  0
LINE
  8
0
 62
     4
 10
-112.083405
 20
35.814514
 11
-108.083405
 21
35.814514
  0
LINE
  8
0
 62
     4
 10
-108.125595
 20
35.741409
 11
-108.083382
 21
35.814533
  0
LINE
  8
0
 62
     4
 10
-112.041153
 20
35.741421
 11
-112.083359
 21
35.814537
  0
LINE
  8
0
 62
     4
 10
-106.583405
 20
36.014511
 11
-106.583405
 21
42.814514
  0
LINE
  8
0
 62
     4
 10
-106.583397
 20
42.814499
 11
-107.083397
 21
43.314499
  0
LINE
  8
0
 62
     4
 10
-107.903961
 20
43.314514
 11
-107.083405
 21
43.314514
  0
LINE
  8
0
 62
     4
 10
-115.083405
 20
39.000015
 11
-115.083405
 21
34.200012
  0
LINE
  8
0
 62
     4
 10
-104.083405
 20
35.500015
 11
-104.083405
 21
34.200012
  0
LINE
  8
0
 62
     4
 10
-105.083405
 20
34.500015
 11
-105.083405
 21
35.500015
  0
LINE
  8
0
 62
     4
 10
-114.083405
 20
34.500015
 11
-114.083405
 21
39.000015
  0
LINE
  8
0
 62
     4
 10
-113.883408
 20
33.000015
 11
-106.583405
 21
33.000015
  0
LINE
  8
0
 62
     4
 10
-107.483398
 20
34.000015
 11
-106.083405
 21
34.000015
  0
LINE
  8
0
 62
     4
 10
-115.083405
 20
39.000015
 11
-114.083405
 21
39.000015
  0
LINE
  8
0
 62
     4
 10
-105.083405
 20
35.500015
 11
-104.083405
 21
35.500015
  0
LINE
  8
0
 62
     4
 10
-111.883408
 20
35.000015
 11
-108.283401
 21
35.000015
  0
LINE
  8
0
 62
     4
 10
-111.883408
 20
35.000015
 11
-111.883408
 21
34.800018
  0
LINE
  8
0
 62
     4
 10
-108.283401
 20
35.000015
 11
-108.283401
 21
34.800018
  0
LINE
  8
0
 62
     4
 10
-113.583405
 20
34.000015
 11
-112.683411
 21
34.000015
  0
LINE
  8
0
 62
     4
 10
-107.583405
 20
32.000015
 11
-106.283401
 21
32.000015
  0
LINE
  8
0
 62
     4
 10
-105.083405
 20
39.000015
 11
-106.083405
 21
39.000015
  0
LINE
  8
0
 62
     4
 10
-107.583405
 20
32.000015
 11
-107.583405
 21
33.000015
  0
LINE
  8
0
 62
     4
 10
-105.083405
 20
33.200012
 11
-105.083405
 21
39.000015
  0
LINE
  8
0
 62
     4
 10
-106.083405
 20
39.000015
 11
-106.083405
 21
33.500015
  0
LINE
  8
0
 62
     4
 10
-111.583405
 20
35.000015
 11
-111.583405
 21
35.416443
  0
LINE
  8
0
 62
     1
 10
-111.333405
 20
35.000015
 11
-111.333405
 21
35.287338
  0
LINE
  8
0
 62
     1
 10
-108.833405
 20
35.000015
 11
-108.833405
 21
35.287338
  0
LINE
  8
0
 62
     4
 10
-108.583405
 20
35.000015
 11
-108.583405
 21
35.416443
  0
LINE
  8
0
 62
     4
 10
-108.083405
 20
36.014511
 11
-106.583405
 21
36.014511
  0
LINE
  8
0
 62
     4
 10
-114.083405
 20
34.750015
 11
-113.933411
 21
34.750015
  0
LINE
  8
0
 62
     4
 10
-106.233398
 20
34.750015
 11
-106.083405
 21
34.750015
  0
LINE
  8
0
 62
     4
 10
-113.933411
 20
34.750015
 11
-113.933411
 21
39.000015
  0
LINE
  8
0
 62
     4
 10
-106.233398
 20
34.750015
 11
-106.233398
 21
39.000015
  0
LINE
  8
0
 62
     4
 10
-111.583405
 20
32.514511
 11
-111.583405
 21
33.000015
  0
LINE
  8
0
 62
     4
 10
-111.583405
 20
32.514511
 11
-108.583405
 21
32.514511
  0
LINE
  8
0
 62
     1
 10
-111.333405
 20
32.514511
 11
-111.333405
 21
33.000015
  0
LINE
  8
0
 62
     1
 10
-108.833405
 20
32.514511
 11
-108.833405
 21
33.000015
  0
LINE
  8
0
 62
     4
 10
-108.583405
 20
32.514511
 11
-108.583405
 21
33.000015
  0
LINE
  8
0
 62
     4
 10
-96.827301
 20
80.028580
 11
-106.186516
 21
88.891052
  0
LINE
  8
0
 62
     4
 10
-106.083366
 20
88.999969
 11
-96.727814
 21
80.140968
  0
LINE
  8
0
 62
     4
 10
-123.339447
 20
80.028633
 11
-113.980240
 21
88.891106
  0
LINE
  8
0
 62
     4
 10
-114.083405
 20
88.999969
 11
-123.438950
 21
80.140968
  0
LINE
  8
0
 62
     4
 10
-107.483337
 20
96.985489
 11
-112.683350
 21
96.985489
  0
LINE
  8
0
 62
     4
 10
-106.583344
 20
91.985489
 11
-108.083344
 21
91.985489
  0
LINE
  8
0
 62
     4
 10
-108.283340
 20
98.985489
 11
-111.883347
 21
98.985489
  0
LINE
  8
0
 62
     4
 10
-112.683350
 20
98.185486
 11
-112.683350
 21
96.985489
  0
LINE
  8
0
 62
     4
 10
-107.483337
 20
98.185486
 11
-107.483337
 21
96.985489
  0
LINE
  8
0
 62
     4
 10
-111.333344
 20
96.985489
 11
-111.333344
 21
95.485489
  0
LINE
  8
0
 62
     4
 10
-108.833344
 20
96.985489
 11
-108.833344
 21
95.485489
  0
LINE
  8
0
 62
     4
 10
-106.583344
 20
91.685486
 11
-113.583344
 21
91.685486
  0
LINE
  8
0
 62
     4
 10
-107.083344
 20
84.685486
 11
-107.903900
 21
84.685486
  0
LINE
  8
0
 62
     4
 10
-106.583344
 20
91.985489
 11
-106.583344
 21
85.185486
  0
LINE
  8
0
 62
     4
 10
-106.583328
 20
85.185471
 11
-107.083328
 21
84.685471
  0
LINE
  8
0
 62
     4
 10
-106.583344
 20
85.185486
 11
-113.583344
 21
85.185486
  0
LINE
  8
0
 62
     4
 10
-108.083344
 20
91.685486
 11
-108.083344
 21
92.185486
  0
LINE
  8
0
 62
     4
 10
-112.083344
 20
91.685486
 11
-112.083344
 21
92.185486
  0
LINE
  8
0
 62
     4
 10
-108.083344
 20
92.185486
 11
-112.083344
 21
92.185486
  0
LINE
  8
0
 62
     4
 10
-112.041115
 20
92.258568
 11
-112.083328
 21
92.185448
  0
LINE
  8
0
 62
     4
 10
-108.125587
 20
92.258568
 11
-108.083389
 21
92.185463
  0
LINE
  8
0
 62
     4
 10
-113.583344
 20
91.985489
 11
-113.583344
 21
85.185486
  0
LINE
  8
0
 62
     4
 10
-113.583344
 20
85.185493
 11
-113.083336
 21
84.685493
  0
LINE
  8
0
 62
     4
 10
-112.262787
 20
84.685486
 11
-113.083344
 21
84.685486
  0
LINE
  8
0
 62
     4
 10
-105.083344
 20
88.999985
 11
-105.083344
 21
93.799988
  0
LINE
  8
0
 62
     4
 10
-116.083344
 20
92.499985
 11
-116.083344
 21
93.799988
  0
LINE
  8
0
 62
     4
 10
-115.083344
 20
93.499985
 11
-115.083344
 21
92.499985
  0
LINE
  8
0
 62
     4
 10
-106.083344
 20
93.499985
 11
-106.083344
 21
88.999985
  0
LINE
  8
0
 62
     4
 10
-106.283340
 20
94.999985
 11
-113.583344
 21
94.999985
  0
LINE
  8
0
 62
     4
 10
-112.683350
 20
93.999985
 11
-114.083344
 21
93.999985
  0
LINE
  8
0
 62
     4
 10
-105.083344
 20
88.999985
 11
-106.083344
 21
88.999985
  0
LINE
  8
0
 62
     4
 10
-115.083344
 20
92.499985
 11
-116.083344
 21
92.499985
  0
LINE
  8
0
  6
CENTER
 62
     2
 10
-338.250000
 20
-193.715546
 11
-338.250000
 21
-130.204300
  0
LINE
  8
0
 10
-312.250000
 20
-137.666672
 11
-312.250000
 21
-185.666687
  0
LINE
  8
0
 10
-364.250000
 20
-137.666672
 11
-364.250000
 21
-185.666687
  0
LINE
  8
0
 10
-315.250000
 20
-134.666656
 11
-361.250000
 21
-134.666656
  0
LINE
  8
0
 10
-315.250000
 20
-188.666641
 11
-361.250000
 21
-188.666641
  0
LINE
  8
0
 62
     4
 10
-398.250000
 20
-156.379089
 11
-398.250000
 21
-166.954224
  0
LINE
  8
0
 10
-319.250000
 20
-147.166656
 11
-313.250000
 21
-147.166656
  0
LINE
  8
0
 10
-357.250000
 20
-147.166656
 11
-363.250000
 21
-147.166656
  0
LINE
  8
0
 10
-357.250000
 20
-176.166641
 11
-363.250000
 21
-176.166641
  0
LINE
  8
0
 10
-319.250000
 20
-176.166641
 11
-313.250000
 21
-176.166641
  0
LINE
  8
0
 10
-324.750000
 20
-181.666656
 11
-324.750000
 21
-187.666672
  0
LINE
  8
0
 10
-351.750000
 20
-181.666656
 11
-351.750000
 21
-187.666672
  0
LINE
  8
0
 10
-351.750000
 20
-141.666672
 11
-351.750000
 21
-135.666656
  0
LINE
  8
0
 10
-324.750000
 20
-141.666672
 11
-324.750000
 21
-135.666672
  0
LINE
  8
0
 10
-363.750000
 20
-137.666672
 11
-363.750000
 21
-185.666687
  0
LINE
  8
0
 10
-312.750000
 20
-137.666672
 11
-312.750000
 21
-185.666687
  0
LINE
  8
0
 10
-315.250000
 20
-135.166672
 11
-361.250000
 21
-135.166672
  0
LINE
  8
0
 10
-315.250000
 20
-188.166687
 11
-361.250000
 21
-188.166687
  0
LINE
  8
0
  6
CENTER
 62
     2
 10
-329.250000
 20
-147.166687
 11
-347.250000
 21
-147.166687
  0
LINE
  8
0
 10
-334.497192
 20
-140.666687
 11
-342.002747
 21
-140.666687
  0
LINE
  8
0
 10
-334.497192
 20
-153.666702
 11
-342.002747
 21
-153.666702
  0
LINE
  8
0
 10
-330.744476
 20
-147.166672
 11
-334.497284
 21
-140.666656
  0
LINE
  8
0
 10
-342.002808
 20
-153.666702
 11
-345.755554
 21
-147.166687
  0
LINE
  8
0
 10
-342.002563
 20
-140.666870
 11
-345.755371
 21
-147.166855
  0
LINE
  8
0
 10
-330.744537
 20
-147.166672
 11
-334.497284
 21
-153.666672
  0
LINE
  8
0
 10
-299.250000
 20
-137.666672
 11
-299.250000
 21
-185.666687
  0
LINE
  8
0
 10
-299.250000
 20
-185.666687
 11
-312.250000
 21
-185.666687
  0
LINE
  8
0
 10
-299.250000
 20
-137.666672
 11
-312.250000
 21
-137.666672
  0
LINE
  8
0
  6
CENTER
 62
     2
 10
-214.968140
 20
-161.666672
 11
-401.802979
 21
-161.666672
  0
LINE
  8
0
 10
-219.250000
 20
-141.866653
 11
-219.250000
 21
-181.466675
  0
LINE
  8
0
 10
-220.249985
 20
-140.866653
 11
-242.250000
 21
-140.866653
  0
LINE
  8
0
 10
-220.250183
 20
-182.466675
 11
-242.250000
 21
-182.466675
  0
LINE
  8
0
 10
-220.249969
 20
-140.866638
 11
-219.249969
 21
-141.866638
  0
LINE
  8
0
 10
-219.250031
 20
-181.466553
 11
-220.250183
 21
-182.466660
  0
LINE
  8
0
 10
-220.250000
 20
-140.866653
 11
-220.250000
 21
-144.013336
  0
LINE
  8
0
 10
-225.250000
 20
-144.013336
 11
-225.250000
 21
-179.319992
  0
LINE
  8
0
 10
-219.250000
 20
-144.013336
 11
-225.250000
 21
-144.013336
  0
LINE
  8
0
 10
-219.250000
 20
-179.319977
 11
-225.250000
 21
-179.319977
  0
LINE
  8
0
 10
-220.250000
 20
-179.319992
 11
-220.250000
 21
-182.466675
  0
LINE
  8
0
 62
     4
 10
-367.250000
 20
-168.166672
 11
-385.250000
 21
-168.166672
  0
LINE
  8
0
 62
     4
 10
-367.250000
 20
-155.166672
 11
-385.250000
 21
-155.166672
  0
LINE
  8
0
 62
     4
 10
-397.549988
 20
-155.166672
 11
-397.549988
 21
-168.166672
  0
LINE
  8
0
 62
     4
 10
-397.549896
 20
-155.166702
 11
-398.249908
 21
-156.379166
  0
LINE
  8
0
 62
     4
 10
-397.550018
 20
-168.166733
 11
-398.250092
 21
-166.954285
  0
LINE
  8
0
 62
     4
 10
-375.250000
 20
-155.166672
 11
-375.250000
 21
-159.068588
  0
LINE
  8
0
 62
     4
 10
-375.250000
 20
-159.068588
 11
-385.250000
 21
-159.068588
  0
LINE
  8
0
 62
     4
 10
-375.250000
 20
-164.264740
 11
-385.250000
 21
-164.264740
  0
LINE
  8
0
 62
     4
 10
-375.250000
 20
-164.264740
 11
-375.250000
 21
-168.166672
  0
LINE
  8
0
 62
     4
 10
-397.549988
 20
-159.068558
 11
-398.250000
 21
-159.768585
  0
LINE
  8
0
 62
     4
 10
-397.550293
 20
-164.264999
 11
-398.250336
 21
-163.564987
  0
LINE
  8
0
 62
     4
 10
-375.249481
 20
-159.068802
 11
-372.996704
 21
-155.166748
  0
LINE
  8
0
 62
     4
 10
-375.249237
 20
-164.264282
 11
-372.996399
 21
-168.166351
  0
LINE
  8
0
 62
     1
 10
-375.250000
 20
-167.584167
 11
-385.250000
 21
-167.584167
  0
LINE
  8
0
 62
     1
 10
-375.250000
 20
-155.749161
 11
-385.250000
 21
-155.749161
  0
LINE
  8
0
 62
     1
 10
-375.250000
 20
-155.749207
 11
-374.226868
 21
-155.158524
  0
LINE
  8
0
 62
     1
 10
-375.250214
 20
-167.584274
 11
-374.241180
 21
-168.166824
  0
LINE
  8
0
 62
     4
 10
-385.250000
 20
-152.166672
 11
-385.250000
 21
-171.166656
  0
LINE
  8
0
 62
     4
 10
-393.250000
 20
-155.166672
 11
-397.549988
 21
-155.166672
  0
LINE
  8
0
 62
     1
 10
-393.250000
 20
-155.749161
 11
-397.886292
 21
-155.749161
  0
LINE
  8
0
 62
     4
 10
-393.250000
 20
-159.068588
 11
-397.549988
 21
-159.068588
  0
LINE
  8
0
 62
     4
 10
-393.250000
 20
-164.264740
 11
-397.549988
 21
-164.264740
  0
LINE
  8
0
 62
     1
 10
-393.250000
 20
-167.584167
 11
-397.886292
 21
-167.584167
  0
LINE
  8
0
 62
     4
 10
-393.250000
 20
-168.166672
 11
-397.549988
 21
-168.166672
  0
LINE
  8
0
 62
     4
 10
-393.250000
 20
-152.166672
 11
-393.250000
 21
-171.166656
  0
LINE
  8
0
 62
     4
 10
-385.250000
 20
-171.166656
 11
-393.250000
 21
-171.166656
  0
LINE
  8
0
 62
     4
 10
-385.250000
 20
-152.166656
 11
-393.250000
 21
-152.166656
  0
LINE
  8
0
 62
     4
 10
-386.098511
 20
-161.666672
 11
-392.401489
 21
-161.666672
  0
LINE
  8
0
 10
-367.250000
 20
-146.366669
 11
-367.250000
 21
-176.966660
  0
LINE
  8
0
 10
-364.250000
 20
-177.666672
 11
-366.550049
 21
-177.666672
  0
LINE
  8
0
 10
-364.250000
 20
-145.666656
 11
-366.550049
 21
-145.666656
  0
LINE
  8
0
 10
-366.550049
 20
-145.666656
 11
-366.550049
 21
-177.666672
  0
LINE
  8
0
 10
-366.550140
 20
-145.666656
 11
-367.250122
 21
-146.366638
  0
LINE
  8
0
 10
-366.550171
 20
-177.666824
 11
-367.250183
 21
-176.966812
  0
LINE
  8
0
 10
-317.446930
 20
-179.863556
 11
-321.053131
 21
-183.469818
  0
LINE
  8
0
 10
-317.446808
 20
-183.469772
 11
-321.053070
 21
-179.863525
  0
LINE
  8
0
 10
-317.446960
 20
-139.863525
 11
-321.053162
 21
-143.469772
  0
LINE
  8
0
 10
-317.446991
 20
-143.469864
 11
-321.053162
 21
-139.863647
  0
LINE
  8
0
 10
-355.446777
 20
-139.863571
 11
-359.053070
 21
-143.469833
  0
LINE
  8
0
 10
-355.446991
 20
-143.469894
 11
-359.053192
 21
-139.863647
  0
LINE
  8
0
 10
-355.446869
 20
-179.863586
 11
-359.053101
 21
-183.469803
  0
LINE
  8
0
 10
-355.446960
 20
-183.469894
 11
-359.053192
 21
-179.863647
  0
LINE
  8
0
 10
-231.250000
 20
-140.866653
 11
-231.250000
 21
-182.466675
  0
LINE
  8
0
 10
-274.250000
 20
-182.466675
 11
-299.250000
 21
-182.466675
  0
LINE
  8
0
 10
-274.250000
 20
-140.866653
 11
-299.250000
 21
-140.866653
  0
LINE
  8
0
 10
-250.250000
 20
-182.466675
 11
-266.250000
 21
-182.466675
  0
LINE
  8
0
 10
-250.250000
 20
-140.866653
 11
-266.250000
 21
-140.866653
  0
LINE
  8
0
 62
     4
 10
-259.250000
 20
-159.966675
 11
-264.250000
 21
-159.966675
  0
LINE
  8
0
 62
     4
 10
-259.250000
 20
-163.366669
 11
-264.250000
 21
-163.366669
  0
LINE
  8
0
 62
     4
 10
-274.250000
 20
-140.716675
 11
-274.250000
 21
-182.616669
  0
LINE
  8
0
 62
     4
 10
-266.250000
 20
-140.716675
 11
-266.250000
 21
-182.616669
  0
LINE
  8
0
 62
     4
 10
-266.250000
 20
-182.616669
 11
-274.250000
 21
-182.616669
  0
LINE
  8
0
 62
     4
 10
-266.250000
 20
-140.716675
 11
-274.250000
 21
-140.716675
  0
LINE
  8
0
 62
     4
 10
-341.049988
 20
-134.166656
 11
-341.049988
 21
-128.666656
  0
LINE
  8
0
 62
     4
 10
-312.250000
 20
-135.666656
 11
-312.250000
 21
-132.666656
  0
LINE
  8
0
 62
     4
 10
-324.250000
 20
-128.666656
 11
-341.049988
 21
-128.666656
  0
LINE
  8
0
 62
     4
 10
-312.250000
 20
-135.666656
 11
-313.013916
 21
-135.666656
  0
LINE
  8
0
 62
     4
 10
-312.249969
 20
-132.666641
 11
-324.249939
 21
-128.666641
  0
LINE
  8
0
 62
     4
 10
-329.250000
 20
-134.166656
 11
-336.250000
 21
-134.166656
  0
LINE
  8
0
 62
     4
 10
-329.250000
 20
-134.666656
 11
-329.250000
 21
-134.166656
  0
LINE
  8
0
 62
     4
 10
-332.049988
 20
-127.694832
 11
-332.049988
 21
-128.666656
  0
LINE
  8
0
 62
     4
 10
-326.450012
 20
-127.694832
 11
-326.450012
 21
-128.666656
  0
LINE
  8
0
 62
     4
 10
-336.250000
 20
-134.666656
 11
-336.250000
 21
-130.666656
  0
LINE
  8
0
 62
     4
 10
-340.250000
 20
-134.666656
 11
-340.250000
 21
-130.666656
  0
LINE
  8
0
 62
     4
 10
-336.250000
 20
-130.666656
 11
-340.250000
 21
-130.666656
  0
LINE
  8
0
 62
     4
 10
-340.250000
 20
-134.166656
 11
-341.049988
 21
-134.166656
  0
LINE
  8
0
 62
     4
 10
-340.250000
 20
-134.666656
 11
-336.250000
 21
-134.666656
  0
LINE
  8
0
 62
     4
 10
-257.250000
 20
-159.166672
 11
-259.250000
 21
-159.166672
  0
LINE
  8
0
 62
     4
 10
-257.250000
 20
-164.166672
 11
-259.250000
 21
-164.166672
  0
LINE
  8
0
 62
     4
 10
-259.250000
 20
-159.166672
 11
-259.250000
 21
-164.166672
  0
LINE
  8
0
 62
     4
 10
-241.750000
 20
-156.666672
 11
-250.750000
 21
-156.666672
  0
LINE
  8
0
 62
     4
 10
-241.250000
 20
-166.666687
 11
-244.000000
 21
-166.666687
  0
LINE
  8
0
 62
     4
 10
-235.250000
 20
-158.166687
 11
-241.250000
 21
-158.166687
  0
LINE
  8
0
 62
     4
 10
-235.250000
 20
-165.166687
 11
-241.250000
 21
-165.166687
  0
LINE
  8
0
 62
     4
 10
-241.250000
 20
-157.166672
 11
-241.250000
 21
-165.166672
  0
LINE
  8
0
 62
     4
 10
-251.250000
 20
-157.166672
 11
-251.250000
 21
-165.166672
  0
LINE
  8
0
 62
     4
 10
-257.250000
 20
-158.166687
 11
-257.250000
 21
-165.166687
  0
LINE
  8
0
 62
     4
 10
-244.250000
 20
-167.032684
 11
-244.250000
 21
-167.966675
  0
LINE
  8
0
 62
     4
 10
-248.250000
 20
-167.032684
 11
-248.250000
 21
-167.966675
  0
LINE
  8
0
 62
     4
 10
-241.750000
 20
-165.666672
 11
-242.883972
 21
-165.666672
  0
LINE
  8
0
 62
     4
 10
-244.250000
 20
-167.966675
 11
-248.250000
 21
-167.966675
  0
LINE
  8
0
 62
     4
 10
-249.616028
 20
-165.666672
 11
-250.750000
 21
-165.666672
  0
LINE
  8
0
 62
     4
 10
-241.250000
 20
-165.166672
 11
-241.250000
 21
-166.666687
  0
LINE
  8
0
 62
     4
 10
-251.250000
 20
-165.166672
 11
-251.250000
 21
-166.666687
  0
LINE
  8
0
 62
     4
 10
-248.500000
 20
-166.666687
 11
-251.250000
 21
-166.666687
  0
LINE
  8
0
 62
     4
 10
-251.250000
 20
-158.166687
 11
-257.250000
 21
-158.166687
  0
LINE
  8
0
 62
     4
 10
-251.250000
 20
-165.166687
 11
-257.250000
 21
-165.166687
  0
LINE
  8
0
 62
     4
 10
-248.500000
 20
-166.666687
 11
-248.500000
 21
-165.198425
  0
LINE
  8
0
 62
     4
 10
-244.000000
 20
-166.666687
 11
-244.000000
 21
-165.198425
  0
LINE
  8
0
 62
     4
 10
-242.250000
 20
-140.716675
 11
-250.250000
 21
-140.716675
  0
LINE
  8
0
 62
     4
 10
-242.250000
 20
-140.716675
 11
-242.250000
 21
-156.666672
  0
LINE
  8
0
 62
     4
 10
-250.250000
 20
-140.716675
 11
-250.250000
 21
-156.666672
  0
LINE
  8
0
 62
     4
 10
-242.250000
 20
-182.616669
 11
-250.250000
 21
-182.616669
  0
LINE
  8
0
 62
     4
 10
-242.250000
 20
-166.666687
 11
-242.250000
 21
-182.616669
  0
LINE
  8
0
 62
     4
 10
-250.250000
 20
-166.666687
 11
-250.250000
 21
-182.616669
  0
LINE
  8
0
 62
     4
 10
-235.250000
 20
-158.166687
 11
-235.250000
 21
-165.166687
  0
LINE
  8
0
 62
     4
 10
-245.330765
 20
-162.585907
 11
-247.169220
 21
-160.747437
  0
LINE
  8
0
 62
     4
 10
-245.330795
 20
-160.747452
 11
-247.169250
 21
-162.585907
  0
LINE
  8
0
  6
CENTER
 62
     1
 10
-433.416595
 20
-305.074524
 11
-451.416626
 21
-305.074524
  0
LINE
  8
0
  6
CENTER
 62
     1
 10
-442.416626
 20
-296.074524
 11
-442.416626
 21
-314.074524
  0
LINE
  8
0
 62
     4
 10
-435.916565
 20
-299.574524
 11
-435.916565
 21
-310.574524
  0
LINE
  8
0
 62
     4
 10
-448.916626
 20
-299.574524
 11
-448.916626
 21
-310.574524
  0
LINE
  8
0
 62
     4
 10
-436.916565
 20
-298.574524
 11
-447.916626
 21
-298.574524
  0
LINE
  8
0
 62
     4
 10
-436.916565
 20
-311.574524
 11
-447.916626
 21
-311.574524
  0
LINE
  8
0
 62
     4
 10
-322.749969
 20
-299.786957
 11
-322.749969
 21
-310.362091
  0
LINE
  8
0
  6
CENTER
 62
     1
 10
-285.662964
 20
-305.074524
 11
-326.302948
 21
-305.074524
  0
LINE
  8
0
 62
     4
 10
-291.750000
 20
-311.574524
 11
-322.049957
 21
-311.574524
  0
LINE
  8
0
 62
     4
 10
-291.750000
 20
-298.574524
 11
-322.050079
 21
-298.574524
  0
LINE
  8
0
 62
     4
 10
-322.049957
 20
-298.574524
 11
-322.049957
 21
-311.574524
  0
LINE
  8
0
 62
     4
 10
-322.050018
 20
-298.574524
 11
-322.750031
 21
-299.786987
  0
LINE
  8
0
 62
     4
 10
-322.050201
 20
-311.574677
 11
-322.750214
 21
-310.362274
  0
LINE
  8
0
 62
     4
 10
-299.749939
 20
-298.574524
 11
-299.749939
 21
-302.476440
  0
LINE
  8
0
 62
     4
 10
-299.749969
 20
-302.476440
 11
-322.049957
 21
-302.476440
  0
LINE
  8
0
 62
     4
 10
-299.749969
 20
-307.672577
 11
-322.049957
 21
-307.672577
  0
LINE
  8
0
 62
     4
 10
-299.749939
 20
-307.672607
 11
-299.749939
 21
-311.574524
  0
LINE
  8
0
 62
     4
 10
-322.049896
 20
-302.476349
 11
-322.749908
 21
-303.176361
  0
LINE
  8
0
 62
     4
 10
-322.050201
 20
-307.672791
 11
-322.750183
 21
-306.972809
  0
LINE
  8
0
 62
     4
 10
-299.749786
 20
-302.476562
 11
-297.496948
 21
-298.574524
  0
LINE
  8
0
 62
     4
 10
-299.749847
 20
-307.672546
 11
-297.496979
 21
-311.574615
  0
LINE
  8
0
  6
CENTER
 62
     2
 10
380.750000
 20
64.000000
 11
194.877075
 21
64.000000
  0
LINE
  8
0
  6
CENTER
 62
     2
 10
258.750000
 20
133.357376
 11
258.750000
 21
-5.545593
  0
LINE
  8
0
 10
232.750000
 20
112.000046
 11
232.750000
 21
15.999989
  0
LINE
  8
0
 10
284.750000
 20
112.000046
 11
284.750000
 21
15.999989
  0
LINE
  8
0
 10
284.750000
 20
112.000061
 11
260.317078
 21
112.000061
  0
LINE
  8
0
 10
284.750000
 20
16.000000
 11
260.317078
 21
16.000000
  0
LINE
  8
0
  6
CENTER
 62
     2
 10
281.250000
 20
37.000000
 11
266.250000
 21
37.000000
  0
LINE
  8
0
  6
CENTER
 62
     2
 10
273.750000
 20
46.223995
 11
273.750000
 21
28.312431
  0
LINE
  8
0
  6
CENTER
 62
     2
 10
273.750000
 20
83.499985
 11
273.750000
 21
98.499985
  0
LINE
  8
0
  6
CENTER
 62
     2
 10
281.250000
 20
91.000000
 11
266.250000
 21
91.000000
  0
LINE
  8
0
  6
CENTER
 62
     2
 10
243.750000
 20
46.223995
 11
243.750000
 21
28.590134
  0
LINE
  8
0
  6
CENTER
 62
     2
 10
236.250000
 20
37.000000
 11
251.250000
 21
37.000000
  0
LINE
  8
0
  6
CENTER
 62
     2
 10
243.750000
 20
83.499985
 11
243.750000
 21
98.499985
  0
LINE
  8
0
  6
CENTER
 62
     2
 10
236.250000
 20
91.000000
 11
251.250000
 21
91.000000
  0
LINE
  8
0
 10
283.196899
 20
120.000000
 11
234.303101
 21
120.000000
  0
LINE
  8
0
 10
284.075012
 20
115.200043
 11
272.983032
 21
115.200043
  0
LINE
  8
0
 10
284.250000
 20
113.200012
 11
233.250000
 21
113.200012
  0
LINE
  8
0
 10
284.250000
 20
113.200027
 11
284.250000
 21
112.000031
  0
LINE
  8
0
 10
233.250000
 20
113.200027
 11
233.250000
 21
112.000031
  0
LINE
  8
0
 10
244.516968
 20
115.200043
 11
233.424988
 21
115.200043
  0
LINE
  8
0
 10
284.250031
 20
113.200027
 11
283.695038
 21
119.543625
  0
LINE
  8
0
 10
272.186005
 20
115.930267
 11
271.925812
 21
118.904564
  0
LINE
  8
0
 10
245.314240
 20
115.930267
 11
245.574432
 21
118.904602
  0
LINE
  8
0
 10
233.250107
 20
113.199951
 11
233.805161
 21
119.543541
  0
LINE
  8
0
 10
273.000000
 20
117.674057
 11
273.000000
 21
116.500031
  0
LINE
  8
0
 10
282.500000
 20
117.674057
 11
282.500000
 21
116.500031
  0
LINE
  8
0
 10
273.000000
 20
116.500000
 11
282.500000
 21
116.500000
  0
LINE
  8
0
 10
273.250000
 20
116.500031
 11
273.250000
 21
115.200027
  0
LINE
  8
0
 10
282.250000
 20
116.500031
 11
282.250000
 21
115.200027
  0
LINE
  8
0
 10
235.000000
 20
117.674057
 11
235.000000
 21
116.500031
  0
LINE
  8
0
 10
244.500000
 20
117.674057
 11
244.500000
 21
116.500031
  0
LINE
  8
0
 10
235.000000
 20
116.500000
 11
244.500000
 21
116.500000
  0
LINE
  8
0
 10
235.250000
 20
116.500031
 11
235.250000
 21
115.200027
  0
LINE
  8
0
 10
244.250000
 20
116.500031
 11
244.250000
 21
115.200027
  0
LINE
  8
0
 10
284.075012
 20
12.799988
 11
272.983032
 21
12.799988
  0
LINE
  8
0
 10
284.250000
 20
14.799988
 11
233.250000
 21
14.799988
  0
LINE
  8
0
 10
284.250000
 20
14.799995
 11
284.250000
 21
15.999989
  0
LINE
  8
0
 10
233.250000
 20
14.799995
 11
233.250000
 21
15.999989
  0
LINE
  8
0
 10
244.516968
 20
12.799988
 11
233.424988
 21
12.799988
  0
LINE
  8
0
 10
284.249817
 20
14.800034
 11
283.694824
 21
8.456437
  0
LINE
  8
0
 10
272.185822
 20
12.069708
 11
271.925629
 21
9.095399
  0
LINE
  8
0
 10
245.314133
 20
12.069730
 11
245.574326
 21
9.095417
  0
LINE
  8
0
 10
233.249512
 20
14.799964
 11
233.804565
 21
8.456380
  0
LINE
  8
0
 10
273.000000
 20
10.325970
 11
273.000000
 21
11.499992
  0
LINE
  8
0
 10
282.500000
 20
10.325970
 11
282.500000
 21
11.499992
  0
LINE
  8
0
 10
273.000000
 20
11.500000
 11
282.500000
 21
11.500000
  0
LINE
  8
0
 10
273.250000
 20
11.499992
 11
273.250000
 21
12.799992
  0
LINE
  8
0
 10
282.250000
 20
11.499992
 11
282.250000
 21
12.799992
  0
LINE
  8
0
 10
235.000000
 20
10.325970
 11
235.000000
 21
11.499992
  0
LINE
  8
0
 10
244.500000
 20
10.325970
 11
244.500000
 21
11.499992
  0
LINE
  8
0
 10
235.000000
 20
11.500000
 11
244.500000
 21
11.500000
  0
LINE
  8
0
 10
235.250000
 20
11.499992
 11
235.250000
 21
12.799992
  0
LINE
  8
0
 10
244.250000
 20
11.499992
 11
244.250000
 21
12.799992
  0
LINE
  8
0
 10
265.250000
 20
125.000000
 11
252.250000
 21
125.000000
  0
LINE
  8
0
 10
266.255554
 20
124.419495
 11
266.255554
 21
120.580582
  0
LINE
  8
0
 10
251.244446
 20
124.419449
 11
251.244446
 21
120.580582
  0
LINE
  8
0
 10
262.502808
 20
124.419495
 11
262.502808
 21
120.580566
  0
LINE
  8
0
 10
254.997253
 20
124.419495
 11
254.997253
 21
120.580582
  0
LINE
  8
0
 10
265.249908
 20
124.999779
 11
266.255493
 21
124.419220
  0
LINE
  8
0
 10
252.249908
 20
125.000473
 11
251.244370
 21
124.419952
  0
LINE
  8
0
 10
265.249786
 20
120.000397
 11
266.255371
 21
120.580948
  0
LINE
  8
0
 10
252.249969
 20
120.000168
 11
251.244507
 21
120.580673
  0
LINE
  8
0
 10
262.250000
 20
129.500061
 11
255.250000
 21
129.500061
  0
LINE
  8
0
 10
254.750000
 20
129.000031
 11
254.750000
 21
125.000031
  0
LINE
  8
0
 10
262.750000
 20
129.000031
 11
262.750000
 21
125.000031
  0
LINE
  8
0
 10
262.749939
 20
129.000000
 11
262.249969
 21
129.500015
  0
LINE
  8
0
 10
254.750519
 20
128.999481
 11
255.250549
 21
129.499512
  0
LINE
  8
0
 10
262.750000
 20
129.000031
 11
254.750000
 21
129.000031
  0
LINE
  8
0
 62
     2
 10
262.073486
 20
129.500015
 11
262.073486
 21
125.000031
  0
LINE
  8
0
 62
     2
 10
255.426514
 20
129.500015
 11
255.426514
 21
125.000031
  0
LINE
  8
0
 10
283.196899
 20
8.000000
 11
234.303101
 21
8.000000
  0
LINE
  8
0
 10
265.250000
 20
3.000000
 11
252.250000
 21
3.000000
  0
LINE
  8
0
 10
266.255554
 20
3.580544
 11
266.255554
 21
7.419437
  0
LINE
  8
0
 10
251.244446
 20
3.580559
 11
251.244446
 21
7.419437
  0
LINE
  8
0
 10
262.502808
 20
3.580544
 11
262.502808
 21
7.419453
  0
LINE
  8
0
 10
254.997253
 20
3.580544
 11
254.997253
 21
7.419437
  0
LINE
  8
0
 10
265.249969
 20
3.000124
 11
266.255493
 21
3.580637
  0
LINE
  8
0
 10
252.249985
 20
2.999874
 11
251.244400
 21
3.580420
  0
LINE
  8
0
 10
265.249939
 20
7.999911
 11
266.255524
 21
7.419361
  0
LINE
  8
0
 10
252.249893
 20
8.000128
 11
251.244370
 21
7.419606
  0
LINE
  8
0
 10
262.250000
 20
-1.500000
 11
255.250000
 21
-1.500000
  0
LINE
  8
0
 10
254.750000
 20
-1.000008
 11
254.750000
 21
2.999992
  0
LINE
  8
0
 10
262.750000
 20
-1.000008
 11
262.750000
 21
2.999992
  0
LINE
  8
0
 10
262.750122
 20
-1.000193
 11
262.250214
 21
-1.500163
  0
LINE
  8
0
 10
254.750031
 20
-1.000015
 11
255.249939
 21
-1.499990
  0
LINE
  8
0
 10
262.750000
 20
-1.000000
 11
254.750000
 21
-1.000000
  0
LINE
  8
0
 62
     2
 10
262.073486
 20
-1.500015
 11
262.073486
 21
2.999992
  0
LINE
  8
0
 62
     2
 10
255.426514
 20
-1.500015
 11
255.426514
 21
2.999992
  0
LINE
  8
0
 10
297.750000
 20
95.999985
 11
297.750000
 21
31.999996
  0
LINE
  8
0
 10
297.750000
 20
96.000000
 11
284.750000
 21
96.000000
  0
LINE
  8
0
 10
297.750000
 20
85.166016
 11
284.750000
 21
85.166016
  0
LINE
  8
0
 10
297.750000
 20
42.833984
 11
284.750000
 21
42.833984
  0
LINE
  8
0
 10
297.750000
 20
32.000000
 11
284.750000
 21
32.000000
  0
LINE
  8
0
  6
CENTER
 62
     2
 10
291.250000
 20
71.142845
 11
291.250000
 21
57.142853
  0
LINE
  8
0
 10
377.750000
 20
75.000000
 11
377.750000
 21
52.999992
  0
LINE
  8
0
 10
377.750000
 20
53.000000
 11
371.750000
 21
53.000000
  0
LINE
  8
0
 10
377.750000
 20
75.000000
 11
371.750000
 21
75.000000
  0
LINE
  8
0
 10
376.750000
 20
75.000000
 11
376.750000
 21
52.999992
  0
LINE
  8
0
 10
371.750000
 20
84.799988
 11
371.750000
 21
75.000000
  0
LINE
  8
0
 10
371.750000
 20
52.999992
 11
371.750000
 21
43.200012
  0
LINE
  8
0
 10
371.750000
 20
84.799988
 11
354.750000
 21
84.799988
  0
LINE
  8
0
 10
371.750000
 20
43.200012
 11
354.750000
 21
43.200012
  0
LINE
  8
0
 62
     4
 10
198.750000
 20
69.287567
 11
198.750000
 21
58.712448
  0
LINE
  8
0
 62
     4
 10
224.750000
 20
57.500000
 11
211.750000
 21
57.500000
  0
LINE
  8
0
 62
     4
 10
224.750000
 20
70.500000
 11
211.750000
 21
70.500000
  0
LINE
  8
0
 62
     4
 10
199.450012
 20
70.500000
 11
199.450012
 21
57.500008
  0
LINE
  8
0
 62
     4
 10
199.449951
 20
70.500046
 11
198.749939
 21
69.287621
  0
LINE
  8
0
 62
     4
 10
199.449799
 20
57.499908
 11
198.749802
 21
58.712303
  0
LINE
  8
0
 62
     4
 10
221.750000
 20
70.500000
 11
221.750000
 21
66.598076
  0
LINE
  8
0
 62
     4
 10
221.750000
 20
66.598083
 11
211.750000
 21
66.598083
  0
LINE
  8
0
 62
     4
 10
221.750000
 20
61.401917
 11
211.750000
 21
61.401917
  0
LINE
  8
0
 62
     4
 10
221.750000
 20
61.401917
 11
221.750000
 21
57.500008
  0
LINE
  8
0
 62
     4
 10
199.450150
 20
66.597916
 11
198.750137
 21
65.897888
  0
LINE
  8
0
 62
     4
 10
199.449951
 20
61.401840
 11
198.749954
 21
62.101807
  0
LINE
  8
0
 62
     4
 10
221.750443
 20
66.597878
 11
224.003357
 21
70.500000
  0
LINE
  8
0
 62
     4
 10
221.750458
 20
61.402184
 11
224.003296
 21
57.500080
  0
LINE
  8
0
 62
     1
 10
221.750000
 20
58.082520
 11
211.750000
 21
58.082520
  0
LINE
  8
0
 62
     1
 10
221.750000
 20
69.917511
 11
211.750000
 21
69.917511
  0
LINE
  8
0
 62
     1
 10
221.750290
 20
69.917168
 11
222.759171
 21
70.499680
  0
LINE
  8
0
 62
     1
 10
221.750000
 20
58.082481
 11
222.758911
 21
57.500004
  0
LINE
  8
0
 62
     4
 10
211.750000
 20
73.499985
 11
211.750000
 21
54.500000
  0
LINE
  8
0
 62
     4
 10
203.750000
 20
70.500000
 11
199.450012
 21
70.500000
  0
LINE
  8
0
 62
     1
 10
203.750000
 20
69.917511
 11
199.113708
 21
69.917511
  0
LINE
  8
0
 62
     4
 10
203.750000
 20
66.598083
 11
199.450012
 21
66.598083
  0
LINE
  8
0
 62
     4
 10
203.750000
 20
61.401917
 11
199.450012
 21
61.401917
  0
LINE
  8
0
 62
     1
 10
203.750000
 20
58.082520
 11
199.113708
 21
58.082520
  0
LINE
  8
0
 62
     4
 10
203.750000
 20
57.500000
 11
199.450012
 21
57.500000
  0
LINE
  8
0
 62
     4
 10
210.901489
 20
74.969666
 11
204.598511
 21
74.969666
  0
LINE
  8
0
 62
     4
 10
210.901489
 20
69.484802
 11
204.598511
 21
69.484802
  0
LINE
  8
0
 62
     4
 10
210.901489
 20
58.515167
 11
204.598511
 21
58.515167
  0
LINE
  8
0
 62
     4
 10
211.750015
 20
73.499939
 11
210.901505
 21
74.969604
  0
LINE
  8
0
 62
     4
 10
211.749619
 20
54.500168
 11
210.901108
 21
53.030502
  0
LINE
  8
0
 62
     4
 10
210.901489
 20
53.030334
 11
204.598511
 21
53.030334
  0
LINE
  8
0
 62
     4
 10
203.749939
 20
54.499947
 11
204.598450
 21
53.030281
  0
LINE
  8
0
 62
     4
 10
203.750000
 20
73.499985
 11
203.750000
 21
54.500000
  0
LINE
  8
0
 62
     4
 10
203.749893
 20
73.500130
 11
204.598419
 21
74.969795
  0
LINE
  8
0
 10
365.750000
 20
84.799988
 11
365.750000
 21
43.200012
  0
LINE
  8
0
 10
224.750000
 20
37.000000
 11
232.750000
 21
37.000000
  0
LINE
  8
0
 10
224.750000
 20
91.000000
 11
224.750000
 21
37.000000
  0
LINE
  8
0
 10
224.750000
 20
91.000000
 11
232.750000
 21
91.000000
  0
LINE
  8
0
 10
224.750000
 20
89.000000
 11
232.750000
 21
89.000000
  0
LINE
  8
0
  6
CENTER
 62
     2
 10
223.366333
 20
84.000000
 11
235.338135
 21
84.000000
  0
LINE
  8
0
  6
CENTER
 62
     2
 10
223.366333
 20
44.000000
 11
235.338135
 21
44.000000
  0
LINE
  8
0
 10
224.750000
 20
39.000000
 11
232.750000
 21
39.000000
  0
LINE
  8
0
 62
     4
 10
255.949997
 20
97.000046
 11
255.949997
 21
105.000046
  0
LINE
  8
0
 62
     4
 10
271.750000
 20
102.500046
 11
271.250000
 21
102.500046
  0
LINE
  8
0
 62
     4
 10
271.750000
 20
99.500046
 11
271.250000
 21
99.500046
  0
LINE
  8
0
 62
     4
 10
271.250000
 20
104.000046
 11
256.750000
 21
104.000046
  0
LINE
  8
0
 62
     4
 10
271.250000
 20
98.000046
 11
256.750000
 21
98.000046
  0
LINE
  8
0
 62
     4
 10
284.750000
 20
105.000046
 11
255.949997
 21
105.000046
  0
LINE
  8
0
 62
     4
 10
284.750000
 20
97.000046
 11
255.949997
 21
97.000046
  0
LINE
  8
0
 62
     4
 10
284.750000
 20
97.000046
 11
284.750000
 21
105.000046
  0
LINE
  8
0
 62
     4
 10
272.750000
 20
97.000046
 11
272.750000
 21
105.000046
  0
LINE
  8
0
 62
     4
 10
271.250000
 20
98.000046
 11
271.250000
 21
104.000046
  0
LINE
  8
0
 62
     4
 10
271.750000
 20
99.500046
 11
271.750000
 21
102.500046
  0
LINE
  8
0
 62
     4
 10
256.750000
 20
98.000046
 11
256.750000
 21
104.000046
  0
LINE
  8
0
 62
     4
 10
266.689331
 20
99.939384
 11
268.810638
 21
102.060707
  0
LINE
  8
0
 62
     4
 10
268.810669
 20
99.939400
 11
266.689331
 21
102.060722
  0
LINE
  8
0
 62
     4
 10
256.750000
 20
111.250046
 11
256.750000
 21
105.000046
  0
LINE
  8
0
 62
     4
 10
259.883972
 20
112.750046
 11
257.616028
 21
112.750046
  0
LINE
  8
0
 62
     4
 10
256.749878
 20
111.250076
 11
257.615906
 21
112.750084
  0
LINE
  8
0
 62
     4
 10
260.750031
 20
111.250069
 11
259.884003
 21
112.750069
  0
LINE
  8
0
 62
     4
 10
260.750000
 20
111.250046
 11
260.750000
 21
105.000046
  0
LINE
  8
0
 62
     4
 10
260.750000
 20
111.250046
 11
256.750000
 21
111.250046
  0
LINE
  8
0
 62
     4
 10
260.750000
 20
90.750046
 11
256.750000
 21
90.750046
  0
LINE
  8
0
 62
     4
 10
260.250000
 20
89.750046
 11
257.250000
 21
89.750046
  0
LINE
  8
0
 62
     4
 10
257.250000
 20
89.750046
 11
257.250000
 21
84.750046
  0
LINE
  8
0
 62
     4
 10
260.250000
 20
89.750046
 11
260.250000
 21
84.750046
  0
LINE
  8
0
 62
     4
 10
260.750000
 20
90.750092
 11
260.250000
 21
89.750084
  0
LINE
  8
0
 62
     4
 10
256.749939
 20
90.750031
 11
257.249939
 21
89.750038
  0
LINE
  8
0
 62
     4
 10
256.750000
 20
97.000046
 11
256.750000
 21
90.750046
  0
LINE
  8
0
 62
     4
 10
260.750000
 20
97.000046
 11
260.750000
 21
90.750046
  0
LINE
  8
0
 62
     4
 10
260.750000
 20
16.749954
 11
256.750000
 21
16.749954
  0
LINE
  8
0
 62
     4
 10
260.750000
 20
37.249954
 11
256.750000
 21
37.249954
  0
LINE
  8
0
 62
     4
 10
260.250000
 20
38.249954
 11
257.250000
 21
38.249954
  0
LINE
  8
0
 62
     4
 10
260.750000
 20
30.999954
 11
260.750000
 21
37.249954
  0
LINE
  8
0
 62
     4
 10
256.750000
 20
30.999954
 11
256.750000
 21
37.249954
  0
LINE
  8
0
 62
     4
 10
256.750000
 20
37.249977
 11
257.250000
 21
38.249954
  0
LINE
  8
0
 62
     4
 10
260.749969
 20
37.249916
 11
260.249969
 21
38.249928
  0
LINE
  8
0
 62
     4
 10
260.250000
 20
38.249954
 11
260.250000
 21
43.249954
  0
LINE
  8
0
 62
     4
 10
257.250000
 20
38.249954
 11
257.250000
 21
43.249954
  0
LINE
  8
0
 62
     4
 10
260.750000
 20
16.749954
 11
260.750000
 21
22.999954
  0
LINE
  8
0
 62
     4
 10
255.949997
 20
30.999954
 11
255.949997
 21
22.999954
  0
LINE
  8
0
 62
     4
 10
271.750000
 20
25.499954
 11
271.250000
 21
25.499954
  0
LINE
  8
0
 62
     4
 10
271.750000
 20
28.499954
 11
271.250000
 21
28.499954
  0
LINE
  8
0
 62
     4
 10
271.250000
 20
23.999954
 11
256.750000
 21
23.999954
  0
LINE
  8
0
 62
     4
 10
271.250000
 20
29.999954
 11
256.750000
 21
29.999954
  0
LINE
  8
0
 62
     4
 10
284.750000
 20
22.999954
 11
255.949997
 21
22.999954
  0
LINE
  8
0
 62
     4
 10
284.750000
 20
30.999954
 11
255.949997
 21
30.999954
  0
LINE
  8
0
 62
     4
 10
284.750000
 20
30.999954
 11
284.750000
 21
22.999954
  0
LINE
  8
0
 62
     4
 10
272.750000
 20
30.999954
 11
272.750000
 21
22.999954
  0
LINE
  8
0
 62
     4
 10
271.250000
 20
29.999954
 11
271.250000
 21
23.999954
  0
LINE
  8
0
 62
     4
 10
271.750000
 20
28.499954
 11
271.750000
 21
25.499954
  0
LINE
  8
0
 62
     4
 10
256.750000
 20
29.999954
 11
256.750000
 21
23.999954
  0
LINE
  8
0
 62
     4
 10
266.689331
 20
28.060593
 11
268.810638
 21
25.939272
  0
LINE
  8
0
 62
     4
 10
268.810669
 20
28.060623
 11
266.689362
 21
25.939304
  0
LINE
  8
0
 62
     4
 10
256.750000
 20
16.749954
 11
256.750000
 21
22.999954
  0
LINE
  8
0
 62
     4
 10
259.883972
 20
15.249954
 11
257.616028
 21
15.249954
  0
LINE
  8
0
 62
     4
 10
256.749969
 20
16.749907
 11
257.615997
 21
15.249909
  0
LINE
  8
0
 62
     4
 10
260.750092
 20
16.749907
 11
259.884064
 21
15.249904
  0
LINE
  8
0
 62
     4
 10
353.350006
 20
31.014503
 11
348.149994
 21
31.014503
  0
LINE
  8
0
 62
     4
 10
352.550018
 20
29.014503
 11
351.050018
 21
29.014503
  0
LINE
  8
0
 62
     4
 10
348.149994
 20
29.814507
 11
348.149994
 21
31.014503
  0
LINE
  8
0
 62
     4
 10
353.350006
 20
29.814507
 11
353.350006
 21
31.014503
  0
LINE
  8
0
 62
     4
 10
351.050018
 20
30.014503
 11
351.050018
 21
29.014503
  0
LINE
  8
0
 62
     4
 10
350.449982
 20
30.014503
 11
350.449982
 21
29.014503
  0
LINE
  8
0
 62
     4
 10
351.050018
 20
30.014503
 11
350.449982
 21
30.014503
  0
LINE
  8
0
 62
     4
 10
350.449982
 20
29.014503
 11
348.950012
 21
29.014503
  0
LINE
  8
0
 62
     4
 10
361.750000
 20
36.314514
 11
355.750000
 21
36.314514
  0
LINE
  8
0
 62
     4
 10
339.750000
 20
36.314514
 11
339.750000
 21
43.200012
  0
LINE
  8
0
 62
     4
 10
361.750000
 20
36.314514
 11
361.750000
 21
42.814514
  0
LINE
  8
0
 62
     4
 10
361.750000
 20
42.814507
 11
361.364502
 21
43.200020
  0
LINE
  8
0
 62
     4
 10
361.750000
 20
42.814514
 11
354.750000
 21
42.814514
  0
LINE
  8
0
 62
     4
 10
360.250000
 20
36.314514
 11
360.250000
 21
35.814514
  0
LINE
  8
0
 62
     4
 10
356.250000
 20
36.314514
 11
356.250000
 21
35.814514
  0
LINE
  8
0
 62
     4
 10
360.250000
 20
35.814514
 11
356.250000
 21
35.814514
  0
LINE
  8
0
 62
     4
 10
356.292236
 20
35.741413
 11
356.250031
 21
35.814518
  0
LINE
  8
0
 62
     4
 10
360.207794
 20
35.741398
 11
360.250000
 21
35.814526
  0
LINE
  8
0
 62
     4
 10
339.750000
 20
37.314514
 11
337.750000
 21
37.314514
  0
LINE
  8
0
 62
     4
 10
339.750000
 20
42.314514
 11
337.750000
 21
42.314514
  0
LINE
  8
0
 62
     4
 10
337.750000
 20
37.314514
 11
337.750000
 21
42.314514
  0
LINE
  8
0
 62
     4
 10
349.250000
 20
31.014503
 11
349.250000
 21
32.000008
  0
LINE
  8
0
 62
     4
 10
352.250000
 20
31.014503
 11
352.250000
 21
32.000008
  0
LINE
  8
0
 62
     1
 10
352.000000
 20
31.014503
 11
352.000000
 21
32.000008
  0
LINE
  8
0
 62
     1
 10
349.500000
 20
31.014503
 11
349.500000
 21
32.000008
  0
LINE
  8
0
 62
     4
 10
355.250000
 20
39.000000
 11
346.250000
 21
39.000000
  0
LINE
  8
0
 62
     4
 10
355.750000
 20
38.500000
 11
355.750000
 21
32.000008
  0
LINE
  8
0
 62
     4
 10
345.750000
 20
38.500000
 11
345.750000
 21
32.000008
  0
LINE
  8
0
 62
     4
 10
355.750000
 20
32.000008
 11
345.750000
 21
32.000008
  0
LINE
  8
0
 62
     4
 10
345.750000
 20
36.314514
 11
339.750000
 21
36.314514
  0
LINE
  8
0
 62
     4
 10
354.750000
 20
84.950012
 11
346.750000
 21
84.950012
  0
LINE
  8
0
 62
     4
 10
354.750000
 20
39.000000
 11
354.750000
 21
84.950012
  0
LINE
  8
0
 62
     4
 10
346.750000
 20
39.000000
 11
346.750000
 21
84.950012
  0
LINE
  8
0
 62
     4
 10
346.750000
 20
42.814514
 11
339.750000
 21
42.814514
  0
LINE
  8
0
 62
     4
 10
337.750000
 20
38.114502
 11
332.750000
 21
38.114502
  0
LINE
  8
0
 62
     4
 10
337.750000
 20
41.514496
 11
332.750000
 21
41.514496
  0
LINE
  8
0
 62
     4
 10
324.149994
 20
96.985497
 11
329.349976
 21
96.985497
  0
LINE
  8
0
 62
     4
 10
324.950012
 20
98.985497
 11
326.450012
 21
98.985497
  0
LINE
  8
0
 62
     4
 10
329.349976
 20
98.185493
 11
329.349976
 21
96.985497
  0
LINE
  8
0
 62
     4
 10
324.149994
 20
98.185493
 11
324.149994
 21
96.985497
  0
LINE
  8
0
 62
     4
 10
326.450012
 20
97.985497
 11
326.450012
 21
98.985497
  0
LINE
  8
0
 62
     4
 10
327.049988
 20
97.985497
 11
327.049988
 21
98.985497
  0
LINE
  8
0
 62
     4
 10
326.450012
 20
97.985497
 11
327.049988
 21
97.985497
  0
LINE
  8
0
 62
     4
 10
327.049988
 20
98.985497
 11
328.549988
 21
98.985497
  0
LINE
  8
0
 62
     4
 10
315.750000
 20
91.685486
 11
321.750000
 21
91.685486
  0
LINE
  8
0
 62
     4
 10
337.750000
 20
91.685486
 11
337.750000
 21
84.799988
  0
LINE
  8
0
 62
     4
 10
315.750000
 20
91.685486
 11
315.750000
 21
85.185486
  0
LINE
  8
0
 62
     4
 10
315.749939
 20
85.185455
 11
316.135468
 21
84.799957
  0
LINE
  8
0
 62
     4
 10
315.750000
 20
85.185486
 11
322.750000
 21
85.185486
  0
LINE
  8
0
 62
     4
 10
317.250000
 20
91.685486
 11
317.250000
 21
92.185486
  0
LINE
  8
0
 62
     4
 10
321.250000
 20
91.685486
 11
321.250000
 21
92.185486
  0
LINE
  8
0
 62
     4
 10
317.250000
 20
92.185486
 11
321.250000
 21
92.185486
  0
LINE
  8
0
 62
     4
 10
321.207794
 20
92.258621
 11
321.250000
 21
92.185501
  0
LINE
  8
0
 62
     4
 10
317.292175
 20
92.258614
 11
317.249969
 21
92.185493
  0
LINE
  8
0
 62
     4
 10
337.750000
 20
90.685486
 11
339.750000
 21
90.685486
  0
LINE
  8
0
 62
     4
 10
337.750000
 20
85.685486
 11
339.750000
 21
85.685486
  0
LINE
  8
0
 62
     4
 10
339.750000
 20
90.685486
 11
339.750000
 21
85.685486
  0
LINE
  8
0
 62
     4
 10
328.250000
 20
96.985497
 11
328.250000
 21
94.999992
  0
LINE
  8
0
 62
     4
 10
325.250000
 20
96.985497
 11
325.250000
 21
94.999992
  0
LINE
  8
0
 62
     1
 10
325.500000
 20
96.985497
 11
325.500000
 21
94.999992
  0
LINE
  8
0
 62
     1
 10
328.000000
 20
96.985497
 11
328.000000
 21
94.999992
  0
LINE
  8
0
 62
     4
 10
322.250000
 20
89.000000
 11
331.250000
 21
89.000000
  0
LINE
  8
0
 62
     4
 10
324.750000
 20
92.500000
 11
328.750000
 21
92.500000
  0
LINE
  8
0
 62
     4
 10
324.500000
 20
94.999992
 11
329.000000
 21
94.999992
  0
LINE
  8
0
 62
     4
 10
321.750000
 20
95.999992
 11
324.500000
 21
95.999992
  0
LINE
  8
0
 62
     4
 10
321.750000
 20
89.500000
 11
321.750000
 21
95.999992
  0
LINE
  8
0
 62
     4
 10
331.750000
 20
89.500000
 11
331.750000
 21
95.999992
  0
LINE
  8
0
 62
     4
 10
324.750000
 20
94.999992
 11
324.750000
 21
92.500000
  0
LINE
  8
0
 62
     4
 10
328.750000
 20
94.999992
 11
328.750000
 21
92.500000
  0
LINE
  8
0
 62
     4
 10
324.500000
 20
95.999992
 11
324.500000
 21
94.385490
  0
LINE
  8
0
 62
     4
 10
329.000000
 20
95.999992
 11
329.000000
 21
94.385490
  0
LINE
  8
0
 62
     4
 10
329.000000
 20
95.999992
 11
331.750000
 21
95.999992
  0
LINE
  8
0
 62
     4
 10
324.323273
 20
93.999992
 11
324.750000
 21
93.999992
  0
LINE
  8
0
 62
     4
 10
328.750000
 20
93.999992
 11
329.176697
 21
93.999992
  0
LINE
  8
0
 62
     4
 10
331.750000
 20
91.685486
 11
337.750000
 21
91.685486
  0
LINE
  8
0
 62
     4
 10
322.750000
 20
43.049988
 11
330.750000
 21
43.049988
  0
LINE
  8
0
 62
     4
 10
322.750000
 20
89.000000
 11
322.750000
 21
43.049988
  0
LINE
  8
0
 62
     4
 10
330.750000
 20
89.000000
 11
330.750000
 21
43.049988
  0
LINE
  8
0
 62
     4
 10
330.750000
 20
85.185486
 11
337.750000
 21
85.185486
  0
LINE
  8
0
 62
     4
 10
339.750000
 20
89.885498
 11
344.750000
 21
89.885498
  0
LINE
  8
0
 62
     4
 10
339.750000
 20
86.485504
 11
344.750000
 21
86.485504
  0
LINE
  8
0
 10
257.182831
 20
16.000000
 11
232.750000
 21
16.000000
  0
LINE
  8
0
 10
257.182892
 20
112.000061
 11
232.750000
 21
112.000061
  0
LINE
  8
0
 10
346.750000
 20
84.799988
 11
330.750000
 21
84.799988
  0
LINE
  8
0
 10
322.750000
 20
84.799988
 11
297.750000
 21
84.799988
  0
LINE
  8
0
 10
322.750000
 20
43.200012
 11
297.750000
 21
43.200012
  0
LINE
  8
0
 10
346.750000
 20
43.200012
 11
330.750000
 21
43.200012
  0
LINE
  8
0
  6
CENTER
 62
     2
 10
74.083374
 20
123.382980
 11
74.083374
 21
4.882187
  0
LINE
  8
0
 10
47.083374
 20
112.000046
 11
47.083374
 21
91.000000
  0
LINE
  8
0
 10
101.083374
 20
112.000046
 11
101.083374
 21
91.000000
  0
LINE
  8
0
 10
47.083252
 20
16.000000
 11
101.083374
 21
16.000000
  0
LINE
  8
0
 10
47.083252
 20
112.000061
 11
101.083374
 21
112.000061
  0
LINE
  8
0
 10
47.583374
 20
113.200027
 11
47.583374
 21
112.000031
  0
LINE
  8
0
 10
100.583252
 20
113.200027
 11
100.583252
 21
112.000031
  0
LINE
  8
0
 10
47.583374
 20
113.200012
 11
100.583252
 21
113.200012
  0
LINE
  8
0
 10
48.636475
 20
120.000000
 11
99.530273
 21
120.000000
  0
LINE
  8
0
 10
47.758301
 20
115.200043
 11
58.850342
 21
115.200043
  0
LINE
  8
0
 10
89.316406
 20
115.200043
 11
100.408325
 21
115.200043
  0
LINE
  8
0
 10
47.583698
 20
113.199913
 11
48.138752
 21
119.543495
  0
LINE
  8
0
 10
59.646198
 20
115.930359
 11
59.906452
 21
118.904716
  0
LINE
  8
0
 10
88.518539
 20
115.930244
 11
88.258286
 21
118.904541
  0
LINE
  8
0
 10
100.583649
 20
113.200035
 11
100.028595
 21
119.543594
  0
LINE
  8
0
 10
58.833374
 20
117.674057
 11
58.833374
 21
116.500031
  0
LINE
  8
0
 10
49.333252
 20
117.674057
 11
49.333252
 21
116.500031
  0
LINE
  8
0
 10
58.833374
 20
116.500000
 11
49.333252
 21
116.500000
  0
LINE
  8
0
 10
58.583374
 20
116.500031
 11
58.583374
 21
115.200027
  0
LINE
  8
0
 10
49.583374
 20
116.500031
 11
49.583374
 21
115.200027
  0
LINE
  8
0
 10
98.833374
 20
117.674057
 11
98.833374
 21
116.500031
  0
LINE
  8
0
 10
89.333252
 20
117.674057
 11
89.333252
 21
116.500031
  0
LINE
  8
0
 10
98.833252
 20
116.500000
 11
89.333252
 21
116.500000
  0
LINE
  8
0
 10
98.583374
 20
116.500031
 11
98.583374
 21
115.200027
  0
LINE
  8
0
 10
89.583374
 20
116.500031
 11
89.583374
 21
115.200027
  0
LINE
  8
0
 10
47.583374
 20
14.799995
 11
47.583374
 21
15.999989
  0
LINE
  8
0
 10
100.583252
 20
14.799995
 11
100.583252
 21
15.999989
  0
LINE
  8
0
 10
47.583374
 20
14.799988
 11
100.583252
 21
14.799988
  0
LINE
  8
0
 10
48.636475
 20
8.000000
 11
99.530273
 21
8.000000
  0
LINE
  8
0
 10
47.758301
 20
12.799988
 11
58.850342
 21
12.799988
  0
LINE
  8
0
 10
89.316406
 20
12.799988
 11
100.408325
 21
12.799988
  0
LINE
  8
0
 10
47.583565
 20
14.800013
 11
48.138496
 21
8.456441
  0
LINE
  8
0
 10
59.646858
 20
12.069664
 11
59.907108
 21
9.095356
  0
LINE
  8
0
 10
88.519554
 20
12.069686
 11
88.259422
 21
9.095367
  0
LINE
  8
0
 10
100.583214
 20
14.799994
 11
100.028160
 21
8.456409
  0
LINE
  8
0
 10
58.833374
 20
10.325970
 11
58.833374
 21
11.499992
  0
LINE
  8
0
 10
49.333252
 20
10.325970
 11
49.333252
 21
11.499992
  0
LINE
  8
0
 10
58.833374
 20
11.500000
 11
49.333252
 21
11.500000
  0
LINE
  8
0
 10
58.583374
 20
11.499992
 11
58.583374
 21
12.799992
  0
LINE
  8
0
 10
49.583374
 20
11.499992
 11
49.583374
 21
12.799992
  0
LINE
  8
0
 10
98.833374
 20
10.325970
 11
98.833374
 21
11.499992
  0
LINE
  8
0
 10
89.333252
 20
10.325970
 11
89.333252
 21
11.499992
  0
LINE
  8
0
 10
98.833252
 20
11.500000
 11
89.333252
 21
11.500000
  0
LINE
  8
0
 10
98.583374
 20
11.499992
 11
98.583374
 21
12.799992
  0
LINE
  8
0
 10
89.583374
 20
11.499992
 11
89.583374
 21
12.799992
  0
LINE
  8
0
 10
82.083252
 20
3.000000
 11
95.083374
 21
3.000000
  0
LINE
  8
0
 10
85.083374
 20
-1.500000
 11
92.083374
 21
-1.500000
  0
LINE
  8
0
 10
92.583374
 20
-1.000008
 11
92.583374
 21
2.999992
  0
LINE
  8
0
 10
84.583252
 20
-1.000008
 11
84.583252
 21
2.999992
  0
LINE
  8
0
 10
84.583641
 20
-0.999864
 11
85.083542
 21
-1.499861
  0
LINE
  8
0
 10
92.583473
 20
-1.000204
 11
92.083488
 21
-1.500196
  0
LINE
  8
0
 10
84.583252
 20
-1.000000
 11
92.583374
 21
-1.000000
  0
LINE
  8
0
 62
     2
 10
85.259766
 20
-1.500015
 11
85.259766
 21
2.999992
  0
LINE
  8
0
 62
     2
 10
91.906860
 20
-1.500015
 11
91.906860
 21
2.999992
  0
LINE
  8
0
 10
95.083374
 20
7.999992
 11
95.083374
 21
2.999992
  0
LINE
  8
0
 10
82.083252
 20
7.999992
 11
82.083252
 21
2.999992
  0
LINE
  8
0
 10
88.583374
 20
7.419437
 11
88.583374
 21
3.580544
  0
LINE
  8
0
 10
82.083252
 20
125.000000
 11
95.083374
 21
125.000000
  0
LINE
  8
0
 10
85.083374
 20
129.500061
 11
92.083374
 21
129.500061
  0
LINE
  8
0
 10
92.583374
 20
129.000031
 11
92.583374
 21
125.000031
  0
LINE
  8
0
 10
84.583252
 20
129.000031
 11
84.583252
 21
125.000031
  0
LINE
  8
0
 10
84.583519
 20
128.999908
 11
85.083527
 21
129.499878
  0
LINE
  8
0
 10
92.583549
 20
129.000061
 11
92.083542
 21
129.500046
  0
LINE
  8
0
 10
84.583252
 20
129.000031
 11
92.583374
 21
129.000031
  0
LINE
  8
0
 62
     2
 10
85.259766
 20
129.500015
 11
85.259766
 21
125.000031
  0
LINE
  8
0
 62
     2
 10
91.906860
 20
129.500015
 11
91.906860
 21
125.000031
  0
LINE
  8
0
 10
95.083374
 20
120.000031
 11
95.083374
 21
125.000031
  0
LINE
  8
0
 10
82.083252
 20
120.000031
 11
82.083252
 21
125.000031
  0
LINE
  8
0
 10
88.583374
 20
120.580582
 11
88.583374
 21
124.419495
  0
LINE
  8
0
 62
     4
 10
74.083290
 20
74.969742
 11
64.583252
 21
69.484901
  0
LINE
  8
0
 62
     4
 10
83.583267
 20
58.515194
 11
74.083260
 21
53.030361
  0
LINE
  8
0
 62
     4
 10
83.583305
 20
69.484840
 11
74.083305
 21
74.969688
  0
LINE
  8
0
 62
     4
 10
74.083389
 20
53.030323
 11
64.583252
 21
58.515179
  0
LINE
  8
0
 62
     4
 10
83.583374
 20
69.484825
 11
83.583374
 21
58.515152
  0
LINE
  8
0
 62
     4
 10
64.583374
 20
69.484833
 11
64.583374
 21
58.515152
  0
LINE
  8
0
 10
47.083374
 20
37.000000
 11
47.083374
 21
15.999989
  0
LINE
  8
0
 10
101.083374
 20
37.000000
 11
101.083374
 21
15.999989
  0
LINE
  8
0
  6
CENTER
 62
     2
 10
24.032448
 20
64.000000
 11
123.453598
 21
64.000000
  0
LINE
  8
0
 10
31.083374
 20
91.000000
 11
117.083374
 21
91.000000
  0
LINE
  8
0
 10
31.083374
 20
37.000000
 11
117.083374
 21
37.000000
  0
LINE
  8
0
 10
119.083374
 20
89.000000
 11
119.083374
 21
39.000004
  0
LINE
  8
0
 10
117.083359
 20
90.999985
 11
119.083359
 21
88.999985
  0
LINE
  8
0
 10
117.083351
 20
37.000004
 11
119.083351
 21
39.000008
  0
LINE
  8
0
  6
CENTER
 62
     2
 10
104.083374
 20
84.000000
 11
114.083374
 21
84.000000
  0
LINE
  8
0
  6
CENTER
 62
     2
 10
109.083374
 20
89.000000
 11
109.083374
 21
79.000000
  0
LINE
  8
0
  6
CENTER
 62
     2
 10
104.083374
 20
44.000000
 11
114.083374
 21
44.000000
  0
LINE
  8
0
  6
CENTER
 62
     2
 10
109.083374
 20
39.000000
 11
109.083374
 21
49.000000
  0
LINE
  8
0
 10
29.083374
 20
89.000000
 11
29.083374
 21
39.000000
  0
LINE
  8
0
 10
31.083374
 20
91.000000
 11
29.083372
 21
88.999992
  0
LINE
  8
0
 10
29.083374
 20
39.000000
 11
31.083374
 21
37.000000
  0
LINE
  8
0
  6
CENTER
 62
     2
 10
44.083374
 20
84.000000
 11
34.083374
 21
84.000000
  0
LINE
  8
0
  6
CENTER
 62
     2
 10
39.083374
 20
89.000000
 11
39.083374
 21
79.000000
  0
LINE
  8
0
  6
CENTER
 62
     2
 10
44.083374
 20
44.000000
 11
34.083374
 21
44.000000
  0
LINE
  8
0
  6
CENTER
 62
     2
 10
39.083374
 20
39.000000
 11
39.083374
 21
49.000000
  0
LINE
  8
0
 62
     4
 10
108.055206
 20
103.800049
 11
107.083374
 21
103.800049
  0
LINE
  8
0
 62
     4
 10
108.055206
 20
98.200043
 11
107.083374
 21
98.200043
  0
LINE
  8
0
 62
     4
 10
101.583374
 20
105.000046
 11
107.083374
 21
105.000046
  0
LINE
  8
0
 62
     4
 10
101.583374
 20
97.000046
 11
107.083374
 21
97.000046
  0
LINE
  8
0
 62
     4
 10
101.583374
 20
105.000046
 11
101.583374
 21
97.000046
  0
LINE
  8
0
 62
     4
 10
107.083374
 20
105.000046
 11
107.083374
 21
97.000046
  0
LINE
  8
0
 62
     4
 10
101.083374
 20
111.250046
 11
101.083374
 21
91.000000
  0
LINE
  8
0
 62
     4
 10
104.217346
 20
112.750046
 11
101.949402
 21
112.750046
  0
LINE
  8
0
 62
     4
 10
101.083298
 20
111.250069
 11
101.949326
 21
112.750069
  0
LINE
  8
0
 62
     4
 10
105.083435
 20
111.250076
 11
104.217407
 21
112.750084
  0
LINE
  8
0
 62
     4
 10
105.083374
 20
111.250046
 11
105.083374
 21
105.000046
  0
LINE
  8
0
 62
     4
 10
105.083374
 20
111.250046
 11
101.083374
 21
111.250046
  0
LINE
  8
0
 62
     4
 10
105.083374
 20
97.000046
 11
105.083374
 21
91.000000
  0
LINE
  8
0
 62
     4
 10
105.083374
 20
30.999954
 11
105.083374
 21
37.000000
  0
LINE
  8
0
 62
     4
 10
101.083374
 20
16.749954
 11
101.083374
 21
37.000000
  0
LINE
  8
0
 62
     4
 10
108.055206
 20
24.199951
 11
107.083374
 21
24.199951
  0
LINE
  8
0
 62
     4
 10
108.055206
 20
29.799957
 11
107.083374
 21
29.799957
  0
LINE
  8
0
 62
     4
 10
101.583374
 20
22.999954
 11
107.083374
 21
22.999954
  0
LINE
  8
0
 62
     4
 10
101.583374
 20
30.999954
 11
107.083374
 21
30.999954
  0
LINE
  8
0
 62
     4
 10
101.583374
 20
22.999954
 11
101.583374
 21
30.999954
  0
LINE
  8
0
 62
     4
 10
107.083374
 20
22.999954
 11
107.083374
 21
30.999954
  0
LINE
  8
0
 62
     4
 10
104.217346
 20
15.249954
 11
101.949402
 21
15.249954
  0
LINE
  8
0
 62
     4
 10
101.083305
 20
16.749920
 11
101.949333
 21
15.249914
  0
LINE
  8
0
 62
     4
 10
105.083443
 20
16.749907
 11
104.217415
 21
15.249902
  0
LINE
  8
0
 62
     4
 10
105.083374
 20
16.749954
 11
105.083374
 21
22.999954
  0
LINE
  8
0
 62
     4
 10
105.083374
 20
16.749954
 11
101.083374
 21
16.749954
  0
LINE
  8
0
  6
CENTER
 62
     2
 10
467.416626
 20
123.575531
 11
467.416626
 21
4.680946
  0
LINE
  8
0
  6
CENTER
 62
     2
 10
516.364624
 20
64.000000
 11
418.341705
 21
64.000000
  0
LINE
  8
0
 10
494.416687
 20
112.000015
 11
494.416687
 21
15.999989
  0
LINE
  8
0
 10
440.416626
 20
112.000015
 11
440.416626
 21
105.000000
  0
LINE
  8
0
 10
494.416687
 20
16.000000
 11
440.416687
 21
16.000000
  0
LINE
  8
0
 10
494.416687
 20
112.000000
 11
440.416687
 21
112.000000
  0
LINE
  8
0
  6
CENTER
 62
     2
 10
465.416687
 20
105.500000
 11
451.416687
 21
105.500000
  0
LINE
  8
0
  6
CENTER
 62
     2
 10
458.416687
 20
112.499992
 11
458.416687
 21
98.499977
  0
LINE
  8
0
  6
CENTER
 62
     2
 10
465.416687
 20
22.500000
 11
451.416687
 21
22.500000
  0
LINE
  8
0
  6
CENTER
 62
     2
 10
458.416687
 20
15.758015
 11
458.416687
 21
29.582123
  0
LINE
  8
0
 10
493.916626
 20
113.199997
 11
493.916626
 21
112.000015
  0
LINE
  8
0
 10
440.916687
 20
113.199997
 11
440.916687
 21
112.000015
  0
LINE
  8
0
 10
493.916626
 20
113.200012
 11
440.916687
 21
113.200012
  0
LINE
  8
0
 10
492.863586
 20
120.000000
 11
441.969727
 21
120.000000
  0
LINE
  8
0
 10
493.741699
 20
115.200012
 11
482.649780
 21
115.200012
  0
LINE
  8
0
 10
452.183594
 20
115.200012
 11
441.091675
 21
115.200012
  0
LINE
  8
0
 10
493.916626
 20
113.199997
 11
493.361633
 21
119.543579
  0
LINE
  8
0
 10
481.853485
 20
115.930359
 11
481.593231
 21
118.904686
  0
LINE
  8
0
 10
452.980835
 20
115.930275
 11
453.241089
 21
118.904602
  0
LINE
  8
0
 10
440.916504
 20
113.200020
 11
441.471558
 21
119.543610
  0
LINE
  8
0
 10
482.666626
 20
117.674026
 11
482.666626
 21
116.500015
  0
LINE
  8
0
 10
492.166687
 20
117.674026
 11
492.166687
 21
116.500015
  0
LINE
  8
0
 10
482.666626
 20
116.500000
 11
492.166687
 21
116.500000
  0
LINE
  8
0
 10
482.916626
 20
116.500015
 11
482.916626
 21
115.200012
  0
LINE
  8
0
 10
491.916687
 20
116.500015
 11
491.916687
 21
115.200012
  0
LINE
  8
0
 10
442.666626
 20
117.674026
 11
442.666626
 21
116.500015
  0
LINE
  8
0
 10
452.166687
 20
117.674026
 11
452.166687
 21
116.500015
  0
LINE
  8
0
 10
442.666687
 20
116.500000
 11
452.166687
 21
116.500000
  0
LINE
  8
0
 10
442.916626
 20
116.500015
 11
442.916626
 21
115.200012
  0
LINE
  8
0
 10
451.916687
 20
116.500015
 11
451.916687
 21
115.200012
  0
LINE
  8
0
 10
493.916626
 20
14.799992
 11
493.916626
 21
15.999989
  0
LINE
  8
0
 10
440.916687
 20
14.799992
 11
440.916687
 21
15.999989
  0
LINE
  8
0
 10
493.916626
 20
14.799988
 11
440.916687
 21
14.799988
  0
LINE
  8
0
 10
492.863586
 20
8.000000
 11
441.969727
 21
8.000000
  0
LINE
  8
0
 10
493.741699
 20
12.799988
 11
482.649780
 21
12.799988
  0
LINE
  8
0
 10
452.183594
 20
12.799988
 11
441.091675
 21
12.799988
  0
LINE
  8
0
 10
493.917328
 20
14.799935
 11
493.362274
 21
8.456363
  0
LINE
  8
0
 10
481.852783
 20
12.069714
 11
481.592590
 21
9.095393
  0
LINE
  8
0
 10
452.979767
 20
12.069661
 11
453.239960
 21
9.095333
  0
LINE
  8
0
 10
440.917084
 20
14.800032
 11
441.472137
 21
8.456440
  0
LINE
  8
0
 10
482.666626
 20
10.325970
 11
482.666626
 21
11.499992
  0
LINE
  8
0
 10
492.166687
 20
10.325970
 11
492.166687
 21
11.499992
  0
LINE
  8
0
 10
482.666626
 20
11.500000
 11
492.166687
 21
11.500000
  0
LINE
  8
0
 10
482.916626
 20
11.499992
 11
482.916626
 21
12.799992
  0
LINE
  8
0
 10
491.916687
 20
11.499992
 11
491.916687
 21
12.799992
  0
LINE
  8
0
 10
442.666626
 20
10.325970
 11
442.666626
 21
11.499992
  0
LINE
  8
0
 10
452.166687
 20
10.325970
 11
452.166687
 21
11.499992
  0
LINE
  8
0
 10
442.666687
 20
11.500000
 11
452.166687
 21
11.500000
  0
LINE
  8
0
 10
442.916626
 20
11.499992
 11
442.916626
 21
12.799992
  0
LINE
  8
0
 10
451.916687
 20
11.499992
 11
451.916687
 21
12.799992
  0
LINE
  8
0
 10
459.416687
 20
3.000000
 11
446.416626
 21
3.000000
  0
LINE
  8
0
 10
456.416626
 20
-1.500000
 11
449.416626
 21
-1.500000
  0
LINE
  8
0
 10
448.916626
 20
-1.000008
 11
448.916626
 21
2.999992
  0
LINE
  8
0
 10
456.916687
 20
-1.000008
 11
456.916687
 21
2.999992
  0
LINE
  8
0
 10
456.916504
 20
-0.999959
 11
456.416565
 21
-1.499920
  0
LINE
  8
0
 10
448.916473
 20
-1.000076
 11
449.416534
 21
-1.500081
  0
LINE
  8
0
 10
456.916687
 20
-1.000000
 11
448.916626
 21
-1.000000
  0
LINE
  8
0
 62
     2
 10
456.240173
 20
-1.500015
 11
456.240173
 21
2.999992
  0
LINE
  8
0
 62
     2
 10
449.593140
 20
-1.500015
 11
449.593140
 21
2.999992
  0
LINE
  8
0
 10
446.416626
 20
7.999992
 11
446.416626
 21
2.999992
  0
LINE
  8
0
 10
459.416687
 20
7.999992
 11
459.416687
 21
2.999992
  0
LINE
  8
0
 10
452.916626
 20
7.419437
 11
452.916626
 21
3.580544
  0
LINE
  8
0
 10
459.416687
 20
125.000000
 11
446.416626
 21
125.000000
  0
LINE
  8
0
 10
456.416626
 20
129.500000
 11
449.416626
 21
129.500000
  0
LINE
  8
0
 10
448.916626
 20
128.999985
 11
448.916626
 21
125.000000
  0
LINE
  8
0
 10
456.916687
 20
128.999985
 11
456.916687
 21
125.000000
  0
LINE
  8
0
 10
456.916351
 20
128.999771
 11
456.416412
 21
129.499741
  0
LINE
  8
0
 10
448.916718
 20
128.999878
 11
449.416626
 21
129.499847
  0
LINE
  8
0
 10
456.916687
 20
129.000000
 11
448.916626
 21
129.000000
  0
LINE
  8
0
 62
     2
 10
456.240173
 20
129.500000
 11
456.240173
 21
125.000000
  0
LINE
  8
0
 62
     2
 10
449.593140
 20
129.500000
 11
449.593140
 21
125.000000
  0
LINE
  8
0
 10
446.416626
 20
120.000000
 11
446.416626
 21
125.000000
  0
LINE
  8
0
 10
459.416687
 20
120.000000
 11
459.416687
 21
125.000000
  0
LINE
  8
0
 10
452.916626
 20
120.580566
 11
452.916626
 21
124.419479
  0
LINE
  8
0
 10
443.416687
 20
85.166016
 11
443.416687
 21
42.834000
  0
LINE
  8
0
 10
491.416626
 20
85.166016
 11
491.416626
 21
42.834000
  0
LINE
  8
0
 10
447.550659
 20
84.500000
 11
449.282715
 21
84.500000
  0
LINE
  8
0
 10
447.550659
 20
81.500000
 11
449.282715
 21
81.500000
  0
LINE
  8
0
 10
447.550964
 20
84.499802
 11
446.684937
 21
82.999802
  0
LINE
  8
0
 10
450.149170
 20
82.999763
 11
449.283142
 21
81.499763
  0
LINE
  8
0
 10
446.684204
 20
82.999825
 11
447.550232
 21
81.499786
  0
LINE
  8
0
 10
449.282318
 20
84.499763
 11
450.148346
 21
82.999763
  0
LINE
  8
0
  6
CENTER
 62
     2
 10
448.416687
 20
89.000008
 11
448.416687
 21
76.999992
  0
LINE
  8
0
  6
CENTER
 62
     2
 10
442.416626
 20
83.000031
 11
454.416687
 21
83.000031
  0
LINE
  8
0
 10
487.916626
 20
83.866035
 11
487.916626
 21
82.133965
  0
LINE
  8
0
 10
484.916626
 20
83.866035
 11
484.916626
 21
82.133965
  0
LINE
  8
0
 10
487.916809
 20
83.866425
 11
486.416840
 21
84.732414
  0
LINE
  8
0
 10
486.416962
 20
81.268288
 11
484.916962
 21
82.134323
  0
LINE
  8
0
 10
486.416718
 20
84.732071
 11
484.916748
 21
83.866066
  0
LINE
  8
0
 10
487.916656
 20
82.134033
 11
486.416656
 21
81.268005
  0
LINE
  8
0
  6
CENTER
 62
     2
 10
492.416626
 20
83.000000
 11
480.416687
 21
83.000000
  0
LINE
  8
0
  6
CENTER
 62
     2
 10
486.416626
 20
89.000008
 11
486.416626
 21
76.999992
  0
LINE
  8
0
 10
487.282715
 20
43.500000
 11
485.550659
 21
43.500000
  0
LINE
  8
0
 10
487.282715
 20
46.500000
 11
485.550659
 21
46.500000
  0
LINE
  8
0
 10
487.283112
 20
43.499771
 11
488.149139
 21
44.999771
  0
LINE
  8
0
 10
484.684937
 20
44.999912
 11
485.550964
 21
46.499916
  0
LINE
  8
0
 10
488.148651
 20
44.999920
 11
487.282623
 21
46.499924
  0
LINE
  8
0
 10
485.550751
 20
43.500099
 11
484.684723
 21
45.000103
  0
LINE
  8
0
  6
CENTER
 62
     2
 10
486.416626
 20
39.000000
 11
486.416626
 21
50.999992
  0
LINE
  8
0
  6
CENTER
 62
     2
 10
492.416626
 20
45.000000
 11
480.416687
 21
45.000000
  0
LINE
  8
0
 10
446.916626
 20
44.133972
 11
446.916626
 21
45.866020
  0
LINE
  8
0
 10
449.916626
 20
44.133972
 11
449.916626
 21
45.866020
  0
LINE
  8
0
 10
446.916962
 20
44.134544
 11
448.416962
 21
43.268517
  0
LINE
  8
0
 10
448.417114
 20
46.732674
 11
449.917114
 21
45.866642
  0
LINE
  8
0
 10
448.416626
 20
43.267952
 11
449.916687
 21
44.134003
  0
LINE
  8
0
 10
446.916656
 20
45.866013
 11
448.416718
 21
46.732059
  0
LINE
  8
0
  6
CENTER
 62
     2
 10
442.416626
 20
45.000031
 11
454.416687
 21
45.000031
  0
LINE
  8
0
  6
CENTER
 62
     2
 10
448.416626
 20
39.000000
 11
448.416626
 21
50.999992
  0
LINE
  8
0
 10
485.070007
 20
75.000000
 11
449.763306
 21
75.000000
  0
LINE
  8
0
 10
485.070007
 20
53.000000
 11
449.763306
 21
53.000000
  0
LINE
  8
0
 10
424.416626
 20
91.000000
 11
436.416626
 21
91.000000
  0
LINE
  8
0
 10
424.416626
 20
37.000000
 11
436.416626
 21
37.000000
  0
LINE
  8
0
 10
512.416626
 20
89.000000
 11
512.416626
 21
39.000004
  0
LINE
  8
0
 10
422.416626
 20
89.000000
 11
422.416626
 21
39.000000
  0
LINE
  8
0
 10
510.416534
 20
90.999924
 11
512.416504
 21
88.999924
  0
LINE
  8
0
 10
510.416412
 20
37.000122
 11
512.416382
 21
39.000126
  0
LINE
  8
0
 10
424.416595
 20
91.000008
 11
422.416595
 21
89.000008
  0
LINE
  8
0
 10
422.416595
 20
38.999954
 11
424.416595
 21
36.999954
  0
LINE
  8
0
 10
494.416687
 20
91.000000
 11
510.416626
 21
91.000000
  0
LINE
  8
0
 10
494.416687
 20
37.000000
 11
510.416626
 21
37.000000
  0
LINE
  8
0
 62
     4
 10
441.416626
 20
105.000000
 11
441.416626
 21
97.000000
  0
LINE
  8
0
 62
     4
 10
434.416626
 20
105.000000
 11
441.416626
 21
105.000000
  0
LINE
  8
0
 62
     4
 10
434.416626
 20
97.000000
 11
441.416626
 21
97.000000
  0
LINE
  8
0
 62
     4
 10
433.444794
 20
98.199997
 11
434.416626
 21
98.199997
  0
LINE
  8
0
 62
     4
 10
433.444794
 20
103.800003
 11
434.416626
 21
103.800003
  0
LINE
  8
0
 62
     4
 10
438.416626
 20
105.000000
 11
438.416626
 21
97.000000
  0
LINE
  8
0
 62
     4
 10
434.416626
 20
105.000000
 11
434.416626
 21
97.000000
  0
LINE
  8
0
 62
     4
 10
436.416626
 20
111.250000
 11
436.416626
 21
105.000000
  0
LINE
  8
0
 62
     4
 10
439.550598
 20
112.750000
 11
437.282654
 21
112.750000
  0
LINE
  8
0
 62
     4
 10
440.416626
 20
90.750000
 11
436.416626
 21
90.750000
  0
LINE
  8
0
 62
     4
 10
436.416473
 20
111.250023
 11
437.282501
 21
112.750053
  0
LINE
  8
0
 62
     4
 10
440.416656
 20
111.250046
 11
439.550629
 21
112.750046
  0
LINE
  8
0
 62
     4
 10
440.416626
 20
111.250000
 11
440.416626
 21
105.000000
  0
LINE
  8
0
 62
     4
 10
439.916626
 20
89.750000
 11
436.916626
 21
89.750000
  0
LINE
  8
0
 62
     4
 10
440.416626
 20
111.250000
 11
436.416626
 21
111.250000
  0
LINE
  8
0
 62
     4
 10
436.916626
 20
89.750000
 11
436.916626
 21
84.750000
  0
LINE
  8
0
 62
     4
 10
439.916626
 20
89.750000
 11
439.916626
 21
84.750000
  0
LINE
  8
0
 62
     4
 10
440.416626
 20
90.750015
 11
439.916595
 21
89.750008
  0
LINE
  8
0
 62
     4
 10
436.416565
 20
90.749954
 11
436.916565
 21
89.749962
  0
LINE
  8
0
 62
     4
 10
436.416626
 20
97.000000
 11
436.416626
 21
90.750000
  0
LINE
  8
0
 62
     4
 10
440.416626
 20
97.000000
 11
440.416626
 21
90.750000
  0
LINE
  8
0
 62
     4
 10
441.416626
 20
23.000000
 11
441.416626
 21
31.000000
  0
LINE
  8
0
 62
     4
 10
434.416626
 20
23.000000
 11
441.416626
 21
23.000000
  0
LINE
  8
0
 62
     4
 10
434.416626
 20
31.000000
 11
441.416626
 21
31.000000
  0
LINE
  8
0
 62
     4
 10
433.444794
 20
29.800003
 11
434.416626
 21
29.800003
  0
LINE
  8
0
 62
     4
 10
433.444794
 20
24.199997
 11
434.416626
 21
24.199997
  0
LINE
  8
0
 62
     4
 10
438.416626
 20
23.000000
 11
438.416626
 21
31.000000
  0
LINE
  8
0
 62
     4
 10
434.416626
 20
23.000000
 11
434.416626
 21
31.000000
  0
LINE
  8
0
 62
     4
 10
436.416626
 20
16.750000
 11
436.416626
 21
23.000000
  0
LINE
  8
0
 62
     4
 10
439.550598
 20
15.250000
 11
437.282654
 21
15.250000
  0
LINE
  8
0
 62
     4
 10
440.416626
 20
37.250000
 11
436.416626
 21
37.250000
  0
LINE
  8
0
 62
     4
 10
436.416626
 20
16.749985
 11
437.282654
 21
15.249981
  0
LINE
  8
0
 62
     4
 10
440.416687
 20
16.749956
 11
439.550659
 21
15.249951
  0
LINE
  8
0
 62
     4
 10
440.416626
 20
16.750000
 11
440.416626
 21
23.000000
  0
LINE
  8
0
 62
     4
 10
439.916626
 20
38.250000
 11
436.916626
 21
38.250000
  0
LINE
  8
0
 62
     4
 10
440.416626
 20
16.750000
 11
436.416626
 21
16.750000
  0
LINE
  8
0
 62
     4
 10
436.916626
 20
38.250000
 11
436.916626
 21
43.250000
  0
LINE
  8
0
 62
     4
 10
439.916626
 20
38.250000
 11
439.916626
 21
43.250000
  0
LINE
  8
0
 62
     4
 10
440.416595
 20
37.249981
 11
439.916595
 21
38.249989
  0
LINE
  8
0
 62
     4
 10
436.416595
 20
37.250004
 11
436.916595
 21
38.249996
  0
LINE
  8
0
 62
     4
 10
436.416626
 20
31.000000
 11
436.416626
 21
37.250000
  0
LINE
  8
0
 62
     4
 10
440.416626
 20
31.000000
 11
440.416626
 21
37.250000
  0
LINE
  8
0
 62
     4
 10
454.160492
 20
47.971367
 11
463.519684
 21
39.108894
  0
LINE
  8
0
 62
     4
 10
463.416595
 20
39.000027
 11
454.061035
 21
47.859035
  0
LINE
  8
0
 62
     4
 10
480.672729
 20
47.971405
 11
471.313507
 21
39.108932
  0
LINE
  8
0
 62
     4
 10
471.416718
 20
38.999996
 11
480.772247
 21
47.859009
  0
LINE
  8
0
 62
     4
 10
464.816589
 20
31.014511
 11
470.016602
 21
31.014511
  0
LINE
  8
0
 62
     4
 10
463.916595
 20
36.014511
 11
465.416595
 21
36.014511
  0
LINE
  8
0
 62
     4
 10
465.616608
 20
29.014511
 11
469.216614
 21
29.014511
  0
LINE
  8
0
 62
     4
 10
470.016602
 20
29.814514
 11
470.016602
 21
31.014511
  0
LINE
  8
0
 62
     4
 10
464.816589
 20
29.814514
 11
464.816589
 21
31.014511
  0
LINE
  8
0
 62
     4
 10
468.666595
 20
31.014511
 11
468.666595
 21
32.514511
  0
LINE
  8
0
 62
     4
 10
466.166595
 20
31.014511
 11
466.166595
 21
32.514511
  0
LINE
  8
0
 62
     4
 10
463.916595
 20
36.314514
 11
470.916595
 21
36.314514
  0
LINE
  8
0
 62
     4
 10
464.416595
 20
43.314514
 11
465.237152
 21
43.314514
  0
LINE
  8
0
 62
     4
 10
463.916595
 20
36.014511
 11
463.916595
 21
42.814514
  0
LINE
  8
0
 62
     4
 10
463.916626
 20
42.814510
 11
464.416595
 21
43.314499
  0
LINE
  8
0
 62
     4
 10
463.916595
 20
42.814514
 11
470.916595
 21
42.814514
  0
LINE
  8
0
 62
     4
 10
465.416595
 20
36.314514
 11
465.416595
 21
35.814514
  0
LINE
  8
0
 62
     4
 10
469.416595
 20
36.314514
 11
469.416595
 21
35.814514
  0
LINE
  8
0
 62
     4
 10
465.416595
 20
35.814514
 11
469.416595
 21
35.814514
  0
LINE
  8
0
 62
     4
 10
469.374298
 20
35.741463
 11
469.416504
 21
35.814564
  0
LINE
  8
0
 62
     4
 10
465.458862
 20
35.741409
 11
465.416626
 21
35.814537
  0
LINE
  8
0
 62
     4
 10
470.916595
 20
36.014511
 11
470.916595
 21
42.814514
  0
LINE
  8
0
 62
     4
 10
470.916565
 20
42.814510
 11
470.416565
 21
43.314499
  0
LINE
  8
0
 62
     4
 10
469.596039
 20
43.314514
 11
470.416595
 21
43.314514
  0
LINE
  8
0
 62
     4
 10
462.416595
 20
39.000015
 11
462.416595
 21
34.200012
  0
LINE
  8
0
 62
     4
 10
473.416595
 20
35.500015
 11
473.416595
 21
34.200012
  0
LINE
  8
0
 62
     4
 10
472.416595
 20
34.500015
 11
472.416595
 21
35.500015
  0
LINE
  8
0
 62
     4
 10
463.416595
 20
34.500015
 11
463.416595
 21
39.000015
  0
LINE
  8
0
 62
     4
 10
463.616608
 20
33.000015
 11
470.916595
 21
33.000015
  0
LINE
  8
0
 62
     4
 10
470.016602
 20
34.000015
 11
471.416595
 21
34.000015
  0
LINE
  8
0
 62
     4
 10
462.416595
 20
39.000015
 11
463.416595
 21
39.000015
  0
LINE
  8
0
 62
     4
 10
472.416595
 20
35.500015
 11
473.416595
 21
35.500015
  0
LINE
  8
0
 62
     4
 10
465.616608
 20
35.000015
 11
469.216614
 21
35.000015
  0
LINE
  8
0
 62
     4
 10
465.616608
 20
35.000015
 11
465.616608
 21
34.800018
  0
LINE
  8
0
 62
     4
 10
469.216583
 20
35.000015
 11
469.216583
 21
34.800018
  0
LINE
  8
0
 62
     4
 10
463.916595
 20
34.000015
 11
464.816589
 21
34.000015
  0
LINE
  8
0
 62
     4
 10
469.916595
 20
32.000015
 11
471.216614
 21
32.000015
  0
LINE
  8
0
 62
     4
 10
472.416595
 20
39.000015
 11
471.416595
 21
39.000015
  0
LINE
  8
0
 62
     4
 10
469.916595
 20
32.000015
 11
469.916595
 21
33.000015
  0
LINE
  8
0
 62
     4
 10
472.416595
 20
33.200012
 11
472.416595
 21
39.000015
  0
LINE
  8
0
 62
     4
 10
471.416595
 20
39.000015
 11
471.416595
 21
33.500015
  0
LINE
  8
0
 62
     4
 10
465.916595
 20
35.000015
 11
465.916595
 21
35.416443
  0
LINE
  8
0
 62
     1
 10
466.166595
 20
35.000015
 11
466.166595
 21
35.287338
  0
LINE
  8
0
 62
     1
 10
468.666595
 20
35.000015
 11
468.666595
 21
35.287338
  0
LINE
  8
0
 62
     4
 10
468.916595
 20
35.000015
 11
468.916595
 21
35.416443
  0
LINE
  8
0
 62
     4
 10
469.416595
 20
36.014511
 11
470.916595
 21
36.014511
  0
LINE
  8
0
 62
     4
 10
463.416595
 20
34.750015
 11
463.566589
 21
34.750015
  0
LINE
  8
0
 62
     4
 10
471.266602
 20
34.750015
 11
471.416595
 21
34.750015
  0
LINE
  8
0
 62
     4
 10
463.566589
 20
34.750015
 11
463.566589
 21
39.000015
  0
LINE
  8
0
 62
     4
 10
471.266602
 20
34.750015
 11
471.266602
 21
39.000015
  0
LINE
  8
0
 62
     4
 10
465.916595
 20
32.514511
 11
465.916595
 21
33.000015
  0
LINE
  8
0
 62
     4
 10
465.916595
 20
32.514511
 11
468.916595
 21
32.514511
  0
LINE
  8
0
 62
     1
 10
466.166595
 20
32.514511
 11
466.166595
 21
33.000015
  0
LINE
  8
0
 62
     1
 10
468.666595
 20
32.514511
 11
468.666595
 21
33.000015
  0
LINE
  8
0
 62
     4
 10
468.916595
 20
32.514511
 11
468.916595
 21
33.000015
  0
LINE
  8
0
 62
     4
 10
480.672607
 20
80.028572
 11
471.313385
 21
88.891045
  0
LINE
  8
0
 62
     4
 10
471.416626
 20
88.999962
 11
480.772186
 21
80.140945
  0
LINE
  8
0
 62
     4
 10
454.160553
 20
80.028641
 11
463.519775
 21
88.891113
  0
LINE
  8
0
 62
     4
 10
463.416595
 20
88.999977
 11
454.061035
 21
80.140968
  0
LINE
  8
0
 62
     4
 10
470.016663
 20
96.985489
 11
464.816650
 21
96.985489
  0
LINE
  8
0
 62
     4
 10
470.916656
 20
91.985489
 11
469.416656
 21
91.985489
  0
LINE
  8
0
 62
     4
 10
469.216644
 20
98.985489
 11
465.616669
 21
98.985489
  0
LINE
  8
0
 62
     4
 10
464.816650
 20
98.185486
 11
464.816650
 21
96.985489
  0
LINE
  8
0
 62
     4
 10
470.016663
 20
98.185486
 11
470.016663
 21
96.985489
  0
LINE
  8
0
 62
     4
 10
466.166656
 20
96.985489
 11
466.166656
 21
95.485489
  0
LINE
  8
0
 62
     4
 10
468.666656
 20
96.985489
 11
468.666656
 21
95.485489
  0
LINE
  8
0
 62
     4
 10
470.916656
 20
91.685486
 11
463.916656
 21
91.685486
  0
LINE
  8
0
 62
     4
 10
470.416656
 20
84.685486
 11
469.596100
 21
84.685486
  0
LINE
  8
0
 62
     4
 10
470.916656
 20
91.985489
 11
470.916656
 21
85.185486
  0
LINE
  8
0
 62
     4
 10
470.916626
 20
85.185501
 11
470.416595
 21
84.685486
  0
LINE
  8
0
 62
     4
 10
470.916656
 20
85.185486
 11
463.916656
 21
85.185486
  0
LINE
  8
0
 62
     4
 10
469.416656
 20
91.685486
 11
469.416656
 21
92.185486
  0
LINE
  8
0
 62
     4
 10
465.416656
 20
91.685486
 11
465.416656
 21
92.185486
  0
LINE
  8
0
 62
     4
 10
469.416656
 20
92.185486
 11
465.416656
 21
92.185486
  0
LINE
  8
0
 62
     4
 10
465.458771
 20
92.258583
 11
465.416565
 21
92.185486
  0
LINE
  8
0
 62
     4
 10
469.374390
 20
92.258560
 11
469.416626
 21
92.185440
  0
LINE
  8
0
 62
     4
 10
463.916656
 20
91.985489
 11
463.916656
 21
85.185486
  0
LINE
  8
0
 62
     4
 10
463.916565
 20
85.185417
 11
464.416534
 21
84.685425
  0
LINE
  8
0
 62
     4
 10
465.237213
 20
84.685486
 11
464.416656
 21
84.685486
  0
LINE
  8
0
 62
     4
 10
472.416656
 20
88.999985
 11
472.416656
 21
93.799988
  0
LINE
  8
0
 62
     4
 10
461.416656
 20
92.499985
 11
461.416656
 21
93.799988
  0
LINE
  8
0
 62
     4
 10
462.416656
 20
93.499985
 11
462.416656
 21
92.499985
  0
LINE
  8
0
 62
     4
 10
471.416656
 20
93.499985
 11
471.416656
 21
88.999985
  0
LINE
  8
0
 62
     4
 10
471.216644
 20
94.999985
 11
463.916656
 21
94.999985
  0
LINE
  8
0
 62
     4
 10
464.816650
 20
93.999985
 11
463.416656
 21
93.999985
  0
LINE
  8
0
 62
     4
 10
472.416656
 20
88.999985
 11
471.416656
 21
88.999985
  0
LINE
  8
0
 62
     4
 10
462.416656
 20
92.499985
 11
461.416656
 21
92.499985
  0
LINE
  8
0
 62
     4
 10
469.216644
 20
92.999985
 11
465.616669
 21
92.999985
  0
LINE
  8
0
 62
     4
 10
469.216644
 20
92.999985
 11
469.216644
 21
93.199982
  0
LINE
  8
0
 62
     4
 10
465.616669
 20
92.999985
 11
465.616669
 21
93.199982
  0
LINE
  8
0
 62
     4
 10
470.916656
 20
93.999985
 11
470.016663
 21
93.999985
  0
LINE
  8
0
 62
     4
 10
464.916656
 20
95.999985
 11
463.616669
 21
95.999985
  0
LINE
  8
0
 62
     4
 10
462.416656
 20
88.999985
 11
463.416656
 21
88.999985
  0
LINE
  8
0
 62
     4
 10
464.916656
 20
95.999985
 11
464.916656
 21
94.999985
  0
LINE
  8
0
 62
     4
 10
462.416656
 20
94.799988
 11
462.416656
 21
88.999985
  0
LINE
  8
0
 62
     4
 10
463.416656
 20
88.999985
 11
463.416656
 21
94.499985
  0
LINE
  8
0
 62
     4
 10
468.916656
 20
92.999985
 11
468.916656
 21
92.583557
  0
LINE
  8
0
 62
     1
 10
468.666656
 20
92.999985
 11
468.666656
 21
92.712662
  0
LINE
  8
0
 62
     1
 10
466.166656
 20
92.999985
 11
466.166656
 21
92.712662
  0
LINE
  8
0
 62
     4
 10
465.916656
 20
92.999985
 11
465.916656
 21
92.583557
  0
LINE
  8
0
 62
     4
 10
465.416656
 20
91.985489
 11
463.916656
 21
91.985489
  0
LINE
  8
0
 62
     4
 10
471.416656
 20
93.249985
 11
471.266663
 21
93.249985
  0
LINE
  8
0
 62
     4
 10
463.566650
 20
93.249985
 11
463.416656
 21
93.249985
  0
LINE
  8
0
 62
     4
 10
471.266663
 20
93.249985
 11
471.266663
 21
88.999985
  0
LINE
  8
0
 62
     4
 10
463.566650
 20
93.249985
 11
463.566650
 21
88.999985
  0
LINE
  8
0
 62
     4
 10
468.916656
 20
95.485489
 11
468.916656
 21
94.999985
  0
LINE
  8
0
 62
     4
 10
468.916656
 20
95.485489
 11
465.916656
 21
95.485489
  0
LINE
  8
0
 62
     1
 10
468.666656
 20
95.485489
 11
468.666656
 21
94.999985
  0
LINE
  8
0
 62
     1
 10
466.166656
 20
95.485489
 11
466.166656
 21
94.999985
  0
LINE
  8
0
 62
     4
 10
465.916656
 20
95.485489
 11
465.916656
 21
94.999985
  0
LINE
  8
0
 10
440.416626
 20
97.000000
 11
440.416626
 21
31.000000
  0
LINE
  8
0
 10
440.416626
 20
23.000000
 11
440.416626
 21
15.999989
  0
LINE
  8
0
  6
CENTER
 62
     2
 10
494.916626
 20
84.000000
 11
509.916626
 21
84.000000
  0
LINE
  8
0
  6
CENTER
 62
     2
 10
502.416626
 20
91.500000
 11
502.416626
 21
76.500000
  0
LINE
  8
0
  6
CENTER
 62
     2
 10
432.416626
 20
91.500000
 11
432.416626
 21
76.500000
  0
LINE
  8
0
  6
CENTER
 62
     2
 10
439.916626
 20
84.000000
 11
424.916626
 21
84.000000
  0
LINE
  8
0
  6
CENTER
 62
     2
 10
502.416626
 20
36.500000
 11
502.416626
 21
51.500000
  0
LINE
  8
0
  6
CENTER
 62
     2
 10
494.916626
 20
44.000000
 11
509.916626
 21
44.000000
  0
LINE
  8
0
  6
CENTER
 62
     2
 10
432.416626
 20
36.500000
 11
432.416626
 21
51.500000
  0
LINE
  8
0
  6
CENTER
 62
     2
 10
439.916626
 20
44.000000
 11
424.916626
 21
44.000000
  0
LINE
  8
0
  6
CENTER
 62
     2
 10
258.750000
 20
-193.715546
 11
258.750000
 21
-130.204300
  0
LINE
  8
0
 10
284.750000
 20
-137.666672
 11
284.750000
 21
-185.666687
  0
LINE
  8
0
 10
232.750000
 20
-116.666672
 11
232.750000
 21
-206.666672
  0
LINE
  8
0
 10
281.750000
 20
-134.666656
 11
235.750000
 21
-134.666656
  0
LINE
  8
0
 10
281.750000
 20
-188.666641
 11
235.750000
 21
-188.666641
  0
LINE
  8
0
 62
     4
 10
198.750000
 20
-156.379089
 11
198.750000
 21
-166.954224
  0
LINE
  8
0
 10
277.750000
 20
-147.166656
 11
283.750000
 21
-147.166656
  0
LINE
  8
0
 10
239.750000
 20
-147.166656
 11
233.750000
 21
-147.166656
  0
LINE
  8
0
 10
239.750000
 20
-176.166641
 11
233.750000
 21
-176.166641
  0
LINE
  8
0
 10
277.750000
 20
-176.166641
 11
283.750000
 21
-176.166641
  0
LINE
  8
0
 10
272.250000
 20
-181.666656
 11
272.250000
 21
-187.666672
  0
LINE
  8
0
 10
245.250000
 20
-181.666656
 11
245.250000
 21
-187.666672
  0
LINE
  8
0
 10
245.250000
 20
-141.666672
 11
245.250000
 21
-135.666656
  0
LINE
  8
0
 10
272.250000
 20
-141.666672
 11
272.250000
 21
-135.666672
  0
LINE
  8
0
 10
233.250000
 20
-137.666672
 11
233.250000
 21
-185.666687
  0
LINE
  8
0
 10
284.250000
 20
-137.666672
 11
284.250000
 21
-185.666687
  0
LINE
  8
0
 10
281.750000
 20
-135.166672
 11
235.750000
 21
-135.166672
  0
LINE
  8
0
 10
281.750000
 20
-188.166687
 11
235.750000
 21
-188.166687
  0
LINE
  8
0
  6
CENTER
 62
     2
 10
267.750000
 20
-147.166687
 11
249.750000
 21
-147.166687
  0
LINE
  8
0
 10
262.502808
 20
-140.666687
 11
254.997253
 21
-140.666687
  0
LINE
  8
0
 10
262.502808
 20
-153.666702
 11
254.997253
 21
-153.666702
  0
LINE
  8
0
 10
266.255524
 20
-147.166672
 11
262.502686
 21
-140.666656
  0
LINE
  8
0
 10
254.997192
 20
-153.666733
 11
251.244446
 21
-147.166702
  0
LINE
  8
0
 10
254.997406
 20
-140.666840
 11
251.244614
 21
-147.166824
  0
LINE
  8
0
 10
266.255432
 20
-147.166672
 11
262.502686
 21
-153.666687
  0
LINE
  8
0
 10
297.750000
 20
-137.666672
 11
297.750000
 21
-185.666687
  0
LINE
  8
0
 10
297.750000
 20
-185.666687
 11
284.750000
 21
-185.666687
  0
LINE
  8
0
 10
297.750000
 20
-137.666672
 11
284.750000
 21
-137.666672
  0
LINE
  8
0
  6
CENTER
 62
     2
 10
382.031860
 20
-161.666672
 11
195.197021
 21
-161.666672
  0
LINE
  8
0
 10
377.750000
 20
-141.866653
 11
377.750000
 21
-181.466675
  0
LINE
  8
0
 10
376.750031
 20
-140.866653
 11
354.750000
 21
-140.866653
  0
LINE
  8
0
 10
376.749817
 20
-182.466675
 11
354.750000
 21
-182.466675
  0
LINE
  8
0
 10
376.749969
 20
-140.866669
 11
377.750000
 21
-141.866669
  0
LINE
  8
0
 10
377.749878
 20
-181.466461
 11
376.749725
 21
-182.466568
  0
LINE
  8
0
 10
376.750000
 20
-140.866653
 11
376.750000
 21
-144.013336
  0
LINE
  8
0
 10
371.750000
 20
-144.013336
 11
371.750000
 21
-179.319992
  0
LINE
  8
0
 10
377.750000
 20
-144.013336
 11
371.750000
 21
-144.013336
  0
LINE
  8
0
 10
377.750000
 20
-179.319977
 11
371.750000
 21
-179.319977
  0
LINE
  8
0
 10
376.750000
 20
-179.319992
 11
376.750000
 21
-182.466675
  0
LINE
  8
0
 62
     4
 10
224.750000
 20
-168.166672
 11
211.750000
 21
-168.166672
  0
LINE
  8
0
 62
     4
 10
224.750000
 20
-155.166672
 11
211.750000
 21
-155.166672
  0
LINE
  8
0
 62
     4
 10
199.450012
 20
-155.166672
 11
199.450012
 21
-168.166672
  0
LINE
  8
0
 62
     4
 10
199.450027
 20
-155.166672
 11
198.750000
 21
-156.379135
  0
LINE
  8
0
 62
     4
 10
199.449890
 20
-168.166763
 11
198.749817
 21
-166.954315
  0
LINE
  8
0
 62
     4
 10
221.750000
 20
-155.166672
 11
221.750000
 21
-159.068588
  0
LINE
  8
0
 62
     4
 10
221.750000
 20
-159.068588
 11
211.750000
 21
-159.068588
  0
LINE
  8
0
 62
     4
 10
221.750000
 20
-164.264740
 11
211.750000
 21
-164.264740
  0
LINE
  8
0
 62
     4
 10
221.750000
 20
-164.264740
 11
221.750000
 21
-168.166672
  0
LINE
  8
0
 62
     4
 10
199.450043
 20
-159.068542
 11
198.750015
 21
-159.768585
  0
LINE
  8
0
 62
     4
 10
199.449722
 20
-164.265015
 11
198.749680
 21
-163.565002
  0
LINE
  8
0
 62
     4
 10
221.750397
 20
-159.068802
 11
224.003204
 21
-155.166748
  0
LINE
  8
0
 62
     4
 10
221.750656
 20
-164.264313
 11
224.003525
 21
-168.166397
  0
LINE
  8
0
 62
     1
 10
221.750000
 20
-167.584167
 11
211.750000
 21
-167.584167
  0
LINE
  8
0
 62
     1
 10
221.750000
 20
-155.749161
 11
211.750000
 21
-155.749161
  0
LINE
  8
0
 62
     1
 10
221.749985
 20
-155.749222
 11
222.773102
 21
-155.158539
  0
LINE
  8
0
 62
     1
 10
221.749878
 20
-167.584290
 11
222.758881
 21
-168.166840
  0
LINE
  8
0
 62
     4
 10
211.750000
 20
-152.166672
 11
211.750000
 21
-171.166656
  0
LINE
  8
0
 62
     4
 10
203.750000
 20
-155.166672
 11
199.450012
 21
-155.166672
  0
LINE
  8
0
 62
     1
 10
203.750000
 20
-155.749161
 11
199.113708
 21
-155.749161
  0
LINE
  8
0
 62
     4
 10
203.750000
 20
-159.068588
 11
199.450012
 21
-159.068588
  0
LINE
  8
0
 62
     4
 10
203.750000
 20
-164.264740
 11
199.450012
 21
-164.264740
  0
LINE
  8
0
 62
     1
 10
203.750000
 20
-167.584167
 11
199.113708
 21
-167.584167
  0
LINE
  8
0
 62
     4
 10
203.750000
 20
-168.166672
 11
199.450012
 21
-168.166672
  0
LINE
  8
0
 62
     4
 10
203.750000
 20
-152.166672
 11
203.750000
 21
-171.166656
  0
LINE
  8
0
 62
     4
 10
211.750000
 20
-171.166656
 11
203.750000
 21
-171.166656
  0
LINE
  8
0
 62
     4
 10
211.750000
 20
-152.166656
 11
203.750000
 21
-152.166656
  0
LINE
  8
0
 62
     4
 10
210.901489
 20
-161.666672
 11
204.598511
 21
-161.666672
  0
LINE
  8
0
 10
279.553101
 20
-179.863571
 11
275.946899
 21
-183.469818
  0
LINE
  8
0
 10
279.553162
 20
-183.469757
 11
275.946899
 21
-179.863495
  0
LINE
  8
0
 10
279.553131
 20
-139.863556
 11
275.946899
 21
-143.469803
  0
LINE
  8
0
 10
279.553070
 20
-143.469849
 11
275.946869
 21
-139.863602
  0
LINE
  8
0
 10
241.553192
 20
-139.863541
 11
237.946915
 21
-143.469803
  0
LINE
  8
0
 10
241.553055
 20
-143.469894
 11
237.946854
 21
-139.863647
  0
LINE
  8
0
 10
241.553146
 20
-179.863541
 11
237.946899
 21
-183.469772
  0
LINE
  8
0
 10
241.553024
 20
-183.469879
 11
237.946823
 21
-179.863632
  0
LINE
  8
0
 10
365.750000
 20
-140.866653
 11
365.750000
 21
-182.466675
  0
LINE
  8
0
 10
232.750000
 20
-206.666672
 11
224.750000
 21
-206.666672
  0
LINE
  8
0
 10
232.750000
 20
-116.666672
 11
224.750000
 21
-116.666672
  0
LINE
  8
0
 10
224.750000
 20
-116.666672
 11
224.750000
 21
-206.666672
  0
LINE
  8
0
 10
232.750000
 20
-118.666672
 11
224.750000
 21
-118.666672
  0
LINE
  8
0
  6
CENTER
 62
     2
 10
237.478348
 20
-126.666672
 11
220.500854
 21
-126.666672
  0
LINE
  8
0
  6
CENTER
 62
     2
 10
237.478348
 20
-196.666672
 11
220.500854
 21
-196.666672
  0
LINE
  8
0
 10
232.750000
 20
-204.666672
 11
224.750000
 21
-204.666672
  0
LINE
  8
0
 62
     4
 10
255.949997
 20
-134.166656
 11
255.949997
 21
-128.666656
  0
LINE
  8
0
 62
     4
 10
284.750000
 20
-135.666656
 11
284.750000
 21
-132.666656
  0
LINE
  8
0
 62
     4
 10
272.750000
 20
-128.666656
 11
255.949997
 21
-128.666656
  0
LINE
  8
0
 62
     4
 10
284.750000
 20
-135.666656
 11
283.986084
 21
-135.666656
  0
LINE
  8
0
 62
     4
 10
284.750000
 20
-132.666641
 11
272.750000
 21
-128.666641
  0
LINE
  8
0
 62
     4
 10
267.750000
 20
-134.166656
 11
260.750000
 21
-134.166656
  0
LINE
  8
0
 62
     4
 10
267.750000
 20
-134.666656
 11
267.750000
 21
-134.166656
  0
LINE
  8
0
 62
     4
 10
264.950012
 20
-127.694832
 11
264.950012
 21
-128.666656
  0
LINE
  8
0
 62
     4
 10
270.549988
 20
-127.694832
 11
270.549988
 21
-128.666656
  0
LINE
  8
0
 62
     4
 10
260.750000
 20
-134.666656
 11
260.750000
 21
-130.666656
  0
LINE
  8
0
 62
     4
 10
256.750000
 20
-134.666656
 11
256.750000
 21
-130.666656
  0
LINE
  8
0
 62
     4
 10
260.750000
 20
-130.666656
 11
256.750000
 21
-130.666656
  0
LINE
  8
0
 62
     4
 10
256.750000
 20
-134.166656
 11
255.949997
 21
-134.166656
  0
LINE
  8
0
 62
     4
 10
256.750000
 20
-134.666656
 11
260.750000
 21
-134.666656
  0
LINE
  8
0
 62
     4
 10
339.750000
 20
-159.166672
 11
337.750000
 21
-159.166672
  0
LINE
  8
0
 62
     4
 10
339.750000
 20
-164.166672
 11
337.750000
 21
-164.166672
  0
LINE
  8
0
 62
     4
 10
337.750000
 20
-159.166672
 11
337.750000
 21
-164.166672
  0
LINE
  8
0
 62
     4
 10
355.250000
 20
-156.666672
 11
346.250000
 21
-156.666672
  0
LINE
  8
0
 62
     4
 10
355.750000
 20
-166.666687
 11
353.000000
 21
-166.666687
  0
LINE
  8
0
 62
     4
 10
361.750000
 20
-158.166687
 11
355.750000
 21
-158.166687
  0
LINE
  8
0
 62
     4
 10
361.750000
 20
-165.166687
 11
355.750000
 21
-165.166687
  0
LINE
  8
0
 62
     4
 10
355.750000
 20
-157.166672
 11
355.750000
 21
-165.166672
  0
LINE
  8
0
 62
     4
 10
345.750000
 20
-157.166672
 11
345.750000
 21
-165.166672
  0
LINE
  8
0
 62
     4
 10
339.750000
 20
-158.166687
 11
339.750000
 21
-165.166687
  0
LINE
  8
0
 62
     4
 10
352.750000
 20
-167.032684
 11
352.750000
 21
-167.966675
  0
LINE
  8
0
 62
     4
 10
348.750000
 20
-167.032684
 11
348.750000
 21
-167.966675
  0
LINE
  8
0
 62
     4
 10
355.250000
 20
-165.666672
 11
354.116028
 21
-165.666672
  0
LINE
  8
0
 62
     4
 10
352.750000
 20
-167.966675
 11
348.750000
 21
-167.966675
  0
LINE
  8
0
 62
     4
 10
347.383972
 20
-165.666672
 11
346.250000
 21
-165.666672
  0
LINE
  8
0
 62
     4
 10
355.750000
 20
-165.166672
 11
355.750000
 21
-166.666687
  0
LINE
  8
0
 62
     4
 10
345.750000
 20
-165.166672
 11
345.750000
 21
-166.666687
  0
LINE
  8
0
 62
     4
 10
348.500000
 20
-166.666687
 11
345.750000
 21
-166.666687
  0
LINE
  8
0
 62
     4
 10
345.750000
 20
-158.166687
 11
339.750000
 21
-158.166687
  0
LINE
  8
0
 62
     4
 10
345.750000
 20
-165.166687
 11
339.750000
 21
-165.166687
  0
LINE
  8
0
 62
     4
 10
348.500000
 20
-166.666687
 11
348.500000
 21
-165.198425
  0
LINE
  8
0
 62
     4
 10
353.000000
 20
-166.666687
 11
353.000000
 21
-165.198425
  0
LINE
  8
0
 62
     4
 10
354.750000
 20
-140.716675
 11
346.750000
 21
-140.716675
  0
LINE
  8
0
 62
     4
 10
354.750000
 20
-140.716675
 11
354.750000
 21
-156.666672
  0
LINE
  8
0
 62
     4
 10
346.750000
 20
-140.716675
 11
346.750000
 21
-156.666672
  0
LINE
  8
0
 62
     4
 10
354.750000
 20
-182.616669
 11
346.750000
 21
-182.616669
  0
LINE
  8
0
 62
     4
 10
354.750000
 20
-166.666687
 11
354.750000
 21
-182.616669
  0
LINE
  8
0
 62
     4
 10
346.750000
 20
-166.666687
 11
346.750000
 21
-182.616669
  0
LINE
  8
0
 62
     4
 10
361.750000
 20
-158.166687
 11
361.750000
 21
-165.166687
  0
LINE
  8
0
 62
     4
 10
351.669220
 20
-162.585922
 11
349.830750
 21
-160.747452
  0
LINE
  8
0
 62
     4
 10
351.669159
 20
-160.747421
 11
349.830688
 21
-162.585892
  0
LINE
  8
0
 62
     4
 10
337.750000
 20
-159.966675
 11
332.750000
 21
-159.966675
  0
LINE
  8
0
 62
     4
 10
337.750000
 20
-163.366669
 11
332.750000
 21
-163.366669
  0
LINE
  8
0
 62
     4
 10
322.750000
 20
-140.716675
 11
322.750000
 21
-182.616669
  0
LINE
  8
0
 62
     4
 10
330.750000
 20
-140.716675
 11
330.750000
 21
-182.616669
  0
LINE
  8
0
 62
     4
 10
330.750000
 20
-140.716675
 11
322.750000
 21
-140.716675
  0
LINE
  8
0
 62
     4
 10
330.750000
 20
-182.616669
 11
322.750000
 21
-182.616669
  0
LINE
  8
0
 10
322.750000
 20
-140.866653
 11
297.750000
 21
-140.866653
  0
LINE
  8
0
 10
346.750000
 20
-140.866653
 11
330.750000
 21
-140.866653
  0
LINE
  8
0
 10
322.750000
 20
-182.466675
 11
297.750000
 21
-182.466675
  0
LINE
  8
0
 10
346.750000
 20
-182.466675
 11
330.750000
 21
-182.466675
  0
LINE
  8
0
  6
CENTER
 62
     1
 10
163.583405
 20
-305.074524
 11
145.583374
 21
-305.074524
  0
LINE
  8
0
  6
CENTER
 62
     1
 10
154.583374
 20
-296.074524
 11
154.583374
 21
-314.074524
  0
LINE
  8
0
 62
     4
 10
161.083435
 20
-299.574524
 11
161.083435
 21
-310.574524
  0
LINE
  8
0
 62
     4
 10
148.083374
 20
-299.574524
 11
148.083374
 21
-310.574524
  0
LINE
  8
0
 62
     4
 10
160.083435
 20
-298.574524
 11
149.083374
 21
-298.574524
  0
LINE
  8
0
 62
     4
 10
160.083435
 20
-311.574524
 11
149.083374
 21
-311.574524
  0
LINE
  8
0
 62
     4
 10
264.250031
 20
-299.786621
 11
264.250031
 21
-310.361755
  0
LINE
  8
0
  6
CENTER
 62
     1
 10
301.337036
 20
-305.074188
 11
260.697052
 21
-305.074188
  0
LINE
  8
0
 62
     4
 10
290.250000
 20
-311.574188
 11
264.950043
 21
-311.574188
  0
LINE
  8
0
 62
     4
 10
290.250000
 20
-298.574188
 11
264.949921
 21
-298.574188
  0
LINE
  8
0
 62
     4
 10
264.950043
 20
-298.574188
 11
264.950043
 21
-311.574188
  0
LINE
  8
0
 62
     4
 10
264.949982
 20
-298.574188
 11
264.249969
 21
-299.786652
  0
LINE
  8
0
 62
     4
 10
264.949799
 20
-311.574341
 11
264.249817
 21
-310.361938
  0
LINE
  8
0
 62
     4
 10
287.250061
 20
-298.574188
 11
287.250061
 21
-302.476105
  0
LINE
  8
0
 62
     4
 10
287.250031
 20
-302.476105
 11
264.950043
 21
-302.476105
  0
LINE
  8
0
 62
     4
 10
287.250031
 20
-307.672241
 11
264.950043
 21
-307.672241
  0
LINE
  8
0
 62
     4
 10
287.250061
 20
-307.672241
 11
287.250061
 21
-311.574188
  0
LINE
  8
0
 62
     4
 10
264.950073
 20
-302.475983
 11
264.250092
 21
-303.175995
  0
LINE
  8
0
 62
     4
 10
264.949829
 20
-307.672394
 11
264.249878
 21
-306.972412
  0
LINE
  8
0
 62
     4
 10
287.250092
 20
-302.476166
 11
289.502930
 21
-298.574127
  0
LINE
  8
0
 62
     4
 10
287.250183
 20
-307.672211
 11
289.503052
 21
-311.574310
  0
ARC
  8
0
 62
     4
 10
-275.250000
 20
89.500000
 40
0.500000
 50
180.000000
 51
270.000000
  0
ARC
  8
0
 62
     4
 10
-278.250000
 20
89.985504
 40
3.000009
 50
49.262375
 51
130.737625
  0
CIRCLE
  8
0
 10
-323.750000
 20
37.000000
 40
3.300000
  0
CIRCLE
  8
0
 10
-323.750000
 20
37.000000
 40
5.500000
  0
CIRCLE
  8
0
 10
-323.750000
 20
91.000000
 40
5.500000
  0
CIRCLE
  8
0
 10
-323.750000
 20
91.000000
 40
3.300000
  0
CIRCLE
  8
0
 10
-353.750000
 20
37.000000
 40
5.500000
  0
CIRCLE
  8
0
 10
-353.750000
 20
37.000000
 40
3.300000
  0
CIRCLE
  8
0
 10
-353.750000
 20
91.000000
 40
5.500000
  0
CIRCLE
  8
0
 10
-353.750000
 20
91.000000
 40
3.300000
  0
ARC
  8
0
 10
-324.516968
 20
116.000061
 40
0.800011
 50
184.999969
 51
270.000000
  0
ARC
  8
0
 10
-352.983032
 20
116.000061
 40
0.800003
 50
270.000000
 51
355.000031
  0
ARC
  8
0
 10
-326.769531
 20
118.800049
 40
1.200001
 50
4.999846
 51
90.000000
  0
ARC
  8
0
 10
-350.730469
 20
118.800049
 40
1.199997
 50
90.000000
 51
175.000153
  0
ARC
  8
0
 10
-363.196899
 20
119.500061
 40
0.500000
 50
90.000000
 51
174.999969
  0
ARC
  8
0
 10
-314.303101
 20
119.500061
 40
0.500011
 50
5.000035
 51
90.000000
  0
ARC
  8
0
 10
-319.750000
 20
111.799988
 40
7.999997
 50
57.910038
 51
122.089935
  0
ARC
  8
0
 10
-323.433350
 20
117.674042
 40
1.066656
 50
122.089264
 51
180.000000
  0
ARC
  8
0
 10
-316.066650
 20
117.674011
 40
1.066681
 50
0.000000
 51
57.909344
  0
ARC
  8
0
 10
-357.750000
 20
111.799988
 40
7.999997
 50
57.910038
 51
122.089935
  0
ARC
  8
0
 10
-361.433350
 20
117.674042
 40
1.066656
 50
122.089264
 51
180.000000
  0
ARC
  8
0
 10
-354.066650
 20
117.674011
 40
1.066681
 50
0.000000
 51
57.909344
  0
ARC
  8
0
 10
-361.433350
 20
10.325958
 40
1.066681
 50
180.000046
 51
237.910812
  0
ARC
  8
0
 10
-357.750000
 20
16.199982
 40
8.000005
 50
237.910065
 51
302.089966
  0
ARC
  8
0
 10
-354.066650
 20
10.325958
 40
1.066674
 50
302.090607
 51
0.000051
  0
ARC
  8
0
 10
-316.066650
 20
10.325958
 40
1.066674
 50
302.090607
 51
0.000051
  0
ARC
  8
0
 10
-323.433350
 20
10.325958
 40
1.066681
 50
180.000046
 51
237.910812
  0
ARC
  8
0
 10
-324.516968
 20
12.000000
 40
0.800000
 50
90.000000
 51
175.000031
  0
ARC
  8
0
 10
-352.983032
 20
12.000000
 40
0.800011
 50
4.999964
 51
90.000000
  0
ARC
  8
0
 10
-326.769531
 20
9.199982
 40
1.200000
 50
270.000000
 51
355.000214
  0
ARC
  8
0
 10
-350.730469
 20
9.199982
 40
1.200001
 50
184.999893
 51
270.000000
  0
ARC
  8
0
 10
-363.196899
 20
8.500000
 40
0.500011
 50
185.000137
 51
270.000000
  0
ARC
  8
0
 10
-314.303101
 20
8.500000
 40
0.500000
 50
270.000000
 51
355.000061
  0
ARC
  8
0
 10
-319.750000
 20
16.199982
 40
8.000005
 50
237.910065
 51
302.089966
  0
ARC
  8
0
 10
-333.120850
 20
121.677490
 40
3.322573
 50
55.616108
 51
124.383820
  0
ARC
  8
0
 10
-338.750000
 20
112.580505
 40
12.419534
 50
72.412178
 51
107.587822
  0
ARC
  8
0
 10
-344.379150
 20
121.677490
 40
3.322579
 50
55.616180
 51
124.383820
  0
ARC
  8
0
 10
-333.120850
 20
123.322601
 40
3.322579
 50
235.616180
 51
304.383881
  0
ARC
  8
0
 10
-338.750000
 20
132.419586
 40
12.419534
 50
252.412170
 51
287.587830
  0
ARC
  8
0
 10
-344.379150
 20
123.322601
 40
3.322579
 50
235.616180
 51
304.383820
  0
ARC
  8
0
 10
-333.120850
 20
6.322571
 40
3.322580
 50
235.616196
 51
304.383850
  0
ARC
  8
0
 10
-344.379150
 20
6.322571
 40
3.322577
 50
235.616150
 51
304.383820
  0
ARC
  8
0
 10
-338.750000
 20
15.419525
 40
12.419536
 50
252.412186
 51
287.587830
  0
ARC
  8
0
 10
-333.120850
 20
4.677399
 40
3.322576
 50
55.616138
 51
124.383804
  0
ARC
  8
0
 10
-344.379150
 20
4.677399
 40
3.322580
 50
55.616184
 51
124.383850
  0
ARC
  8
0
 10
-338.750000
 20
-4.419525
 40
12.419529
 50
72.412170
 51
107.587822
  0
ARC
  8
0
 62
     4
 10
-388.893921
 20
72.227234
 40
4.856049
 50
145.615601
 51
214.384399
  0
ARC
  8
0
 62
     4
 10
-390.606018
 20
72.227234
 40
4.856049
 50
325.615601
 51
34.384331
  0
ARC
  8
0
 62
     4
 10
-403.901367
 20
64.000000
 40
18.151396
 50
342.411957
 51
17.587997
  0
ARC
  8
0
 62
     4
 10
-390.606018
 20
55.772766
 40
4.856046
 50
325.615631
 51
34.384403
  0
ARC
  8
0
 62
     4
 10
-375.598633
 20
64.000000
 40
18.151396
 50
162.411957
 51
197.588013
  0
ARC
  8
0
 62
     4
 10
-388.893921
 20
55.772766
 40
4.856050
 50
145.615555
 51
214.384323
  0
CIRCLE
  8
0
 62
     2
 10
-306.250000
 20
64.000000
 40
5.000000
  0
CIRCLE
  8
0
 10
-306.250000
 20
64.000000
 40
4.250000
  0
ARC
  8
0
 62
     4
 10
-253.045807
 20
87.335495
 40
0.899999
 50
289.188354
 51
70.811661
  0
ARC
  8
0
 62
     4
 10
-253.045807
 20
89.035492
 40
0.899999
 50
289.188354
 51
70.811661
  0
ARC
  8
0
 62
     4
 10
-268.950012
 20
98.185493
 40
0.799988
 50
0.000000
 51
90.000000
  0
ARC
  8
0
 62
     4
 10
-272.549988
 20
98.185493
 40
0.800003
 50
90.000000
 51
180.000000
  0
ARC
  8
0
 62
     4
 10
-264.454193
 20
40.664505
 40
0.899999
 50
109.188339
 51
250.811661
  0
ARC
  8
0
 62
     4
 10
-252.454208
 20
89.035492
 40
0.899999
 50
109.188339
 51
250.811661
  0
ARC
  8
0
 62
     4
 10
-269.299988
 20
93.785492
 40
0.999995
 50
303.366364
 51
36.870247
  0
ARC
  8
0
 62
     4
 10
-272.200012
 20
93.785492
 40
0.999989
 50
143.129745
 51
236.633636
  0
ARC
  8
0
 62
     4
 10
-266.250000
 20
89.500000
 40
0.500000
 50
270.000000
 51
0.000000
  0
ARC
  8
0
 62
     4
 10
-264.454193
 20
38.964508
 40
0.899999
 50
109.188339
 51
250.811737
  0
ARC
  8
0
 62
     4
 10
-265.045776
 20
38.964508
 40
0.899999
 50
289.188354
 51
70.811737
  0
ARC
  8
0
 62
     4
 10
-251.250000
 20
38.500000
 40
0.500000
 50
90.000000
 51
180.000000
  0
ARC
  8
0
 62
     4
 10
-242.250000
 20
38.500000
 40
0.500000
 50
0.000000
 51
90.000000
  0
ARC
  8
0
 62
     4
 10
-239.250000
 20
38.014496
 40
2.999999
 50
229.262604
 51
310.737732
  0
ARC
  8
0
 62
     4
 10
-248.549988
 20
29.814507
 40
0.800003
 50
180.000137
 51
270.000000
  0
ARC
  8
0
 62
     4
 10
-244.949997
 20
29.814507
 40
0.799999
 50
270.000000
 51
0.000000
  0
CIRCLE
  8
0
 62
     4
 10
-329.750000
 20
26.999954
 40
2.800000
  0
ARC
  8
0
 62
     4
 10
-339.500000
 20
42.937454
 40
0.812500
 50
22.619865
 51
157.380142
  0
ARC
  8
0
 62
     4
 10
-338.000000
 20
42.937454
 40
0.812500
 50
22.619865
 51
157.380142
  0
ARC
  8
0
 62
     4
 10
-339.500000
 20
43.562454
 40
0.812500
 50
202.619858
 51
337.380127
  0
ARC
  8
0
 62
     4
 10
-339.500000
 20
84.437546
 40
0.812500
 50
22.619865
 51
157.380142
  0
ARC
  8
0
 62
     4
 10
-338.000000
 20
85.062546
 40
0.812500
 50
202.619858
 51
337.380127
  0
ARC
  8
0
 62
     4
 10
-339.500000
 20
85.062546
 40
0.812500
 50
202.619858
 51
337.380127
  0
CIRCLE
  8
0
 62
     4
 10
-329.750000
 20
101.000046
 40
2.800000
  0
ARC
  8
0
 10
-516.397095
 20
118.800049
 40
1.199997
 50
90.000000
 51
175.000153
  0
ARC
  8
0
 10
-490.436157
 20
118.800049
 40
1.200001
 50
5.000209
 51
90.000000
  0
ARC
  8
0
 10
-528.863525
 20
119.500061
 40
0.500000
 50
90.000000
 51
174.999969
  0
ARC
  8
0
 10
-477.969727
 20
119.500061
 40
0.500011
 50
5.000035
 51
90.000000
  0
ARC
  8
0
 10
-518.649658
 20
116.000061
 40
0.800003
 50
270.000000
 51
354.999847
  0
ARC
  8
0
 10
-488.183594
 20
116.000061
 40
0.800011
 50
184.999969
 51
270.000000
  0
ARC
  8
0
 10
-523.416626
 20
111.799988
 40
8.000004
 50
57.910065
 51
122.089935
  0
ARC
  8
0
 10
-519.733276
 20
117.674042
 40
1.066650
 50
0.000000
 51
57.910732
  0
ARC
  8
0
 10
-527.099976
 20
117.674011
 40
1.066656
 50
122.089264
 51
180.000000
  0
ARC
  8
0
 10
-483.416626
 20
111.799988
 40
8.000004
 50
57.910065
 51
122.089935
  0
ARC
  8
0
 10
-479.733276
 20
117.674042
 40
1.066681
 50
0.000000
 51
57.909344
  0
ARC
  8
0
 10
-487.099976
 20
117.674011
 40
1.066673
 50
122.090652
 51
180.000000
  0
ARC
  8
0
 10
-483.416626
 20
16.199982
 40
7.999997
 50
237.910034
 51
302.089935
  0
ARC
  8
0
 10
-487.099976
 20
10.325958
 40
1.066681
 50
179.999893
 51
237.909393
  0
ARC
  8
0
 10
-479.733276
 20
10.325958
 40
1.066659
 50
302.089172
 51
359.999939
  0
ARC
  8
0
 10
-523.416626
 20
16.199982
 40
7.999997
 50
237.910034
 51
302.089935
  0
ARC
  8
0
 10
-527.099976
 20
10.325958
 40
1.066650
 50
179.999893
 51
237.910782
  0
ARC
  8
0
 10
-519.733276
 20
10.325958
 40
1.066659
 50
302.089172
 51
359.999939
  0
ARC
  8
0
 10
-516.397095
 20
9.199982
 40
1.200001
 50
184.999756
 51
270.000000
  0
ARC
  8
0
 10
-490.436157
 20
9.199982
 40
1.200000
 50
270.000000
 51
354.999695
  0
ARC
  8
0
 10
-528.863525
 20
8.500000
 40
0.500010
 50
184.999817
 51
270.000000
  0
ARC
  8
0
 10
-477.969727
 20
8.500000
 40
0.500000
 50
270.000000
 51
354.999969
  0
ARC
  8
0
 10
-518.649658
 20
12.000000
 40
0.799980
 50
5.000019
 51
90.000000
  0
ARC
  8
0
 10
-488.183594
 20
12.000000
 40
0.800000
 50
90.000000
 51
175.000031
  0
ARC
  8
0
 10
-492.166626
 20
-1.387238
 40
9.387235
 50
69.744026
 51
110.255974
  0
ARC
  8
0
 10
-485.666748
 20
-1.387238
 40
9.387232
 50
69.744019
 51
110.255966
  0
ARC
  8
0
 10
-492.166626
 20
12.387207
 40
9.387232
 50
249.744019
 51
290.255981
  0
ARC
  8
0
 10
-485.666748
 20
12.387207
 40
9.387235
 50
249.744034
 51
290.255981
  0
ARC
  8
0
 10
-485.666748
 20
115.612793
 40
9.387230
 50
69.744019
 51
110.255966
  0
ARC
  8
0
 10
-492.166626
 20
129.387268
 40
9.387230
 50
249.744019
 51
290.255951
  0
ARC
  8
0
 10
-485.666748
 20
129.387268
 40
9.387238
 50
249.744034
 51
290.255981
  0
ARC
  8
0
 10
-492.166626
 20
115.612793
 40
9.387238
 50
69.744034
 51
110.255966
  0
CIRCLE
  8
0
 62
     2
 10
-484.416748
 20
83.000031
 40
3.000000
  0
CIRCLE
  8
0
 62
     2
 10
-484.416626
 20
45.000000
 40
3.000000
  0
CIRCLE
  8
0
 62
     2
 10
-522.416626
 20
83.000000
 40
3.000000
  0
CIRCLE
  8
0
 62
     2
 10
-522.416626
 20
45.000000
 40
3.000000
  0
CIRCLE
  8
0
 10
-484.416748
 20
83.000031
 40
2.458500
  0
CIRCLE
  8
0
 10
-484.416626
 20
45.000000
 40
2.458500
  0
CIRCLE
  8
0
 10
-522.416626
 20
83.000000
 40
2.458500
  0
CIRCLE
  8
0
 10
-522.416626
 20
45.000000
 40
2.458500
  0
CIRCLE
  8
0
 10
-503.416626
 20
64.000000
 40
22.000000
  0
CIRCLE
  8
0
 10
-503.416626
 20
64.000000
 40
16.000000
  0
CIRCLE
  8
0
 10
-503.416626
 20
64.000000
 40
15.300000
  0
CIRCLE
  8
0
 62
     4
 10
-503.416626
 20
64.000000
 40
9.500000
  0
CIRCLE
  8
0
 62
     4
 10
-503.416626
 20
64.000000
 40
5.287500
  0
CIRCLE
  8
0
 62
     4
 10
-503.416626
 20
64.000000
 40
7.000000
  0
CIRCLE
  8
0
 62
     1
 10
-503.416626
 20
64.000000
 40
5.917511
  0
ARC
  8
0
 62
     4
 10
-473.216614
 20
26.999954
 40
5.000007
 50
330.507629
 51
29.492264
  0
ARC
  8
0
 62
     4
 10
-469.444794
 20
24.866623
 40
0.666666
 50
270.000000
 51
330.508087
  0
ARC
  8
0
 62
     4
 10
-469.444794
 20
29.133286
 40
0.666675
 50
29.491766
 51
90.000000
  0
ARC
  8
0
 62
     4
 10
-475.166626
 20
42.937454
 40
0.812500
 50
22.619865
 51
157.380142
  0
ARC
  8
0
 62
     4
 10
-473.666626
 20
42.937454
 40
0.812500
 50
22.619865
 51
157.380142
  0
ARC
  8
0
 62
     4
 10
-475.166626
 20
43.562454
 40
0.812500
 50
202.619858
 51
337.380127
  0
ARC
  8
0
 62
     4
 10
-475.166626
 20
84.437546
 40
0.812500
 50
22.619865
 51
157.380142
  0
ARC
  8
0
 62
     4
 10
-473.666626
 20
85.062546
 40
0.812500
 50
202.619858
 51
337.380127
  0
ARC
  8
0
 62
     4
 10
-475.166626
 20
85.062546
 40
0.812500
 50
202.619858
 51
337.380127
  0
ARC
  8
0
 62
     4
 10
-469.444794
 20
98.866714
 40
0.666664
 50
270.000000
 51
330.508362
  0
ARC
  8
0
 62
     4
 10
-469.444794
 20
103.133377
 40
0.666674
 50
29.491623
 51
90.000000
  0
ARC
  8
0
 62
     4
 10
-473.216614
 20
101.000046
 40
5.000002
 50
330.507721
 51
29.492359
  0
ARC
  8
0
 10
-97.102905
 20
118.799988
 40
1.200001
 50
4.999846
 51
90.000000
  0
ARC
  8
0
 10
-123.063782
 20
118.799988
 40
1.199997
 50
90.000000
 51
174.999786
  0
ARC
  8
0
 10
-84.636414
 20
119.500000
 40
0.500003
 50
5.000111
 51
90.000000
  0
ARC
  8
0
 10
-135.530273
 20
119.500000
 40
0.500000
 50
90.000000
 51
174.999817
  0
ARC
  8
0
 10
-94.850220
 20
116.000000
 40
0.800003
 50
185.000015
 51
270.000000
  0
ARC
  8
0
 10
-125.316406
 20
116.000000
 40
0.800003
 50
270.000000
 51
355.000000
  0
ARC
  8
0
 10
-90.083374
 20
111.799988
 40
7.999997
 50
57.910038
 51
122.089890
  0
ARC
  8
0
 10
-93.766663
 20
117.674011
 40
1.066664
 50
122.089958
 51
180.000000
  0
ARC
  8
0
 10
-86.400024
 20
117.674011
 40
1.066666
 50
0.000000
 51
57.910038
  0
ARC
  8
0
 10
-130.083374
 20
111.799988
 40
7.999997
 50
57.910038
 51
122.089844
  0
ARC
  8
0
 10
-133.766724
 20
117.674011
 40
1.066664
 50
122.089958
 51
180.000000
  0
ARC
  8
0
 10
-126.400024
 20
117.674011
 40
1.066666
 50
0.000000
 51
57.910038
  0
ARC
  8
0
 10
-130.083374
 20
16.199982
 40
7.999996
 50
237.910156
 51
302.089966
  0
ARC
  8
0
 10
-126.400024
 20
10.325958
 40
1.066666
 50
302.089905
 51
0.000051
  0
ARC
  8
0
 10
-133.766724
 20
10.325958
 40
1.066666
 50
180.000046
 51
237.910126
  0
ARC
  8
0
 10
-90.083374
 20
16.199982
 40
8.000000
 50
237.910110
 51
302.089966
  0
ARC
  8
0
 10
-86.400024
 20
10.325958
 40
1.066666
 50
302.089905
 51
0.000051
  0
ARC
  8
0
 10
-93.766663
 20
10.325958
 40
1.066666
 50
180.000046
 51
237.910126
  0
ARC
  8
0
 10
-97.102905
 20
9.199982
 40
1.200000
 50
270.000000
 51
355.000214
  0
ARC
  8
0
 10
-123.063782
 20
9.199982
 40
1.200001
 50
185.000259
 51
270.000000
  0
ARC
  8
0
 10
-84.636414
 20
8.500000
 40
0.500000
 50
270.000000
 51
355.000000
  0
ARC
  8
0
 10
-135.530273
 20
8.500000
 40
0.499995
 50
185.000183
 51
270.000000
  0
ARC
  8
0
 10
-94.850220
 20
12.000000
 40
0.800000
 50
90.000000
 51
175.000061
  0
ARC
  8
0
 10
-125.316406
 20
12.000000
 40
0.800003
 50
5.000012
 51
90.000000
  0
ARC
  8
0
 10
-121.333374
 20
-1.387238
 40
9.387234
 50
69.743980
 51
110.255928
  0
ARC
  8
0
 10
-127.833313
 20
-1.387238
 40
9.387235
 50
69.744026
 51
110.255974
  0
ARC
  8
0
 10
-121.333374
 20
12.387207
 40
9.387235
 50
249.744034
 51
290.255981
  0
ARC
  8
0
 10
-127.833313
 20
12.387207
 40
9.387237
 50
249.743927
 51
290.255920
  0
ARC
  8
0
 10
-127.833313
 20
115.612793
 40
9.387238
 50
69.744034
 51
110.255981
  0
ARC
  8
0
 10
-121.333374
 20
129.387207
 40
9.387238
 50
249.744034
 51
290.255981
  0
ARC
  8
0
 10
-127.833313
 20
129.387207
 40
9.387236
 50
249.743927
 51
290.255920
  0
ARC
  8
0
 10
-121.333374
 20
115.612793
 40
9.387233
 50
69.743973
 51
110.255920
  0
ARC
  8
0
 10
-110.083374
 20
64.000000
 40
32.000000
 50
41.409561
 51
87.761261
  0
ARC
  8
0
 10
-110.083374
 20
64.000000
 40
31.999998
 50
221.409622
 51
267.761230
  0
CIRCLE
  8
0
 10
-129.083313
 20
83.000000
 40
3.500000
  0
CIRCLE
  8
0
 10
-129.083313
 20
83.000000
 40
2.980385
  0
CIRCLE
  8
0
 10
-129.083313
 20
83.000000
 40
4.000000
  0
CIRCLE
  8
0
 10
-91.083374
 20
83.000000
 40
4.000000
  0
CIRCLE
  8
0
 10
-91.083374
 20
83.000000
 40
3.500000
  0
CIRCLE
  8
0
 10
-91.083374
 20
83.000000
 40
2.980385
  0
CIRCLE
  8
0
 10
-91.083374
 20
45.000000
 40
4.000000
  0
CIRCLE
  8
0
 10
-91.083374
 20
45.000000
 40
3.500000
  0
CIRCLE
  8
0
 10
-91.083374
 20
45.000000
 40
2.980385
  0
CIRCLE
  8
0
 10
-129.083313
 20
45.000000
 40
4.000000
  0
CIRCLE
  8
0
 10
-129.083313
 20
45.000000
 40
3.500000
  0
CIRCLE
  8
0
 10
-129.083313
 20
45.000000
 40
2.980385
  0
CIRCLE
  8
0
 10
-110.083374
 20
64.000000
 40
20.800001
  0
ARC
  8
0
 10
-110.083374
 20
64.000000
 40
19.799997
 50
326.251007
 51
33.748936
  0
ARC
  8
0
 10
-110.083374
 20
64.000000
 40
19.799997
 50
146.250961
 51
213.748962
  0
CIRCLE
  8
0
 62
     2
 10
-110.083374
 20
64.000000
 40
5.000000
  0
CIRCLE
  8
0
 10
-110.083374
 20
64.000000
 40
4.250000
  0
CIRCLE
  8
0
 62
     2
 10
-119.083313
 20
22.500000
 40
5.000000
  0
CIRCLE
  8
0
 10
-119.083313
 20
22.500000
 40
4.250000
  0
CIRCLE
  8
0
 62
     2
 10
-119.083313
 20
105.500000
 40
5.000000
  0
CIRCLE
  8
0
 10
-119.083313
 20
105.500000
 40
4.250000
  0
ARC
  8
0
 10
-110.083374
 20
64.000000
 40
32.000000
 50
98.326553
 51
138.590347
  0
ARC
  8
0
 10
-110.083374
 20
64.000000
 40
32.000000
 50
92.238647
 51
94.480759
  0
ARC
  8
0
 10
-110.083374
 20
64.000000
 40
32.000000
 50
272.238617
 51
274.480743
  0
ARC
  8
0
 10
-110.083374
 20
64.000000
 40
32.000000
 50
278.326538
 51
318.590393
  0
CIRCLE
  8
0
 62
     4
 10
-110.083374
 20
88.185501
 40
2.500000
  0
CIRCLE
  8
0
 62
     4
 10
-110.083374
 20
88.185501
 40
1.699997
  0
ARC
  8
0
 62
     4
 10
-106.583344
 20
93.499985
 40
0.500000
 50
0.000000
 51
90.000000
  0
ARC
  8
0
 62
     4
 10
-107.483337
 20
93.199982
 40
0.800003
 50
90.000000
 51
180.000000
  0
ARC
  8
0
 62
     4
 10
-112.683350
 20
93.199982
 40
0.800003
 50
0.000000
 51
90.000000
  0
ARC
  8
0
 62
     4
 10
-114.883347
 20
93.799988
 40
1.200003
 50
99.593895
 51
180.000000
  0
ARC
  8
0
 62
     4
 10
-106.283340
 20
93.799988
 40
1.199997
 50
0.000000
 51
90.000000
  0
ARC
  8
0
 62
     4
 10
-110.083344
 20
80.185486
 40
5.000000
 50
64.158051
 51
115.841949
  0
ARC
  8
0
 62
     4
 10
-110.083344
 20
89.985489
 40
2.999999
 50
49.262596
 51
130.737396
  0
ARC
  8
0
 62
     4
 10
-111.883347
 20
98.185486
 40
0.800003
 50
90.000000
 51
180.000000
  0
ARC
  8
0
 62
     4
 10
-108.283340
 20
98.185486
 40
0.800003
 50
0.000000
 51
90.000000
  0
ARC
  8
0
 62
     4
 10
-114.083344
 20
88.999985
 40
0.150001
 50
304.044891
 51
0.000000
  0
ARC
  8
0
 62
     4
 10
-106.083344
 20
88.999985
 40
0.150002
 50
180.000000
 51
235.955109
  0
ARC
  8
0
 62
     4
 10
-114.083359
 20
89.000000
 40
0.149998
 50
308.474121
 51
0.000000
  0
ARC
  8
0
 62
     4
 10
-106.083359
 20
89.000000
 40
0.150002
 50
180.000000
 51
231.525879
  0
ARC
  8
0
 62
     4
 10
-114.083374
 20
89.000000
 40
0.149999
 50
313.437805
 51
0.000000
  0
ARC
  8
0
 62
     4
 10
-106.083374
 20
89.000000
 40
0.150002
 50
180.000000
 51
226.562195
  0
ARC
  8
0
 62
     4
 10
-114.083374
 20
89.000000
 40
0.150006
 50
318.247162
 51
0.000000
  0
ARC
  8
0
 62
     4
 10
-106.083374
 20
89.000000
 40
0.150002
 50
180.000000
 51
221.750671
  0
ARC
  8
0
 62
     4
 10
-114.082306
 20
89.000244
 40
0.149998
 50
324.360016
 51
359.997101
  0
ARC
  8
0
 62
     4
 10
-114.083374
 20
89.000000
 40
0.150000
 50
330.048370
 51
0.000000
  0
ARC
  8
0
 62
     4
 10
-106.083374
 20
89.000000
 40
0.150002
 50
180.000000
 51
209.951645
  0
ARC
  8
0
 62
     4
 10
-113.583344
 20
94.499985
 40
0.500000
 50
90.000000
 51
180.000000
  0
ARC
  8
0
 62
     4
 10
-113.883347
 20
94.799988
 40
1.199997
 50
90.000000
 51
180.000000
  0
ARC
  8
0
 62
     4
 10
-106.583405
 20
33.500015
 40
0.500000
 50
270.000000
 51
0.000000
  0
ARC
  8
0
 62
     4
 10
-106.283401
 20
33.200012
 40
1.200001
 50
270.000000
 51
0.000000
  0
ARC
  8
0
 62
     4
 10
-113.583405
 20
34.500015
 40
0.500000
 50
180.000000
 51
270.000000
  0
ARC
  8
0
 62
     4
 10
-112.683411
 20
34.800018
 40
0.799999
 50
270.000000
 51
0.000000
  0
ARC
  8
0
 62
     4
 10
-107.483398
 20
34.800018
 40
0.800003
 50
180.000000
 51
270.000000
  0
ARC
  8
0
 62
     4
 10
-105.283401
 20
34.200012
 40
1.200000
 50
279.593933
 51
0.000000
  0
ARC
  8
0
 62
     4
 10
-113.883408
 20
34.200012
 40
1.199997
 50
180.000000
 51
270.000000
  0
ARC
  8
0
 62
     4
 10
-110.083405
 20
47.814514
 40
5.000000
 50
244.157959
 51
295.841858
  0
ARC
  8
0
 62
     4
 10
-110.083405
 20
38.014511
 40
2.999999
 50
229.262604
 51
310.737396
  0
ARC
  8
0
 62
     4
 10
-108.283401
 20
29.814514
 40
0.799999
 50
270.000000
 51
0.000000
  0
ARC
  8
0
 62
     4
 10
-111.883408
 20
29.814514
 40
0.800003
 50
180.000000
 51
270.000000
  0
ARC
  8
0
 62
     4
 10
-106.083405
 20
39.000015
 40
0.150000
 50
124.041664
 51
180.000000
  0
ARC
  8
0
 62
     4
 10
-114.083405
 20
39.000015
 40
0.150002
 50
0.000000
 51
55.955921
  0
ARC
  8
0
 62
     4
 10
-106.083389
 20
39.000000
 40
0.150001
 50
128.473206
 51
180.000000
  0
ARC
  8
0
 62
     4
 10
-114.083389
 20
39.000000
 40
0.150002
 50
0.000000
 51
51.526791
  0
ARC
  8
0
 62
     4
 10
-106.083374
 20
39.000000
 40
0.149999
 50
133.437805
 51
180.000000
  0
ARC
  8
0
 62
     4
 10
-114.083374
 20
39.000000
 40
0.150002
 50
0.000000
 51
46.562187
  0
ARC
  8
0
 62
     4
 10
-106.083374
 20
39.000000
 40
0.150003
 50
138.248245
 51
180.000000
  0
ARC
  8
0
 62
     4
 10
-114.083374
 20
39.000000
 40
0.150002
 50
0.000000
 51
41.751759
  0
ARC
  8
0
 62
     4
 10
-106.084442
 20
38.999756
 40
0.149998
 50
144.360016
 51
179.997086
  0
ARC
  8
0
 62
     4
 10
-106.083374
 20
39.000000
 40
0.150000
 50
150.048355
 51
180.000000
  0
ARC
  8
0
 62
     4
 10
-114.083374
 20
39.000000
 40
0.150002
 50
0.000000
 51
29.951639
  0
ARC
  8
0
 62
     4
 10
-110.083374
 20
64.000000
 40
20.949999
 50
309.605347
 51
230.394516
  0
ARC
  8
0
 62
     4
 10
-144.055206
 20
29.133331
 40
0.666666
 50
90.000000
 51
150.507446
  0
ARC
  8
0
 62
     4
 10
-140.283371
 20
27.000000
 40
5.000005
 50
150.507660
 51
209.492294
  0
ARC
  8
0
 62
     4
 10
-144.055206
 20
24.866669
 40
0.666663
 50
209.492554
 51
270.000000
  0
ARC
  8
0
 62
     4
 10
-139.833374
 20
42.937500
 40
0.812500
 50
22.619865
 51
157.380142
  0
ARC
  8
0
 62
     4
 10
-138.333374
 20
42.937500
 40
0.812500
 50
22.619865
 51
157.380142
  0
ARC
  8
0
 62
     4
 10
-139.833374
 20
43.562500
 40
0.812500
 50
202.619858
 51
337.380127
  0
ARC
  8
0
 62
     4
 10
-139.833374
 20
84.437500
 40
0.812500
 50
22.619865
 51
157.380142
  0
ARC
  8
0
 62
     4
 10
-138.333374
 20
85.062500
 40
0.812500
 50
202.619858
 51
337.380127
  0
ARC
  8
0
 62
     4
 10
-139.833374
 20
85.062500
 40
0.812500
 50
202.619858
 51
337.380127
  0
ARC
  8
0
 62
     4
 10
-144.055206
 20
103.133331
 40
0.666664
 50
90.000000
 51
150.507736
  0
ARC
  8
0
 62
     4
 10
-144.055206
 20
98.866669
 40
0.666661
 50
209.492264
 51
270.000000
  0
ARC
  8
0
 62
     4
 10
-140.283371
 20
101.000000
 40
5.000002
 50
150.507721
 51
209.492355
  0
ARC
  8
0
 10
-315.250000
 20
-137.666672
 40
3.000000
 50
0.000000
 51
90.000000
  0
ARC
  8
0
 10
-361.250000
 20
-137.666672
 40
3.000000
 50
90.000000
 51
180.000000
  0
ARC
  8
0
 10
-361.250000
 20
-185.666687
 40
3.000000
 50
180.000000
 51
270.000000
  0
ARC
  8
0
 10
-315.250000
 20
-185.666687
 40
3.000000
 50
270.000000
 51
0.000000
  0
CIRCLE
  8
0
 10
-319.250000
 20
-141.666672
 40
4.750000
  0
CIRCLE
  8
0
 10
-357.250000
 20
-141.666672
 40
4.750000
  0
CIRCLE
  8
0
 10
-319.250000
 20
-181.666672
 40
4.750000
  0
CIRCLE
  8
0
 10
-357.250000
 20
-181.666672
 40
4.750000
  0
ARC
  8
0
 10
-319.250000
 20
-141.666672
 40
5.500000
 50
180.000000
 51
270.000000
  0
ARC
  8
0
 10
-357.250000
 20
-141.666672
 40
5.500000
 50
270.000000
 51
0.000000
  0
ARC
  8
0
 10
-357.250000
 20
-181.666672
 40
5.500000
 50
0.000000
 51
90.000000
  0
ARC
  8
0
 10
-319.250000
 20
-181.666672
 40
5.500000
 50
90.000000
 51
180.000000
  0
ARC
  8
0
 10
-315.250000
 20
-137.666672
 40
2.500000
 50
0.000000
 51
90.000000
  0
ARC
  8
0
 10
-315.250000
 20
-185.666687
 40
2.500000
 50
270.000000
 51
0.000000
  0
ARC
  8
0
 10
-361.250000
 20
-185.666687
 40
2.500000
 50
180.000000
 51
270.000000
  0
ARC
  8
0
 10
-361.250000
 20
-137.666672
 40
2.500000
 50
90.000000
 51
180.000000
  0
ARC
  8
0
 10
-363.250000
 20
-147.666672
 40
0.500000
 50
90.000000
 51
180.000000
  0
ARC
  8
0
 10
-351.250000
 20
-187.666672
 40
0.500000
 50
180.000000
 51
270.000000
  0
ARC
  8
0
 10
-351.250000
 20
-135.666656
 40
0.500000
 50
90.000000
 51
180.000000
  0
ARC
  8
0
 10
-363.250000
 20
-175.666687
 40
0.500000
 50
180.000000
 51
270.000000
  0
ARC
  8
0
 10
-325.250000
 20
-187.666672
 40
0.500000
 50
270.000000
 51
0.000000
  0
ARC
  8
0
 10
-313.250000
 20
-175.666687
 40
0.500000
 50
270.000000
 51
0.000000
  0
CIRCLE
  8
0
 10
-338.250000
 20
-147.166687
 40
6.500000
  0
CIRCLE
  8
0
 62
     2
 10
-338.250000
 20
-147.166687
 40
4.000000
  0
CIRCLE
  8
0
 10
-338.250000
 20
-147.166687
 40
3.323501
  0
ARC
  8
0
 62
     4
 10
-398.969604
 20
-166.416656
 40
13.719604
 50
339.743713
 51
20.256220
  0
ARC
  8
0
 62
     4
 10
-379.530396
 20
-166.416656
 40
13.719604
 50
159.743713
 51
200.256287
  0
ARC
  8
0
 62
     4
 10
-398.969604
 20
-156.916656
 40
13.719600
 50
339.743774
 51
20.256281
  0
ARC
  8
0
 62
     4
 10
-379.530396
 20
-156.916656
 40
13.719604
 50
159.743713
 51
200.256287
  0
ARC
  8
0
 10
-325.250000
 20
-135.666672
 40
0.500000
 50
0.000000
 51
90.000000
  0
ARC
  8
0
 10
-313.250000
 20
-147.666656
 40
0.500000
 50
0.000000
 51
90.000000
  0
ARC
  8
0
 62
     4
 10
-263.954193
 20
-160.816681
 40
0.900007
 50
109.188187
 51
250.811813
  0
ARC
  8
0
 62
     4
 10
-263.954193
 20
-162.516678
 40
0.900007
 50
109.188187
 51
250.811813
  0
CIRCLE
  8
0
 62
     4
 10
-238.750000
 20
-161.666672
 40
2.000000
  0
ARC
  8
0
 62
     4
 10
-248.750000
 20
-166.166672
 40
1.000002
 50
299.999939
 51
150.000076
  0
ARC
  8
0
 62
     4
 10
-243.750000
 20
-166.166672
 40
1.000002
 50
29.999931
 51
240.000076
  0
ARC
  8
0
 62
     4
 10
-250.750000
 20
-165.166672
 40
0.500000
 50
180.000000
 51
270.000000
  0
ARC
  8
0
 62
     4
 10
-241.750000
 20
-165.166672
 40
0.500000
 50
270.000000
 51
0.000000
  0
ARC
  8
0
 62
     4
 10
-250.750000
 20
-157.166672
 40
0.500000
 50
90.000000
 51
180.000000
  0
ARC
  8
0
 62
     4
 10
-241.750000
 20
-157.166672
 40
0.500000
 50
0.000000
 51
90.000000
  0
ARC
  8
0
 62
     4
 10
-264.545807
 20
-160.816681
 40
0.900007
 50
289.188171
 51
70.811813
  0
CIRCLE
  8
0
 62
     4
 10
-246.250000
 20
-161.666672
 40
2.600006
  0
CIRCLE
  8
0
 62
     4
 10
-338.250000
 20
-132.666656
 40
1.499996
  0
ARC
  8
0
 62
     4
 10
-327.116669
 20
-127.694832
 40
0.666656
 50
0.000000
 51
60.506912
  0
ARC
  8
0
 62
     4
 10
-331.383331
 20
-127.694832
 40
0.666675
 50
119.493088
 51
180.000000
  0
ARC
  8
0
 62
     4
 10
-329.250000
 20
-131.466660
 40
5.000003
 50
60.507523
 51
119.492477
  0
ARC
  8
0
 62
     4
 10
-436.916565
 20
-299.574524
 40
1.000000
 50
0.000000
 51
90.000000
  0
ARC
  8
0
 62
     4
 10
-436.916565
 20
-310.574524
 40
1.000000
 50
270.000000
 51
0.000000
  0
ARC
  8
0
 62
     4
 10
-447.916626
 20
-299.574524
 40
1.000000
 50
90.000000
 51
180.000000
  0
ARC
  8
0
 62
     4
 10
-447.916626
 20
-310.574524
 40
1.000000
 50
180.000000
 51
270.000000
  0
ARC
  8
0
 62
     4
 10
-442.416626
 20
-305.074524
 40
7.499990
 50
119.926308
 51
150.073486
  0
ARC
  8
0
 62
     4
 10
-442.416626
 20
-305.074524
 40
7.499990
 50
29.926308
 51
60.073490
  0
ARC
  8
0
 62
     4
 10
-442.416626
 20
-305.074524
 40
7.500006
 50
299.926514
 51
330.073486
  0
ARC
  8
0
 62
     4
 10
-442.416626
 20
-305.074524
 40
7.500006
 50
209.926514
 51
240.073486
  0
CIRCLE
  8
0
 62
     1
 10
-442.416626
 20
-305.074524
 40
3.000000
  0
CIRCLE
  8
0
 62
     4
 10
-442.416626
 20
-305.074524
 40
2.458500
  0
ARC
  8
0
 62
     4
 10
344.454193
 20
89.035492
 40
0.899999
 50
289.188354
 51
70.811661
  0
ARC
  8
0
 62
     4
 10
344.454193
 20
87.335495
 40
0.899999
 50
289.188354
 51
70.811661
  0
CIRCLE
  8
0
 10
273.750000
 20
37.000000
 40
3.300000
  0
CIRCLE
  8
0
 10
273.750000
 20
37.000000
 40
5.500000
  0
CIRCLE
  8
0
 10
273.750000
 20
91.000000
 40
5.500000
  0
CIRCLE
  8
0
 10
273.750000
 20
91.000000
 40
3.300000
  0
CIRCLE
  8
0
 10
243.750000
 20
37.000000
 40
5.500000
  0
CIRCLE
  8
0
 10
243.750000
 20
37.000000
 40
3.300000
  0
CIRCLE
  8
0
 10
243.750000
 20
91.000000
 40
5.500000
  0
CIRCLE
  8
0
 10
243.750000
 20
91.000000
 40
3.300000
  0
ARC
  8
0
 10
272.983032
 20
116.000061
 40
0.800011
 50
184.999969
 51
270.000000
  0
ARC
  8
0
 10
244.516968
 20
116.000061
 40
0.800003
 50
270.000000
 51
354.999939
  0
ARC
  8
0
 10
270.730469
 20
118.800049
 40
1.200001
 50
4.999846
 51
90.000000
  0
ARC
  8
0
 10
246.769531
 20
118.800049
 40
1.199997
 50
90.000000
 51
175.000153
  0
ARC
  8
0
 10
234.303101
 20
119.500061
 40
0.500000
 50
90.000000
 51
174.999817
  0
ARC
  8
0
 10
283.196899
 20
119.500061
 40
0.500011
 50
5.000035
 51
90.000000
  0
ARC
  8
0
 10
277.750000
 20
111.799988
 40
7.999997
 50
57.910038
 51
122.089935
  0
ARC
  8
0
 10
274.066650
 20
117.674042
 40
1.066656
 50
122.089264
 51
180.000000
  0
ARC
  8
0
 10
281.433350
 20
117.674011
 40
1.066681
 50
0.000000
 51
57.909344
  0
ARC
  8
0
 10
239.750000
 20
111.799988
 40
7.999997
 50
57.910038
 51
122.089844
  0
ARC
  8
0
 10
236.066650
 20
117.674042
 40
1.066664
 50
122.089958
 51
180.000000
  0
ARC
  8
0
 10
243.433350
 20
117.674011
 40
1.066666
 50
0.000000
 51
57.910038
  0
ARC
  8
0
 10
236.066650
 20
10.325958
 40
1.066666
 50
180.000046
 51
237.910126
  0
ARC
  8
0
 10
239.750000
 20
16.199982
 40
7.999996
 50
237.910156
 51
302.089966
  0
ARC
  8
0
 10
243.433350
 20
10.325958
 40
1.066666
 50
302.089905
 51
0.000051
  0
ARC
  8
0
 10
281.433350
 20
10.325958
 40
1.066674
 50
302.090607
 51
0.000051
  0
ARC
  8
0
 10
274.066650
 20
10.325958
 40
1.066681
 50
180.000046
 51
237.910812
  0
ARC
  8
0
 10
272.983032
 20
12.000000
 40
0.800000
 50
90.000000
 51
175.000031
  0
ARC
  8
0
 10
244.516968
 20
12.000000
 40
0.799996
 50
5.000060
 51
90.000000
  0
ARC
  8
0
 10
270.730469
 20
9.199982
 40
1.200000
 50
270.000000
 51
355.000214
  0
ARC
  8
0
 10
246.769531
 20
9.199982
 40
1.200001
 50
184.999893
 51
270.000000
  0
ARC
  8
0
 10
234.303101
 20
8.500000
 40
0.499995
 50
185.000290
 51
270.000000
  0
ARC
  8
0
 10
283.196899
 20
8.500000
 40
0.500000
 50
270.000000
 51
355.000061
  0
ARC
  8
0
 10
277.750000
 20
16.199982
 40
8.000005
 50
237.910065
 51
302.089966
  0
ARC
  8
0
 10
264.379150
 20
121.677490
 40
3.322573
 50
55.616108
 51
124.383820
  0
ARC
  8
0
 10
258.750000
 20
112.580505
 40
12.419534
 50
72.412178
 51
107.587753
  0
ARC
  8
0
 10
253.120850
 20
121.677490
 40
3.322588
 50
55.615963
 51
124.384033
  0
ARC
  8
0
 10
264.379150
 20
123.322601
 40
3.322579
 50
235.616180
 51
304.383881
  0
ARC
  8
0
 10
258.750000
 20
132.419586
 40
12.419529
 50
252.412247
 51
287.587830
  0
ARC
  8
0
 10
253.120850
 20
123.322601
 40
3.322588
 50
235.615967
 51
304.384033
  0
ARC
  8
0
 10
264.379150
 20
6.322571
 40
3.322580
 50
235.616196
 51
304.383850
  0
ARC
  8
0
 10
253.120850
 20
6.322571
 40
3.322585
 50
235.615936
 51
304.384033
  0
ARC
  8
0
 10
258.750000
 20
15.419525
 40
12.419531
 50
252.412247
 51
287.587830
  0
ARC
  8
0
 10
264.379150
 20
4.677399
 40
3.322576
 50
55.616138
 51
124.383804
  0
ARC
  8
0
 10
253.120850
 20
4.677399
 40
3.322588
 50
55.615967
 51
124.384071
  0
ARC
  8
0
 10
258.750000
 20
-4.419525
 40
12.419529
 50
72.412170
 51
107.587753
  0
ARC
  8
0
 62
     4
 10
208.606079
 20
72.227234
 40
4.856049
 50
145.615601
 51
214.384399
  0
ARC
  8
0
 62
     4
 10
206.893982
 20
72.227234
 40
4.856049
 50
325.615601
 51
34.384331
  0
ARC
  8
0
 62
     4
 10
193.598633
 20
64.000000
 40
18.151396
 50
342.411957
 51
17.587997
  0
ARC
  8
0
 62
     4
 10
206.893982
 20
55.772766
 40
4.856046
 50
325.615631
 51
34.384403
  0
ARC
  8
0
 62
     4
 10
221.901367
 20
64.000000
 40
18.151396
 50
162.411957
 51
197.588013
  0
ARC
  8
0
 62
     4
 10
208.606079
 20
55.772766
 40
4.856050
 50
145.615555
 51
214.384323
  0
CIRCLE
  8
0
 62
     2
 10
291.250000
 20
64.000000
 40
5.000000
  0
CIRCLE
  8
0
 10
291.250000
 20
64.000000
 40
4.250000
  0
CIRCLE
  8
0
 62
     4
 10
267.750000
 20
101.000046
 40
2.800000
  0
ARC
  8
0
 62
     4
 10
258.000000
 20
85.062546
 40
0.812500
 50
202.619858
 51
337.380127
  0
ARC
  8
0
 62
     4
 10
259.500000
 20
85.062546
 40
0.812500
 50
202.619858
 51
337.380127
  0
ARC
  8
0
 62
     4
 10
258.000000
 20
84.437546
 40
0.812500
 50
22.619865
 51
157.380142
  0
ARC
  8
0
 62
     4
 10
258.000000
 20
43.562454
 40
0.812500
 50
202.619858
 51
337.380127
  0
ARC
  8
0
 62
     4
 10
259.500000
 20
42.937454
 40
0.812500
 50
22.619865
 51
157.380142
  0
ARC
  8
0
 62
     4
 10
258.000000
 20
42.937454
 40
0.812500
 50
22.619865
 51
157.380142
  0
CIRCLE
  8
0
 62
     4
 10
267.750000
 20
26.999954
 40
2.800000
  0
ARC
  8
0
 62
     4
 10
352.550018
 20
29.814507
 40
0.799999
 50
270.000000
 51
0.000000
  0
ARC
  8
0
 62
     4
 10
348.950012
 20
29.814507
 40
0.799988
 50
180.000137
 51
270.000000
  0
ARC
  8
0
 62
     4
 10
358.250000
 20
38.014496
 40
3.000009
 50
229.262375
 51
310.737732
  0
ARC
  8
0
 62
     4
 10
355.250000
 20
38.500000
 40
0.500000
 50
0.000000
 51
90.000000
  0
ARC
  8
0
 62
     4
 10
346.250000
 20
38.500000
 40
0.500000
 50
90.000000
 51
180.000000
  0
ARC
  8
0
 62
     4
 10
332.454224
 20
38.964508
 40
0.899999
 50
289.188354
 51
70.811737
  0
ARC
  8
0
 62
     4
 10
333.045807
 20
38.964508
 40
0.899999
 50
109.188339
 51
250.811737
  0
ARC
  8
0
 62
     4
 10
333.045807
 20
40.664505
 40
0.899999
 50
109.188339
 51
250.811661
  0
ARC
  8
0
 62
     4
 10
324.950012
 20
98.185493
 40
0.800003
 50
90.000000
 51
180.000000
  0
ARC
  8
0
 62
     4
 10
328.549988
 20
98.185493
 40
0.799988
 50
0.000000
 51
90.000000
  0
ARC
  8
0
 62
     4
 10
319.250000
 20
89.985504
 40
3.000009
 50
49.262375
 51
130.737625
  0
ARC
  8
0
 62
     4
 10
322.250000
 20
89.500000
 40
0.500000
 50
180.000000
 51
270.000000
  0
ARC
  8
0
 62
     4
 10
331.250000
 20
89.500000
 40
0.500000
 50
270.000000
 51
0.000000
  0
ARC
  8
0
 62
     4
 10
325.299988
 20
93.785492
 40
0.999989
 50
143.129745
 51
236.633636
  0
ARC
  8
0
 62
     4
 10
328.200012
 20
93.785492
 40
0.999995
 50
303.366364
 51
36.870247
  0
ARC
  8
0
 62
     4
 10
345.045807
 20
89.035492
 40
0.899999
 50
109.188339
 51
250.811661
  0
ARC
  8
0
 10
61.102905
 20
118.800049
 40
1.199997
 50
90.000000
 51
175.000153
  0
ARC
  8
0
 10
87.063843
 20
118.800049
 40
1.200001
 50
5.000209
 51
90.000000
  0
ARC
  8
0
 10
48.636475
 20
119.500061
 40
0.500000
 50
90.000000
 51
174.999847
  0
ARC
  8
0
 10
99.530273
 20
119.500061
 40
0.500003
 50
5.000111
 51
90.000000
  0
ARC
  8
0
 10
58.850342
 20
116.000061
 40
0.800003
 50
270.000000
 51
354.999969
  0
ARC
  8
0
 10
89.316406
 20
116.000061
 40
0.800003
 50
185.000015
 51
270.000000
  0
ARC
  8
0
 10
54.083374
 20
111.799988
 40
8.000002
 50
57.910088
 51
122.089912
  0
ARC
  8
0
 10
57.766724
 20
117.674042
 40
1.066666
 50
0.000000
 51
57.910038
  0
ARC
  8
0
 10
50.400024
 20
117.674011
 40
1.066664
 50
122.089958
 51
180.000000
  0
ARC
  8
0
 10
94.083374
 20
111.799988
 40
8.000000
 50
57.910110
 51
122.089935
  0
ARC
  8
0
 10
97.766724
 20
117.674042
 40
1.066666
 50
0.000000
 51
57.910038
  0
ARC
  8
0
 10
90.400024
 20
117.674011
 40
1.066664
 50
122.089958
 51
180.000000
  0
ARC
  8
0
 10
94.083374
 20
16.199982
 40
8.000001
 50
237.909988
 51
302.089874
  0
ARC
  8
0
 10
90.400024
 20
10.325958
 40
1.066666
 50
179.999893
 51
237.910095
  0
ARC
  8
0
 10
97.766724
 20
10.325958
 40
1.066667
 50
302.089874
 51
359.999939
  0
ARC
  8
0
 10
54.083374
 20
16.199982
 40
7.999999
 50
237.910019
 51
302.089844
  0
ARC
  8
0
 10
50.400024
 20
10.325958
 40
1.066666
 50
179.999893
 51
237.910095
  0
ARC
  8
0
 10
57.766724
 20
10.325958
 40
1.066667
 50
302.089874
 51
359.999939
  0
ARC
  8
0
 10
61.102905
 20
9.199982
 40
1.200001
 50
184.999756
 51
270.000000
  0
ARC
  8
0
 10
87.063843
 20
9.199982
 40
1.200000
 50
270.000000
 51
354.999695
  0
ARC
  8
0
 10
48.636475
 20
8.500000
 40
0.499999
 50
184.999939
 51
270.000000
  0
ARC
  8
0
 10
99.530273
 20
8.500000
 40
0.500000
 50
270.000000
 51
354.999878
  0
ARC
  8
0
 10
58.850342
 20
12.000000
 40
0.799999
 50
4.999899
 51
90.000000
  0
ARC
  8
0
 10
89.316406
 20
12.000000
 40
0.800000
 50
90.000000
 51
174.999985
  0
ARC
  8
0
 10
85.333374
 20
-1.387238
 40
9.387235
 50
69.744026
 51
110.255974
  0
ARC
  8
0
 10
91.833252
 20
-1.387238
 40
9.387234
 50
69.743980
 51
110.255928
  0
ARC
  8
0
 10
85.333374
 20
12.387207
 40
9.387235
 50
249.743973
 51
290.255920
  0
ARC
  8
0
 10
91.833252
 20
12.387207
 40
9.387235
 50
249.744034
 51
290.255981
  0
ARC
  8
0
 10
91.833252
 20
115.612793
 40
9.387233
 50
69.743973
 51
110.255920
  0
ARC
  8
0
 10
85.333374
 20
129.387268
 40
9.387233
 50
249.743973
 51
290.255920
  0
ARC
  8
0
 10
91.833252
 20
129.387268
 40
9.387238
 50
249.744034
 51
290.255981
  0
ARC
  8
0
 10
85.333374
 20
115.612793
 40
9.387238
 50
69.744034
 51
110.255966
  0
CIRCLE
  8
0
 62
     4
 10
74.083374
 20
64.000000
 40
9.500000
  0
CIRCLE
  8
0
 62
     4
 10
74.083374
 20
64.000000
 40
5.287500
  0
CIRCLE
  8
0
 62
     4
 10
74.083374
 20
64.000000
 40
7.000000
  0
CIRCLE
  8
0
 62
     1
 10
74.083374
 20
64.000000
 40
5.917511
  0
CIRCLE
  8
0
 10
74.083374
 20
64.000000
 40
16.000000
  0
CIRCLE
  8
0
 10
109.083374
 20
84.000000
 40
3.250000
  0
CIRCLE
  8
0
 10
109.083374
 20
44.000000
 40
3.250000
  0
CIRCLE
  8
0
 10
39.083374
 20
84.000000
 40
3.250000
  0
CIRCLE
  8
0
 10
39.083374
 20
44.000000
 40
3.250000
  0
CIRCLE
  8
0
 10
74.083374
 20
64.000000
 40
15.300000
  0
ARC
  8
0
 62
     4
 10
104.283386
 20
101.000046
 40
4.999995
 50
330.507660
 51
29.492401
  0
ARC
  8
0
 62
     4
 10
108.055206
 20
103.133377
 40
0.666668
 50
29.491947
 51
90.000000
  0
ARC
  8
0
 62
     4
 10
108.055206
 20
98.866714
 40
0.666664
 50
270.000000
 51
330.508057
  0
ARC
  8
0
 62
     4
 10
108.055206
 20
29.133286
 40
0.666669
 50
29.492088
 51
90.000000
  0
ARC
  8
0
 62
     4
 10
108.055206
 20
24.866623
 40
0.666666
 50
270.000000
 51
330.507782
  0
ARC
  8
0
 62
     4
 10
104.283386
 20
26.999954
 40
5.000000
 50
330.507568
 51
29.492264
  0
ARC
  8
0
 10
480.397095
 20
118.799988
 40
1.200001
 50
4.999846
 51
90.000000
  0
ARC
  8
0
 10
454.436218
 20
118.799988
 40
1.199997
 50
90.000000
 51
174.999786
  0
ARC
  8
0
 10
492.863586
 20
119.500000
 40
0.500011
 50
5.000035
 51
90.000000
  0
ARC
  8
0
 10
441.969727
 20
119.500000
 40
0.500000
 50
90.000000
 51
174.999969
  0
ARC
  8
0
 10
482.649780
 20
116.000000
 40
0.800011
 50
184.999969
 51
270.000000
  0
ARC
  8
0
 10
452.183594
 20
116.000000
 40
0.800003
 50
270.000000
 51
355.000031
  0
ARC
  8
0
 10
487.416626
 20
111.799988
 40
7.999997
 50
57.910038
 51
122.089935
  0
ARC
  8
0
 10
483.733337
 20
117.674011
 40
1.066656
 50
122.089264
 51
180.000000
  0
ARC
  8
0
 10
491.099976
 20
117.674011
 40
1.066681
 50
0.000000
 51
57.909344
  0
ARC
  8
0
 10
447.416626
 20
111.799988
 40
7.999997
 50
57.910038
 51
122.089935
  0
ARC
  8
0
 10
443.733276
 20
117.674011
 40
1.066656
 50
122.089264
 51
180.000000
  0
ARC
  8
0
 10
451.099976
 20
117.674011
 40
1.066681
 50
0.000000
 51
57.909344
  0
ARC
  8
0
 10
447.416626
 20
16.199982
 40
8.000005
 50
237.910065
 51
302.089966
  0
ARC
  8
0
 10
451.099976
 20
10.325958
 40
1.066674
 50
302.090607
 51
0.000051
  0
ARC
  8
0
 10
443.733276
 20
10.325958
 40
1.066681
 50
180.000046
 51
237.910812
  0
ARC
  8
0
 10
487.416626
 20
16.199982
 40
8.000005
 50
237.910065
 51
302.089966
  0
ARC
  8
0
 10
491.099976
 20
10.325958
 40
1.066674
 50
302.090607
 51
0.000051
  0
ARC
  8
0
 10
483.733337
 20
10.325958
 40
1.066681
 50
180.000046
 51
237.910812
  0
ARC
  8
0
 10
480.397095
 20
9.199982
 40
1.200000
 50
270.000000
 51
355.000214
  0
ARC
  8
0
 10
454.436218
 20
9.199982
 40
1.200001
 50
185.000259
 51
270.000000
  0
ARC
  8
0
 10
492.863586
 20
8.500000
 40
0.500000
 50
270.000000
 51
355.000061
  0
ARC
  8
0
 10
441.969727
 20
8.500000
 40
0.500011
 50
185.000031
 51
270.000000
  0
ARC
  8
0
 10
482.649780
 20
12.000000
 40
0.800000
 50
90.000000
 51
175.000107
  0
ARC
  8
0
 10
452.183594
 20
12.000000
 40
0.800011
 50
4.999964
 51
90.000000
  0
ARC
  8
0
 10
456.166626
 20
-1.387238
 40
9.387232
 50
69.744019
 51
110.255966
  0
ARC
  8
0
 10
449.666687
 20
-1.387238
 40
9.387235
 50
69.744026
 51
110.255974
  0
ARC
  8
0
 10
456.166626
 20
12.387207
 40
9.387235
 50
249.744034
 51
290.255981
  0
ARC
  8
0
 10
449.666687
 20
12.387207
 40
9.387232
 50
249.744019
 51
290.255981
  0
ARC
  8
0
 10
449.666687
 20
115.612793
 40
9.387238
 50
69.744034
 51
110.255981
  0
ARC
  8
0
 10
456.166626
 20
129.387207
 40
9.387238
 50
249.744034
 51
290.255981
  0
ARC
  8
0
 10
449.666687
 20
129.387207
 40
9.387230
 50
249.744019
 51
290.255951
  0
ARC
  8
0
 10
456.166626
 20
115.612793
 40
9.387230
 50
69.744019
 51
110.255966
  0
ARC
  8
0
 10
467.416626
 20
64.000000
 40
32.000008
 50
41.409554
 51
87.761261
  0
ARC
  8
0
 10
467.416626
 20
64.000000
 40
31.999998
 50
221.409622
 51
267.761261
  0
CIRCLE
  8
0
 10
448.416687
 20
83.000000
 40
3.500000
  0
CIRCLE
  8
0
 10
448.416687
 20
83.000000
 40
2.980385
  0
CIRCLE
  8
0
 10
448.416687
 20
83.000000
 40
4.000000
  0
CIRCLE
  8
0
 10
486.416626
 20
83.000000
 40
4.000000
  0
CIRCLE
  8
0
 10
486.416626
 20
83.000000
 40
3.500000
  0
CIRCLE
  8
0
 10
486.416626
 20
83.000000
 40
2.980385
  0
CIRCLE
  8
0
 10
486.416626
 20
45.000000
 40
4.000000
  0
CIRCLE
  8
0
 10
486.416626
 20
45.000000
 40
3.500000
  0
CIRCLE
  8
0
 10
486.416626
 20
45.000000
 40
2.980385
  0
CIRCLE
  8
0
 10
448.416687
 20
45.000000
 40
4.000000
  0
CIRCLE
  8
0
 10
448.416687
 20
45.000000
 40
3.500000
  0
CIRCLE
  8
0
 10
448.416687
 20
45.000000
 40
2.980385
  0
CIRCLE
  8
0
 10
467.416626
 20
64.000000
 40
20.800001
  0
ARC
  8
0
 10
467.416626
 20
64.000000
 40
19.799997
 50
326.251007
 51
33.748959
  0
ARC
  8
0
 10
467.416626
 20
64.000000
 40
19.800005
 50
146.250961
 51
213.748978
  0
CIRCLE
  8
0
 62
     2
 10
467.416626
 20
64.000000
 40
5.000000
  0
CIRCLE
  8
0
 10
467.416626
 20
64.000000
 40
4.250000
  0
CIRCLE
  8
0
 62
     2
 10
458.416687
 20
22.500000
 40
5.000000
  0
CIRCLE
  8
0
 10
458.416687
 20
22.500000
 40
4.250000
  0
CIRCLE
  8
0
 62
     2
 10
458.416687
 20
105.500000
 40
5.000000
  0
CIRCLE
  8
0
 10
458.416687
 20
105.500000
 40
4.250000
  0
CIRCLE
  8
0
 10
502.416626
 20
84.000000
 40
3.250000
  0
ARC
  8
0
 62
     4
 10
437.216644
 20
101.000000
 40
5.000002
 50
150.507721
 51
209.492355
  0
ARC
  8
0
 62
     4
 10
433.444794
 20
98.866669
 40
0.666674
 50
209.491623
 51
270.000000
  0
ARC
  8
0
 62
     4
 10
433.444794
 20
103.133331
 40
0.666664
 50
90.000000
 51
150.508377
  0
ARC
  8
0
 62
     4
 10
437.666626
 20
85.062500
 40
0.812500
 50
202.619858
 51
337.380127
  0
ARC
  8
0
 62
     4
 10
439.166626
 20
85.062500
 40
0.812500
 50
202.619858
 51
337.380127
  0
ARC
  8
0
 62
     4
 10
437.666626
 20
84.437500
 40
0.812500
 50
22.619865
 51
157.380142
  0
ARC
  8
0
 62
     4
 10
437.666626
 20
43.562500
 40
0.812500
 50
202.619858
 51
337.380127
  0
ARC
  8
0
 62
     4
 10
439.166626
 20
42.937500
 40
0.812500
 50
22.619865
 51
157.380142
  0
ARC
  8
0
 62
     4
 10
437.666626
 20
42.937500
 40
0.812500
 50
22.619865
 51
157.380142
  0
ARC
  8
0
 62
     4
 10
433.444794
 20
24.866669
 40
0.666676
 50
209.491913
 51
270.000000
  0
ARC
  8
0
 62
     4
 10
437.216644
 20
27.000000
 40
5.000005
 50
150.507660
 51
209.492294
  0
ARC
  8
0
 62
     4
 10
433.444794
 20
29.133331
 40
0.666666
 50
90.000000
 51
150.508087
  0
ARC
  8
0
 62
     4
 10
467.416626
 20
64.000000
 40
20.949995
 50
309.605316
 51
230.394547
  0
ARC
  8
0
 62
     4
 10
463.416626
 20
39.000000
 40
0.149994
 50
0.000000
 51
29.950184
  0
ARC
  8
0
 62
     4
 10
471.416626
 20
39.000000
 40
0.150006
 50
150.049820
 51
180.000000
  0
ARC
  8
0
 62
     4
 10
471.415558
 20
38.999756
 40
0.150010
 50
144.363403
 51
179.997086
  0
ARC
  8
0
 62
     4
 10
463.416626
 20
39.000000
 40
0.149994
 50
0.000000
 51
41.751759
  0
ARC
  8
0
 62
     4
 10
471.416626
 20
39.000000
 40
0.150003
 50
138.248245
 51
180.000000
  0
ARC
  8
0
 62
     4
 10
463.416626
 20
39.000000
 40
0.149994
 50
0.000000
 51
46.557957
  0
ARC
  8
0
 62
     4
 10
471.416626
 20
39.000000
 40
0.150009
 50
133.442047
 51
180.000000
  0
ARC
  8
0
 62
     4
 10
463.416626
 20
39.000000
 40
0.149994
 50
0.000000
 51
51.526791
  0
ARC
  8
0
 62
     4
 10
471.416626
 20
39.000000
 40
0.150001
 50
128.473206
 51
180.000000
  0
ARC
  8
0
 62
     4
 10
463.416595
 20
39.000015
 40
0.149994
 50
0.000000
 51
55.953506
  0
ARC
  8
0
 62
     4
 10
471.416595
 20
39.000015
 40
0.150008
 50
124.046494
 51
180.000000
  0
ARC
  8
0
 62
     4
 10
465.616608
 20
29.814514
 40
0.799988
 50
180.000000
 51
270.000000
  0
ARC
  8
0
 62
     4
 10
469.216614
 20
29.814514
 40
0.799999
 50
270.000000
 51
0.000000
  0
ARC
  8
0
 62
     4
 10
467.416595
 20
38.014511
 40
3.000009
 50
229.262375
 51
310.737610
  0
ARC
  8
0
 62
     4
 10
467.416595
 20
47.814514
 40
4.999994
 50
244.158112
 51
295.841858
  0
ARC
  8
0
 62
     4
 10
463.616608
 20
34.200012
 40
1.200012
 50
180.000000
 51
270.000000
  0
ARC
  8
0
 62
     4
 10
472.216614
 20
34.200012
 40
1.200002
 50
279.594635
 51
0.000000
  0
ARC
  8
0
 62
     4
 10
470.016602
 20
34.800018
 40
0.799988
 50
180.000000
 51
270.000000
  0
ARC
  8
0
 62
     4
 10
464.816589
 20
34.800018
 40
0.799999
 50
270.000000
 51
0.000000
  0
ARC
  8
0
 62
     4
 10
463.916595
 20
34.500015
 40
0.500000
 50
180.000000
 51
270.000000
  0
ARC
  8
0
 62
     4
 10
471.216614
 20
33.200012
 40
1.200001
 50
270.000000
 51
0.000000
  0
ARC
  8
0
 62
     4
 10
470.916595
 20
33.500015
 40
0.500000
 50
270.000000
 51
0.000000
  0
ARC
  8
0
 62
     4
 10
463.616669
 20
94.799988
 40
1.199997
 50
90.000000
 51
180.000000
  0
ARC
  8
0
 62
     4
 10
463.916656
 20
94.499985
 40
0.500000
 50
90.000000
 51
180.000000
  0
ARC
  8
0
 62
     4
 10
471.416626
 20
89.000000
 40
0.149994
 50
180.000000
 51
209.950180
  0
ARC
  8
0
 62
     4
 10
463.416626
 20
89.000000
 40
0.150006
 50
330.049805
 51
0.000000
  0
ARC
  8
0
 62
     4
 10
463.417694
 20
89.000244
 40
0.150010
 50
324.363403
 51
359.997101
  0
ARC
  8
0
 62
     4
 10
471.416626
 20
89.000000
 40
0.149994
 50
180.000000
 51
221.750671
  0
ARC
  8
0
 62
     4
 10
463.416626
 20
89.000000
 40
0.150006
 50
318.247162
 51
0.000000
  0
ARC
  8
0
 62
     4
 10
471.416626
 20
89.000000
 40
0.149994
 50
180.000000
 51
226.557953
  0
ARC
  8
0
 62
     4
 10
463.416626
 20
89.000000
 40
0.150009
 50
313.442047
 51
0.000000
  0
ARC
  8
0
 62
     4
 10
471.416656
 20
89.000000
 40
0.149994
 50
180.000000
 51
231.525879
  0
ARC
  8
0
 62
     4
 10
463.416656
 20
89.000000
 40
0.149998
 50
308.474121
 51
0.000000
  0
ARC
  8
0
 62
     4
 10
471.416656
 20
88.999985
 40
0.149994
 50
180.000000
 51
235.952698
  0
ARC
  8
0
 62
     4
 10
463.416656
 20
88.999985
 40
0.150005
 50
304.047302
 51
0.000000
  0
ARC
  8
0
 62
     4
 10
469.216644
 20
98.185486
 40
0.799988
 50
0.000000
 51
90.000000
  0
ARC
  8
0
 62
     4
 10
465.616669
 20
98.185486
 40
0.800003
 50
90.000000
 51
180.000000
  0
ARC
  8
0
 62
     4
 10
467.416656
 20
89.985489
 40
3.000009
 50
49.262375
 51
130.737625
  0
ARC
  8
0
 62
     4
 10
467.416656
 20
80.185486
 40
4.999997
 50
64.158127
 51
115.841873
  0
ARC
  8
0
 62
     4
 10
471.216644
 20
93.799988
 40
1.200012
 50
0.000000
 51
90.000000
  0
ARC
  8
0
 62
     4
 10
462.616669
 20
93.799988
 40
1.200006
 50
99.594612
 51
180.000000
  0
ARC
  8
0
 62
     4
 10
464.816650
 20
93.199982
 40
0.799988
 50
0.000000
 51
90.000000
  0
ARC
  8
0
 62
     4
 10
470.016663
 20
93.199982
 40
0.800003
 50
90.000000
 51
180.000000
  0
ARC
  8
0
 62
     4
 10
470.916656
 20
93.499985
 40
0.500000
 50
0.000000
 51
90.000000
  0
CIRCLE
  8
0
 62
     4
 10
467.416626
 20
88.185501
 40
1.699997
  0
CIRCLE
  8
0
 62
     4
 10
467.416626
 20
88.185501
 40
2.500000
  0
ARC
  8
0
 10
467.416626
 20
64.000000
 40
32.000000
 50
272.238617
 51
274.480743
  0
ARC
  8
0
 10
467.416626
 20
64.000000
 40
32.000000
 50
278.326538
 51
318.590393
  0
ARC
  8
0
 10
467.416626
 20
64.000000
 40
32.000000
 50
92.238632
 51
94.480743
  0
ARC
  8
0
 10
467.416626
 20
64.000000
 40
32.000004
 50
98.326485
 51
138.590363
  0
CIRCLE
  8
0
 10
502.416626
 20
84.000000
 40
5.500000
  0
CIRCLE
  8
0
 10
432.416626
 20
84.000000
 40
3.250000
  0
ARC
  8
0
 10
432.416626
 20
84.000000
 40
5.500000
 50
35.096798
 51
2.991508
  0
CIRCLE
  8
0
 10
502.416626
 20
44.000000
 40
3.250000
  0
CIRCLE
  8
0
 10
502.416626
 20
44.000000
 40
5.500000
  0
CIRCLE
  8
0
 10
432.416626
 20
44.000000
 40
3.250000
  0
ARC
  8
0
 10
432.416626
 20
44.000000
 40
5.499988
 50
357.008484
 51
324.903198
  0
ARC
  8
0
 10
281.750000
 20
-137.666672
 40
3.000000
 50
0.000000
 51
90.000000
  0
ARC
  8
0
 10
235.750000
 20
-137.666672
 40
3.000000
 50
90.000000
 51
180.000000
  0
ARC
  8
0
 10
235.750000
 20
-185.666687
 40
3.000000
 50
180.000000
 51
270.000000
  0
ARC
  8
0
 10
281.750000
 20
-185.666687
 40
3.000000
 50
270.000000
 51
0.000000
  0
CIRCLE
  8
0
 10
277.750000
 20
-141.666672
 40
4.750000
  0
CIRCLE
  8
0
 10
239.750000
 20
-141.666672
 40
4.750000
  0
CIRCLE
  8
0
 10
277.750000
 20
-181.666672
 40
4.750000
  0
CIRCLE
  8
0
 10
239.750000
 20
-181.666672
 40
4.750000
  0
ARC
  8
0
 10
277.750000
 20
-141.666672
 40
5.500000
 50
180.000000
 51
270.000000
  0
ARC
  8
0
 10
239.750000
 20
-141.666672
 40
5.500000
 50
270.000000
 51
0.000000
  0
ARC
  8
0
 10
239.750000
 20
-181.666672
 40
5.500000
 50
0.000000
 51
90.000000
  0
ARC
  8
0
 10
277.750000
 20
-181.666672
 40
5.500000
 50
90.000000
 51
180.000000
  0
ARC
  8
0
 10
281.750000
 20
-137.666672
 40
2.500000
 50
0.000000
 51
90.000000
  0
ARC
  8
0
 10
281.750000
 20
-185.666687
 40
2.500000
 50
270.000000
 51
0.000000
  0
ARC
  8
0
 10
235.750000
 20
-185.666687
 40
2.500000
 50
180.000000
 51
270.000000
  0
ARC
  8
0
 10
235.750000
 20
-137.666672
 40
2.500000
 50
90.000000
 51
180.000000
  0
ARC
  8
0
 10
233.750000
 20
-147.666672
 40
0.500000
 50
90.000000
 51
180.000000
  0
ARC
  8
0
 10
245.750000
 20
-187.666672
 40
0.500000
 50
180.000000
 51
270.000000
  0
ARC
  8
0
 10
245.750000
 20
-135.666656
 40
0.500000
 50
90.000000
 51
180.000000
  0
ARC
  8
0
 10
233.750000
 20
-175.666687
 40
0.500000
 50
180.000000
 51
270.000000
  0
ARC
  8
0
 10
271.750000
 20
-187.666672
 40
0.500000
 50
270.000000
 51
0.000000
  0
ARC
  8
0
 10
283.750000
 20
-175.666687
 40
0.500000
 50
270.000000
 51
0.000000
  0
CIRCLE
  8
0
 10
258.750000
 20
-147.166687
 40
6.500000
  0
CIRCLE
  8
0
 62
     2
 10
258.750000
 20
-147.166687
 40
4.000000
  0
CIRCLE
  8
0
 10
258.750000
 20
-147.166687
 40
3.323501
  0
ARC
  8
0
 62
     4
 10
198.030396
 20
-166.416656
 40
13.719604
 50
339.743713
 51
20.256199
  0
ARC
  8
0
 62
     4
 10
217.469604
 20
-166.416656
 40
13.719604
 50
159.743713
 51
200.256287
  0
ARC
  8
0
 62
     4
 10
198.030396
 20
-156.916656
 40
13.719614
 50
339.743805
 51
20.256281
  0
ARC
  8
0
 62
     4
 10
217.469604
 20
-156.916656
 40
13.719604
 50
159.743713
 51
200.256287
  0
ARC
  8
0
 10
271.750000
 20
-135.666672
 40
0.500000
 50
0.000000
 51
90.000000
  0
ARC
  8
0
 10
283.750000
 20
-147.666656
 40
0.500000
 50
0.000000
 51
90.000000
  0
ARC
  8
0
 62
     4
 10
267.750000
 20
-131.466660
 40
5.000003
 50
60.507523
 51
119.492477
  0
ARC
  8
0
 62
     4
 10
265.616669
 20
-127.694832
 40
0.666675
 50
119.493088
 51
180.000000
  0
ARC
  8
0
 62
     4
 10
269.883331
 20
-127.694832
 40
0.666656
 50
0.000000
 51
60.506912
  0
CIRCLE
  8
0
 62
     4
 10
258.750000
 20
-132.666656
 40
1.499996
  0
CIRCLE
  8
0
 62
     4
 10
350.750000
 20
-161.666672
 40
2.600006
  0
ARC
  8
0
 62
     4
 10
355.250000
 20
-157.166672
 40
0.500000
 50
0.000000
 51
90.000000
  0
ARC
  8
0
 62
     4
 10
346.250000
 20
-157.166672
 40
0.500000
 50
90.000000
 51
180.000000
  0
ARC
  8
0
 62
     4
 10
355.250000
 20
-165.166672
 40
0.500000
 50
270.000000
 51
0.000000
  0
ARC
  8
0
 62
     4
 10
346.250000
 20
-165.166672
 40
0.500000
 50
180.000000
 51
270.000000
  0
ARC
  8
0
 62
     4
 10
353.250000
 20
-166.166672
 40
1.000002
 50
29.999931
 51
240.000076
  0
ARC
  8
0
 62
     4
 10
348.250000
 20
-166.166672
 40
1.000002
 50
299.999939
 51
150.000076
  0
CIRCLE
  8
0
 62
     4
 10
358.250000
 20
-161.666672
 40
2.000000
  0
ARC
  8
0
 62
     4
 10
333.045807
 20
-162.516678
 40
0.900007
 50
109.188187
 51
250.811813
  0
ARC
  8
0
 62
     4
 10
332.454193
 20
-160.816681
 40
0.900007
 50
289.188171
 51
70.811813
  0
ARC
  8
0
 62
     4
 10
333.045807
 20
-160.816681
 40
0.900007
 50
109.188187
 51
250.811813
  0
ARC
  8
0
 62
     4
 10
160.083435
 20
-299.574524
 40
1.000000
 50
0.000000
 51
90.000000
  0
ARC
  8
0
 62
     4
 10
160.083435
 20
-310.574524
 40
1.000000
 50
270.000000
 51
0.000000
  0
ARC
  8
0
 62
     4
 10
149.083374
 20
-299.574524
 40
1.000000
 50
90.000000
 51
180.000000
  0
ARC
  8
0
 62
     4
 10
149.083374
 20
-310.574524
 40
1.000000
 50
180.000000
 51
270.000000
  0
ARC
  8
0
 62
     4
 10
154.583374
 20
-305.074524
 40
7.499998
 50
119.926407
 51
150.073486
  0
ARC
  8
0
 62
     4
 10
154.583374
 20
-305.074524
 40
7.499990
 50
29.926308
 51
60.073593
  0
ARC
  8
0
 62
     4
 10
154.583374
 20
-305.074524
 40
7.499998
 50
299.926422
 51
330.073486
  0
ARC
  8
0
 62
     4
 10
154.583374
 20
-305.074524
 40
7.500006
 50
209.926514
 51
240.073593
  0
CIRCLE
  8
0
 62
     1
 10
154.583374
 20
-305.074524
 40
3.000000
  0
CIRCLE
  8
0
 62
     4
 10
154.583374
 20
-305.074524
 40
2.458500
  0
TEXT
  8
0
 10
-507.285156
 20
375.250000
 40
12.500000
  1
SWING CYL
 50
0.000000
 41
1.052632
 51
0.000000
  7
STANDARD
  0
TEXT
  8
0
 10
-542.285156
 20
330.250000
 40
12.500000
  1
MODEL:SDA40*25-45(90)
 50
0.000000
 41
1.052632
 51
0.000000
  7
STANDARD
  0
TEXT
  8
0
 10
364.214844
 20
375.250000
 40
12.500000
  1
DATE: JUL ,1993
 50
0.000000
 41
1.052632
 51
0.000000
  7
STANDARD
  0
TEXT
  8
0
 10
345.179352
 20
-400.700012
 40
18.000000
  1
KOGANEI CORP.
 50
0.000000
 41
1.052632
 51
0.000000
  7
STANDARD
  0
TEXT
  8
0
 10
27.214844
 20
330.250000
 40
12.500000
  1
MODEL:SDA40*25-45(90)-3
 50
0.000000
 41
1.052632
 51
0.000000
  7
STANDARD
  0
TEXT
  8
0
 10
-533.285156
 20
290.250000
 40
12.500000
  1
STROKE:15,25,50,75,100
 50
0.000000
 41
1.052632
 51
0.000000
  7
STANDARD
  0
TEXT
  8
0
 10
-533.285156
 20
310.250000
 40
12.500000
  1
(WITH SENSOR SWITCH)
 50
0.000000
 41
1.052632
 51
0.000000
  7
STANDARD
  0
TEXT
  8
0
 10
36.214844
 20
290.250000
 40
12.500000
  1
STROKE:15,25,50,75,100
 50
0.000000
 41
1.052632
 51
0.000000
  7
STANDARD
  0
TEXT
  8
0
 10
36.214844
 20
310.250000
 40
12.500000
  1
(WITH SENSOR SWITCH)
 50
0.000000
 41
1.052632
 51
0.000000
  7
STANDARD
  0
TEXT
  8
0
 10
195.357574
 20
-364.793915
 40
9.000000
  1
N
 50
0.000000
 41
1.052632
 51
0.000000
  7
STANDARD
  0
TEXT
  8
0
 10
-374.142426
 20
-364.793915
 40
9.000000
  1
N
 50
0.000000
 41
1.052632
 51
0.000000
  7
STANDARD
  0
TEXT
  8
0
 62
     2
 10
307.714294
 20
152.010040
 40
9.000000
  1
68+ST
 50
0.000000
 41
1.052632
 51
0.000000
  7
STANDARD
  0
LINE
  8
0
 62
     2
 10
377.750000
 20
151.010040
 11
284.750000
 21
151.010040
  0
LINE
  8
0
 62
     2
 10
377.750000
 20
151.010040
 11
374.852234
 21
150.233582
  0
LINE
  8
0
 62
     2
 10
377.750000
 20
151.010040
 11
374.852234
 21
151.786499
  0
LINE
  8
0
 62
     2
 10
284.750000
 20
151.010040
 11
287.647766
 21
151.786499
  0
LINE
  8
0
 62
     2
 10
284.750000
 20
151.010040
 11
287.647766
 21
150.233582
  0
LINE
  8
0
 62
     2
 10
377.750000
 20
75.000000
 11
377.750000
 21
152.510040
  0
LINE
  8
0
 62
     2
 10
284.750000
 20
112.000046
 11
284.750000
 21
152.510040
  0
TEXT
  8
0
 62
     2
 10
260.214294
 20
172.010040
 40
9.000000
  1
154+ST
 50
0.000000
 41
1.052632
 51
0.000000
  7
STANDARD
  0
LINE
  8
0
 62
     2
 10
377.750000
 20
171.010040
 11
198.750000
 21
171.010040
  0
LINE
  8
0
 62
     2
 10
377.750000
 20
171.010040
 11
374.852234
 21
170.233582
  0
LINE
  8
0
 62
     2
 10
377.750000
 20
171.010040
 11
374.852234
 21
171.786499
  0
LINE
  8
0
 62
     2
 10
198.750000
 20
171.010040
 11
201.647781
 21
171.786499
  0
LINE
  8
0
 62
     2
 10
198.750000
 20
171.010040
 11
201.647781
 21
170.233582
  0
LINE
  8
0
 62
     2
 10
377.750000
 20
75.000000
 11
377.750000
 21
172.510040
  0
LINE
  8
0
 62
     2
 10
198.750000
 20
69.287567
 11
198.750000
 21
172.510040
  0
TEXT
  8
0
 62
     2
 10
-337.285706
 20
172.010040
 40
9.000000
  1
154+ST
 50
0.000000
 41
1.052632
 51
0.000000
  7
STANDARD
  0
LINE
  8
0
 62
     2
 10
-219.750000
 20
171.010040
 11
-398.750000
 21
171.010040
  0
LINE
  8
0
 62
     2
 10
-219.750000
 20
171.010040
 11
-222.647781
 21
170.233582
  0
LINE
  8
0
 62
     2
 10
-219.750000
 20
171.010040
 11
-222.647781
 21
171.786499
  0
LINE
  8
0
 62
     2
 10
-398.750000
 20
171.010040
 11
-395.852234
 21
171.786499
  0
LINE
  8
0
 62
     2
 10
-398.750000
 20
171.010040
 11
-395.852234
 21
170.233582
  0
LINE
  8
0
 62
     2
 10
-219.750000
 20
75.000000
 11
-219.750000
 21
172.510040
  0
LINE
  8
0
 62
     2
 10
-398.750000
 20
69.287567
 11
-398.750000
 21
172.510040
  0
TEXT
  8
0
 62
     2
 10
-289.785706
 20
152.010040
 40
9.000000
  1
68+ST
 50
0.000000
 41
1.052632
 51
0.000000
  7
STANDARD
  0
LINE
  8
0
 62
     2
 10
-219.750000
 20
151.010040
 11
-312.750000
 21
151.010040
  0
LINE
  8
0
 62
     2
 10
-219.750000
 20
151.010040
 11
-222.647781
 21
150.233582
  0
LINE
  8
0
 62
     2
 10
-219.750000
 20
151.010040
 11
-222.647781
 21
151.786499
  0
LINE
  8
0
 62
     2
 10
-312.750000
 20
151.010040
 11
-309.852234
 21
151.786499
  0
LINE
  8
0
 62
     2
 10
-312.750000
 20
151.010040
 11
-309.852234
 21
150.233582
  0
LINE
  8
0
 62
     2
 10
-219.750000
 20
75.000000
 11
-219.750000
 21
152.510040
  0
LINE
  8
0
 62
     2
 10
-312.750000
 20
112.000046
 11
-312.750000
 21
152.510040
  0
ENDSEC
  0
EOF
