  0
SECTION
  2
HEADER
  0
ENDSEC
  0
SECTION
  2
TABLES
  0
TABLE
  2
LTYPE
 70
     4
  0
LTYPE
  2
CONTINUOUS
 70
    64
  3
Solid line
 72
    65
 73
     0
 40
0.000000
  0
LTYPE
  2
DASHED
 70
    64
  3
__ __ __ __ __ __ __ __ __ __ __ __ __ __ __
 72
    65
 73
     2
 40
3.500000
 49
2.000000
 49
-1.500000
  0
LTYPE
  2
CENTER
 70
    64
  3
____ _ ____ _ ____ _ ____ _ ____ _ ____ _ ____
 72
    65
 73
     4
 40
17.500000
 49
13.000000
 49
-1.500000
 49
1.500000
 49
-1.500000
  0
LTYPE
  2
PHANTOM
 70
    64
  3
_____ _ _ _____ _ _ _____ _ _ _____ _ _ ____  
 72
    65
 73
     6
 40
15.500000
 49
8.000000
 49
-1.500000
 49
1.500000
 49
-1.500000
 49
1.500000
 49
-1.500000
  0
LTYPE
  2
DASHED1
 70
    64
  3
__ __ __ __ __ __ __ __ __ __ __ __ __ __ __
 72
    65
 73
     2
 40
1.500000
 49
1.000000
 49
-0.500000
  0
LTYPE
  2
DASHED2
 70
    64
  3
__ __ __ __ __ __ __ __ __ __ __ __ __ __ __
 72
    65
 73
     2
 40
3.500000
 49
2.500000
 49
-1.000000
  0
LTYPE
  2
DASHED3
 70
    64
  3
__ __ __ __ __ __ __ __ __ __ __ __ __ __ __
 72
    65
 73
     2
 40
6.000000
 49
4.000000
 49
-2.000000
  0
LTYPE
  2
DASHED4
 70
    64
  3
__ __ __ __ __ __ __ __ __ __ __ __ __ __ __
 72
    65
 73
     2
 40
12.000000
 49
10.000000
 49
-2.000000
  0
LTYPE
  2
DASHED5
 70
    64
  3
__ __ __ __ __ __ __ __ __ __ __ __ __ __ __
 72
    65
 73
     2
 40
17.000000
 49
15.000000
 49
-2.000000
  0
LTYPE
  2
DASHED6
 70
    64
  3
__ __ __ __ __ __ __ __ __ __ __ __ __ __ __
 72
    65
 73
     2
 40
29.000000
 49
27.000000
 49
-2.000000
  0
LTYPE
  2
PHANTOM1
 70
    64
  3
_____ _ _ _____ _ _ _____ _ _ _____ _ _ ____  
 72
    65
 73
     6
 40
31.000000
 49
25.000000
 49
-1.500000
 49
1.000000
 49
-1.000000
 49
1.000000
 49
-1.500000
  0
LTYPE
  2
PHANTOM2
 70
    64
  3
_____ _ _ _____ _ _ _____ _ _ _____ _ _ ____  
 72
    65
 73
     6
 40
36.000000
 49
27.000000
 49
-1.500000
 49
2.500000
 49
-1.000000
 49
2.500000
 49
-1.500000
  0
LTYPE
  2
PHANTOM3
 70
    64
  3
_____ _ _ _____ _ _ _____ _ _ _____ _ _ ____  
 72
    65
 73
     6
 40
78.000000
 49
64.000000
 49
-2.000000
 49
4.000000
 49
-2.000000
 49
4.000000
 49
-2.000000
  0
LTYPE
  2
CENTER1
 70
    64
  3
____ _ ____ _ ____ _ ____ _ ____ _ ____ _ ____
 72
    65
 73
     4
 40
19.000000
 49
14.000000
 49
-1.000000
 49
3.000000
 49
-1.000000
  0
LTYPE
  2
CENTER2
 70
    64
  3
____ _ ____ _ ____ _ ____ _ ____ _ ____ _ ____
 72
    65
 73
     4
 40
28.500000
 49
25.000000
 49
-1.000000
 49
1.500000
 49
-1.000000
  0
LTYPE
  2
CENTER3
 70
    64
  3
____ _ ____ _ ____ _ ____ _ ____ _ ____ _ ____
 72
    65
 73
     4
 40
31.500000
 49
27.000000
 49
-1.000000
 49
2.500000
 49
-1.000000
  0
LTYPE
  2
CENTER4
 70
    64
  3
____ _ ____ _ ____ _ ____ _ ____ _ ____ _ ____
 72
    65
 73
     4
 40
50.000000
 49
45.000000
 49
-1.000000
 49
3.000000
 49
-1.000000
  0
LTYPE
  2
CENTER5
 70
    64
  3
____ _ ____ _ ____ _ ____ _ ____ _ ____ _ ____
 72
    65
 73
     4
 40
100.000000
 49
92.000000
 49
-2.000000
 49
4.000000
 49
-2.000000
  0
LTYPE
  2
SBK1
 70
    64
  3
______ _ _ _ ______ _ _ _ ______ _ _ _ _____  
 72
    65
 73
     8
 40
60.500000
 49
45.000000
 49
-2.000000
 49
2.500000
 49
-2.000000
 49
2.500000
 49
-2.000000
 49
2.500000
 49
-2.000000
  0
LTYPE
  2
SBK2
 70
    64
  3
______ _ _ _ ______ _ _ _ ______ _ _ _ _____  
 72
    65
 73
     8
 40
84.000000
 49
64.000000
 49
-2.000000
 49
4.000000
 49
-2.000000
 49
4.000000
 49
-2.000000
 49
4.000000
 49
-2.000000
  0
LTYPE
  2
STCH
 70
    64
  3
__ __ __ __ __ __ __ __ __ __ __ __ __ __ __
 72
    65
 73
     2
 40
3.000000
 49
1.000000
 49
-2.000000
  0
LTYPE
  2
MTCH
 70
    64
  3
_____ _ _ _____ _ _ _____ _ _ _____ _ _ ____  
 72
    65
 73
     6
 40
80.000000
 49
66.000000
 49
-2.000000
 49
4.000000
 49
-2.000000
 49
4.000000
 49
-2.000000
  0
ENDTAB
  0
TABLE
  2
LAYER
 70
     1
  0
LAYER
  2
0
 70
     0
 62
     7
  6
CONTINUOUS
  0
ENDTAB
  0
TABLE
  2
STYLE
 70
     1
  0
STYLE
  2
STANDARD
 70
     0
 40
0.000000
 41
1.000000
 50
0.000000
 71
     0
 42
0.200000
  3
txt
  4
BIGFONT
  0
ENDTAB
  0
TABLE
  2
VIEW
 70
     0
  0
ENDTAB
  0
ENDSEC
  0
SECTION
  2
BLOCKS
  0
ENDSEC
  0
SECTION
  2
ENTITIES
  0
LINE
  8
0
 10
574.500000
 20
400.500000
 11
574.500000
 21
-400.500000
  0
LINE
  8
0
 10
-564.500000
 20
400.500000
 11
574.500000
 21
400.500000
  0
LINE
  8
0
 10
-564.500000
 20
-400.500000
 11
574.500000
 21
-400.500000
  0
LINE
  8
0
 10
-564.500000
 20
400.500000
 11
-564.500000
 21
-400.500000
  0
LINE
  8
0
 10
-564.500000
 20
370.500000
 11
-334.500000
 21
370.500000
  0
LINE
  8
0
 10
344.500000
 20
370.500000
 11
574.500000
 21
370.500000
  0
LINE
  8
0
 10
344.500000
 20
-370.500000
 11
574.500000
 21
-370.500000
  0
LINE
  8
0
 10
344.500000
 20
-370.500000
 11
344.500000
 21
-400.500000
  0
LINE
  8
0
 10
344.500000
 20
400.500000
 11
344.500000
 21
370.500000
  0
LINE
  8
0
 10
-334.500000
 20
400.500000
 11
-334.500000
 21
370.500000
  0
LINE
  8
0
 10
298.250000
 20
-274.890045
 11
298.250000
 21
-334.814148
  0
LINE
  8
0
 10
-291.750000
 20
-289.774506
 11
-291.750000
 21
-320.374512
  0
LINE
  8
0
 10
-288.750000
 20
-321.074524
 11
-291.049988
 21
-321.074524
  0
LINE
  8
0
 10
-288.750000
 20
-289.074524
 11
-291.049988
 21
-289.074524
  0
LINE
  8
0
 10
-291.049988
 20
-289.074524
 11
-291.049988
 21
-321.074524
  0
LINE
  8
0
 10
-291.049927
 20
-289.074554
 11
-291.749908
 21
-289.774536
  0
LINE
  8
0
 10
-291.050323
 20
-321.074738
 11
-291.750275
 21
-320.374725
  0
LINE
  8
0
 10
-288.750000
 20
-287.394012
 11
-288.750000
 21
-323.300140
  0
LINE
  8
0
 10
195.892883
 20
-365.693909
 11
205.892883
 21
-365.693909
  0
LINE
  8
0
 10
290.250000
 20
-278.074188
 11
290.250000
 21
-332.074188
  0
LINE
  8
0
 10
290.250000
 20
-278.074188
 11
298.250000
 21
-278.074188
  0
LINE
  8
0
 10
290.250000
 20
-280.074188
 11
298.250000
 21
-280.074188
  0
LINE
  8
0
  6
CENTER
 62
     2
 10
288.866333
 20
-285.074188
 11
300.838135
 21
-285.074188
  0
LINE
  8
0
  6
CENTER
 62
     2
 10
288.866333
 20
-325.074188
 11
300.838135
 21
-325.074188
  0
LINE
  8
0
 10
290.250000
 20
-330.074188
 11
298.250000
 21
-330.074188
  0
LINE
  8
0
 10
290.250000
 20
-332.074188
 11
298.250000
 21
-332.074188
  0
LINE
  8
0
 10
5.000000
 20
400.500000
 11
5.000000
 21
-400.500000
  0
LINE
  8
0
 10
-373.607117
 20
-365.693909
 11
-363.607117
 21
-365.693909
  0
LINE
  8
0
  6
CENTER
 62
     2
 10
-216.750000
 20
64.000000
 11
-402.622925
 21
64.000000
  0
LINE
  8
0
  6
CENTER
 62
     2
 10
-338.750000
 20
152.357376
 11
-338.750000
 21
-24.545593
  0
LINE
  8
0
 10
-364.750000
 20
131.000046
 11
-364.750000
 21
-3.000015
  0
LINE
  8
0
 10
-312.750000
 20
131.000046
 11
-312.750000
 21
-3.000015
  0
LINE
  8
0
 10
-312.750000
 20
131.000061
 11
-337.182983
 21
131.000061
  0
LINE
  8
0
 10
-312.750000
 20
-3.000000
 11
-337.183044
 21
-3.000000
  0
LINE
  8
0
  6
CENTER
 62
     2
 10
-316.250000
 20
37.000000
 11
-331.250000
 21
37.000000
  0
LINE
  8
0
  6
CENTER
 62
     2
 10
-323.750000
 20
46.223995
 11
-323.750000
 21
28.312431
  0
LINE
  8
0
  6
CENTER
 62
     2
 10
-323.750000
 20
83.499985
 11
-323.750000
 21
98.499985
  0
LINE
  8
0
  6
CENTER
 62
     2
 10
-316.250000
 20
91.000000
 11
-331.250000
 21
91.000000
  0
LINE
  8
0
  6
CENTER
 62
     2
 10
-353.750000
 20
46.223995
 11
-353.750000
 21
28.590134
  0
LINE
  8
0
  6
CENTER
 62
     2
 10
-361.250000
 20
37.000000
 11
-346.250000
 21
37.000000
  0
LINE
  8
0
  6
CENTER
 62
     2
 10
-353.750000
 20
83.499985
 11
-353.750000
 21
98.499985
  0
LINE
  8
0
  6
CENTER
 62
     2
 10
-361.250000
 20
91.000000
 11
-346.250000
 21
91.000000
  0
LINE
  8
0
 10
-314.303101
 20
139.000000
 11
-363.196899
 21
139.000000
  0
LINE
  8
0
 10
-313.424988
 20
134.200043
 11
-324.516968
 21
134.200043
  0
LINE
  8
0
 10
-313.250000
 20
132.200012
 11
-364.250000
 21
132.200012
  0
LINE
  8
0
 10
-313.250000
 20
132.200027
 11
-313.250000
 21
131.000031
  0
LINE
  8
0
 10
-364.250000
 20
132.200027
 11
-364.250000
 21
131.000031
  0
LINE
  8
0
 10
-352.983032
 20
134.200043
 11
-364.075012
 21
134.200043
  0
LINE
  8
0
 10
-313.250031
 20
132.200043
 11
-313.805023
 21
138.543640
  0
LINE
  8
0
 10
-325.314056
 20
134.930252
 11
-325.574249
 21
137.904556
  0
LINE
  8
0
 10
-352.185944
 20
134.930252
 11
-351.925751
 21
137.904602
  0
LINE
  8
0
 10
-364.250000
 20
132.199951
 11
-363.694946
 21
138.543564
  0
LINE
  8
0
 10
-324.500000
 20
136.674057
 11
-324.500000
 21
135.500031
  0
LINE
  8
0
 10
-315.000000
 20
136.674057
 11
-315.000000
 21
135.500031
  0
LINE
  8
0
 10
-324.500000
 20
135.500000
 11
-315.000000
 21
135.500000
  0
LINE
  8
0
 10
-324.250000
 20
135.500031
 11
-324.250000
 21
134.200027
  0
LINE
  8
0
 10
-315.250000
 20
135.500031
 11
-315.250000
 21
134.200027
  0
LINE
  8
0
 10
-362.500000
 20
136.674057
 11
-362.500000
 21
135.500031
  0
LINE
  8
0
 10
-353.000000
 20
136.674057
 11
-353.000000
 21
135.500031
  0
LINE
  8
0
 10
-362.500000
 20
135.500000
 11
-353.000000
 21
135.500000
  0
LINE
  8
0
 10
-362.250000
 20
135.500031
 11
-362.250000
 21
134.200027
  0
LINE
  8
0
 10
-353.250000
 20
135.500031
 11
-353.250000
 21
134.200027
  0
LINE
  8
0
 10
-313.424988
 20
-6.200012
 11
-324.516968
 21
-6.200012
  0
LINE
  8
0
 10
-313.250000
 20
-4.200012
 11
-364.250000
 21
-4.200012
  0
LINE
  8
0
 10
-313.250000
 20
-4.200005
 11
-313.250000
 21
-3.000015
  0
LINE
  8
0
 10
-364.250000
 20
-4.200005
 11
-364.250000
 21
-3.000015
  0
LINE
  8
0
 10
-352.983032
 20
-6.200012
 11
-364.075012
 21
-6.200012
  0
LINE
  8
0
 10
-313.250244
 20
-4.199960
 11
-313.805237
 21
-10.543557
  0
LINE
  8
0
 10
-325.314178
 20
-6.930277
 11
-325.574371
 21
-9.904591
  0
LINE
  8
0
 10
-352.185883
 20
-6.930278
 11
-351.925690
 21
-9.904591
  0
LINE
  8
0
 10
-364.250610
 20
-4.200039
 11
-363.695557
 21
-10.543623
  0
LINE
  8
0
 10
-324.500000
 20
-8.674026
 11
-324.500000
 21
-7.500008
  0
LINE
  8
0
 10
-315.000000
 20
-8.674026
 11
-315.000000
 21
-7.500008
  0
LINE
  8
0
 10
-324.500000
 20
-7.500000
 11
-315.000000
 21
-7.500000
  0
LINE
  8
0
 10
-324.250000
 20
-7.500008
 11
-324.250000
 21
-6.200012
  0
LINE
  8
0
 10
-315.250000
 20
-7.500008
 11
-315.250000
 21
-6.200012
  0
LINE
  8
0
 10
-362.500000
 20
-8.674026
 11
-362.500000
 21
-7.500008
  0
LINE
  8
0
 10
-353.000000
 20
-8.674026
 11
-353.000000
 21
-7.500008
  0
LINE
  8
0
 10
-362.500000
 20
-7.500000
 11
-353.000000
 21
-7.500000
  0
LINE
  8
0
 10
-362.250000
 20
-7.500008
 11
-362.250000
 21
-6.200012
  0
LINE
  8
0
 10
-353.250000
 20
-7.500008
 11
-353.250000
 21
-6.200012
  0
LINE
  8
0
 10
-332.250000
 20
144.000000
 11
-345.250000
 21
144.000000
  0
LINE
  8
0
 10
-331.244446
 20
143.419495
 11
-331.244446
 21
139.580582
  0
LINE
  8
0
 10
-346.255554
 20
143.419449
 11
-346.255554
 21
139.580582
  0
LINE
  8
0
 10
-334.997192
 20
143.419495
 11
-334.997192
 21
139.580566
  0
LINE
  8
0
 10
-342.502747
 20
143.419495
 11
-342.502747
 21
139.580582
  0
LINE
  8
0
 10
-332.250183
 20
143.999741
 11
-331.244598
 21
143.419174
  0
LINE
  8
0
 10
-345.250275
 20
144.000519
 11
-346.255798
 21
143.419998
  0
LINE
  8
0
 10
-332.250336
 20
139.000473
 11
-331.244751
 21
139.581024
  0
LINE
  8
0
 10
-345.250031
 20
139.000183
 11
-346.255493
 21
139.580688
  0
LINE
  8
0
 10
-335.250000
 20
148.500061
 11
-342.250000
 21
148.500061
  0
LINE
  8
0
 10
-342.750000
 20
148.000031
 11
-342.750000
 21
144.000031
  0
LINE
  8
0
 10
-334.750000
 20
148.000031
 11
-334.750000
 21
144.000031
  0
LINE
  8
0
 10
-334.750031
 20
148.000015
 11
-335.250000
 21
148.500031
  0
LINE
  8
0
 10
-342.749451
 20
147.999451
 11
-342.249420
 21
148.499481
  0
LINE
  8
0
 10
-334.750000
 20
148.000031
 11
-342.750000
 21
148.000031
  0
LINE
  8
0
 62
     2
 10
-335.426514
 20
148.500015
 11
-335.426514
 21
144.000031
  0
LINE
  8
0
 62
     2
 10
-342.073486
 20
148.500015
 11
-342.073486
 21
144.000031
  0
LINE
  8
0
 10
-314.303101
 20
-11.000000
 11
-363.196899
 21
-11.000000
  0
LINE
  8
0
 10
-332.250000
 20
-16.000000
 11
-345.250000
 21
-16.000000
  0
LINE
  8
0
 10
-331.244446
 20
-15.419456
 11
-331.244446
 21
-11.580566
  0
LINE
  8
0
 10
-346.255554
 20
-15.419441
 11
-346.255554
 21
-11.580566
  0
LINE
  8
0
 10
-334.997192
 20
-15.419456
 11
-334.997192
 21
-11.580551
  0
LINE
  8
0
 10
-342.502747
 20
-15.419456
 11
-342.502747
 21
-11.580566
  0
LINE
  8
0
 10
-332.250153
 20
-15.999783
 11
-331.244629
 21
-15.419270
  0
LINE
  8
0
 10
-345.250122
 20
-16.000202
 11
-346.255707
 21
-15.419656
  0
LINE
  8
0
 10
-332.250153
 20
-11.000133
 11
-331.244568
 21
-11.580683
  0
LINE
  8
0
 10
-345.250183
 20
-10.999815
 11
-346.255707
 21
-11.580337
  0
LINE
  8
0
 10
-335.250000
 20
-20.500000
 11
-342.250000
 21
-20.500000
  0
LINE
  8
0
 10
-342.750000
 20
-20.000008
 11
-342.750000
 21
-16.000008
  0
LINE
  8
0
 10
-334.750000
 20
-20.000008
 11
-334.750000
 21
-16.000008
  0
LINE
  8
0
 10
-334.749908
 20
-20.000196
 11
-335.249847
 21
-20.500166
  0
LINE
  8
0
 10
-342.750031
 20
-20.000023
 11
-342.250122
 21
-20.499998
  0
LINE
  8
0
 10
-334.750000
 20
-20.000000
 11
-342.750000
 21
-20.000000
  0
LINE
  8
0
 62
     2
 10
-335.426514
 20
-20.500015
 11
-335.426514
 21
-16.000008
  0
LINE
  8
0
 62
     2
 10
-342.073486
 20
-20.500015
 11
-342.073486
 21
-16.000008
  0
LINE
  8
0
 10
-299.750000
 20
95.999985
 11
-299.750000
 21
31.999996
  0
LINE
  8
0
 10
-299.750000
 20
96.000000
 11
-312.750000
 21
96.000000
  0
LINE
  8
0
 10
-299.750000
 20
85.166016
 11
-312.750000
 21
85.166016
  0
LINE
  8
0
 10
-299.750000
 20
42.833984
 11
-312.750000
 21
42.833984
  0
LINE
  8
0
 10
-299.750000
 20
32.000000
 11
-312.750000
 21
32.000000
  0
LINE
  8
0
  6
CENTER
 62
     2
 10
-306.250000
 20
71.142845
 11
-306.250000
 21
57.142853
  0
LINE
  8
0
 10
-219.750000
 20
75.000000
 11
-219.750000
 21
52.999992
  0
LINE
  8
0
 10
-219.750000
 20
53.000000
 11
-225.750000
 21
53.000000
  0
LINE
  8
0
 10
-219.750000
 20
75.000000
 11
-225.750000
 21
75.000000
  0
LINE
  8
0
 10
-220.750000
 20
75.000000
 11
-220.750000
 21
52.999992
  0
LINE
  8
0
 10
-225.750000
 20
84.799988
 11
-225.750000
 21
75.000000
  0
LINE
  8
0
 10
-225.750000
 20
52.999992
 11
-225.750000
 21
43.200012
  0
LINE
  8
0
 10
-225.750000
 20
84.799988
 11
-266.750000
 21
84.799988
  0
LINE
  8
0
 10
-225.750000
 20
43.200012
 11
-242.750000
 21
43.200012
  0
LINE
  8
0
 62
     4
 10
-398.750000
 20
69.287567
 11
-398.750000
 21
58.712448
  0
LINE
  8
0
 62
     4
 10
-367.750000
 20
57.500000
 11
-385.750000
 21
57.500000
  0
LINE
  8
0
 62
     4
 10
-367.750000
 20
70.500000
 11
-385.750000
 21
70.500000
  0
LINE
  8
0
 62
     4
 10
-398.049988
 20
70.500000
 11
-398.049988
 21
57.500008
  0
LINE
  8
0
 62
     4
 10
-398.050049
 20
70.500061
 11
-398.750061
 21
69.287636
  0
LINE
  8
0
 62
     4
 10
-398.050232
 20
57.499878
 11
-398.750214
 21
58.712276
  0
LINE
  8
0
 62
     4
 10
-375.750000
 20
70.500000
 11
-375.750000
 21
66.598076
  0
LINE
  8
0
 62
     4
 10
-375.750000
 20
66.598083
 11
-385.750000
 21
66.598083
  0
LINE
  8
0
 62
     4
 10
-375.750000
 20
61.401917
 11
-385.750000
 21
61.401917
  0
LINE
  8
0
 62
     4
 10
-375.750000
 20
61.401917
 11
-375.750000
 21
57.500008
  0
LINE
  8
0
 62
     4
 10
-398.049805
 20
66.597885
 11
-398.749817
 21
65.897858
  0
LINE
  8
0
 62
     4
 10
-398.050018
 20
61.401833
 11
-398.750031
 21
62.101799
  0
LINE
  8
0
 62
     4
 10
-375.749725
 20
66.597923
 11
-373.496796
 21
70.500046
  0
LINE
  8
0
 62
     4
 10
-375.749390
 20
61.402203
 11
-373.496582
 21
57.500095
  0
LINE
  8
0
 62
     1
 10
-375.750000
 20
58.082520
 11
-385.750000
 21
58.082520
  0
LINE
  8
0
 62
     1
 10
-375.750000
 20
69.917511
 11
-385.750000
 21
69.917511
  0
LINE
  8
0
 62
     1
 10
-375.749786
 20
69.917213
 11
-374.740906
 21
70.499733
  0
LINE
  8
0
 62
     1
 10
-375.750000
 20
58.082474
 11
-374.741089
 21
57.499996
  0
LINE
  8
0
 62
     4
 10
-385.750000
 20
73.499985
 11
-385.750000
 21
54.500000
  0
LINE
  8
0
 62
     4
 10
-393.750000
 20
70.500000
 11
-398.049988
 21
70.500000
  0
LINE
  8
0
 62
     1
 10
-393.750000
 20
69.917511
 11
-398.386292
 21
69.917511
  0
LINE
  8
0
 62
     4
 10
-393.750000
 20
66.598083
 11
-398.049988
 21
66.598083
  0
LINE
  8
0
 62
     4
 10
-393.750000
 20
61.401917
 11
-398.049988
 21
61.401917
  0
LINE
  8
0
 62
     1
 10
-393.750000
 20
58.082520
 11
-398.386292
 21
58.082520
  0
LINE
  8
0
 62
     4
 10
-393.750000
 20
57.500000
 11
-398.049988
 21
57.500000
  0
LINE
  8
0
 62
     4
 10
-386.598511
 20
74.969666
 11
-392.901489
 21
74.969666
  0
LINE
  8
0
 62
     4
 10
-386.598511
 20
69.484802
 11
-392.901489
 21
69.484802
  0
LINE
  8
0
 62
     4
 10
-386.598511
 20
58.515167
 11
-392.901489
 21
58.515167
  0
LINE
  8
0
 62
     4
 10
-385.749939
 20
73.499985
 11
-386.598450
 21
74.969650
  0
LINE
  8
0
 62
     4
 10
-385.750488
 20
54.500191
 11
-386.598999
 21
53.030525
  0
LINE
  8
0
 62
     4
 10
-386.598511
 20
53.030334
 11
-392.901489
 21
53.030334
  0
LINE
  8
0
 62
     4
 10
-393.750031
 20
54.499943
 11
-392.901520
 21
53.030273
  0
LINE
  8
0
 62
     4
 10
-393.750000
 20
73.499985
 11
-393.750000
 21
54.500000
  0
LINE
  8
0
 62
     4
 10
-393.750122
 20
73.500122
 11
-392.901611
 21
74.969788
  0
LINE
  8
0
 10
-367.750000
 20
79.300003
 11
-367.750000
 21
48.699989
  0
LINE
  8
0
 10
-364.750000
 20
48.000000
 11
-367.050049
 21
48.000000
  0
LINE
  8
0
 10
-364.750000
 20
80.000000
 11
-367.050049
 21
80.000000
  0
LINE
  8
0
 10
-367.050049
 20
80.000000
 11
-367.050049
 21
47.999992
  0
LINE
  8
0
 10
-367.049988
 20
47.999977
 11
-367.750031
 21
48.700005
  0
LINE
  8
0
 10
-367.050110
 20
80.000153
 11
-367.750214
 21
79.300117
  0
LINE
  8
0
 10
-231.750000
 20
84.799988
 11
-231.750000
 21
43.200012
  0
LINE
  8
0
 10
-340.316986
 20
131.000061
 11
-364.750000
 21
131.000061
  0
LINE
  8
0
 10
-340.317200
 20
-3.000000
 11
-364.750000
 21
-3.000000
  0
LINE
  8
0
 10
-274.750000
 20
84.799988
 11
-299.750000
 21
84.799988
  0
LINE
  8
0
 10
-250.750000
 20
43.200012
 11
-299.750000
 21
43.200012
  0
LINE
  8
0
 62
     4
 10
-275.250000
 20
89.000000
 11
-266.250000
 21
89.000000
  0
LINE
  8
0
 62
     4
 10
-272.750000
 20
92.500000
 11
-268.750000
 21
92.500000
  0
LINE
  8
0
 62
     4
 10
-273.000000
 20
94.999992
 11
-268.500000
 21
94.999992
  0
LINE
  8
0
 62
     4
 10
-275.750000
 20
95.999992
 11
-273.000000
 21
95.999992
  0
LINE
  8
0
 62
     4
 10
-275.750000
 20
89.500000
 11
-275.750000
 21
95.999992
  0
LINE
  8
0
 62
     4
 10
-265.750000
 20
89.500000
 11
-265.750000
 21
95.999992
  0
LINE
  8
0
 62
     4
 10
-272.750000
 20
94.999992
 11
-272.750000
 21
92.500000
  0
LINE
  8
0
 62
     4
 10
-268.750000
 20
94.999992
 11
-268.750000
 21
92.500000
  0
LINE
  8
0
 62
     4
 10
-273.000000
 20
95.999992
 11
-273.000000
 21
94.385490
  0
LINE
  8
0
 62
     4
 10
-268.500000
 20
95.999992
 11
-268.500000
 21
94.385490
  0
LINE
  8
0
 62
     4
 10
-268.500000
 20
95.999992
 11
-265.750000
 21
95.999992
  0
LINE
  8
0
 62
     4
 10
-273.176727
 20
93.999992
 11
-272.750000
 21
93.999992
  0
LINE
  8
0
 62
     4
 10
-268.750000
 20
93.999992
 11
-268.323303
 21
93.999992
  0
LINE
  8
0
 62
     4
 10
-265.750000
 20
91.685486
 11
-259.750000
 21
91.685486
  0
LINE
  8
0
 62
     4
 10
-274.750000
 20
43.049988
 11
-266.750000
 21
43.049988
  0
LINE
  8
0
 62
     4
 10
-274.750000
 20
89.000000
 11
-274.750000
 21
43.049988
  0
LINE
  8
0
 62
     4
 10
-266.750000
 20
89.000000
 11
-266.750000
 21
43.049988
  0
LINE
  8
0
 62
     4
 10
-257.750000
 20
86.485504
 11
-252.750000
 21
86.485504
  0
LINE
  8
0
 62
     1
 10
-269.500000
 20
96.985497
 11
-269.500000
 21
94.999992
  0
LINE
  8
0
 62
     4
 10
-341.549988
 20
116.000000
 11
-341.549988
 21
124.000000
  0
LINE
  8
0
 62
     4
 10
-325.750000
 20
121.500000
 11
-326.250000
 21
121.500000
  0
LINE
  8
0
 62
     4
 10
-325.750000
 20
118.500000
 11
-326.250000
 21
118.500000
  0
LINE
  8
0
 62
     4
 10
-326.250000
 20
123.000000
 11
-340.750000
 21
123.000000
  0
LINE
  8
0
 62
     4
 10
-326.250000
 20
117.000000
 11
-340.750000
 21
117.000000
  0
LINE
  8
0
 62
     4
 10
-312.750000
 20
124.000000
 11
-341.549988
 21
124.000000
  0
LINE
  8
0
 62
     4
 10
-312.750000
 20
116.000000
 11
-341.549988
 21
116.000000
  0
LINE
  8
0
 62
     4
 10
-312.750000
 20
116.000000
 11
-312.750000
 21
124.000000
  0
LINE
  8
0
 62
     4
 10
-324.750000
 20
116.000000
 11
-324.750000
 21
124.000000
  0
LINE
  8
0
 62
     4
 10
-326.250000
 20
117.000000
 11
-326.250000
 21
123.000000
  0
LINE
  8
0
 62
     4
 10
-325.750000
 20
118.500000
 11
-325.750000
 21
121.500000
  0
LINE
  8
0
 62
     4
 10
-340.750000
 20
117.000000
 11
-340.750000
 21
123.000000
  0
LINE
  8
0
 62
     4
 10
-330.810669
 20
118.939308
 11
-328.689331
 21
121.060631
  0
LINE
  8
0
 62
     4
 10
-328.689362
 20
118.939316
 11
-330.810699
 21
121.060638
  0
LINE
  8
0
 62
     4
 10
-340.750000
 20
130.250000
 11
-340.750000
 21
124.000000
  0
LINE
  8
0
 62
     4
 10
-337.616028
 20
131.750000
 11
-339.883972
 21
131.750000
  0
LINE
  8
0
 62
     4
 10
-340.749939
 20
130.249954
 11
-339.883911
 21
131.749954
  0
LINE
  8
0
 62
     4
 10
-336.749939
 20
130.250046
 11
-337.615967
 21
131.750046
  0
LINE
  8
0
 62
     4
 10
-336.750000
 20
130.250000
 11
-336.750000
 21
124.000000
  0
LINE
  8
0
 62
     4
 10
-336.750000
 20
130.250000
 11
-340.750000
 21
130.250000
  0
LINE
  8
0
 62
     4
 10
-336.750000
 20
109.750000
 11
-340.750000
 21
109.750000
  0
LINE
  8
0
 62
     4
 10
-337.250000
 20
108.750000
 11
-340.250000
 21
108.750000
  0
LINE
  8
0
 62
     4
 10
-340.250000
 20
108.750000
 11
-340.250000
 21
103.750000
  0
LINE
  8
0
 62
     4
 10
-337.250000
 20
108.750000
 11
-337.250000
 21
103.750000
  0
LINE
  8
0
 62
     4
 10
-336.750092
 20
109.750038
 11
-337.250092
 21
108.750031
  0
LINE
  8
0
 62
     4
 10
-340.749908
 20
109.750015
 11
-340.249908
 21
108.750023
  0
LINE
  8
0
 62
     4
 10
-340.750000
 20
116.000000
 11
-340.750000
 21
109.750000
  0
LINE
  8
0
 62
     4
 10
-336.750000
 20
116.000000
 11
-336.750000
 21
109.750000
  0
LINE
  8
0
 62
     4
 10
-336.750000
 20
-2.250000
 11
-340.750000
 21
-2.250000
  0
LINE
  8
0
 62
     4
 10
-336.750000
 20
18.250000
 11
-340.750000
 21
18.250000
  0
LINE
  8
0
 62
     4
 10
-337.250000
 20
19.250000
 11
-340.250000
 21
19.250000
  0
LINE
  8
0
 62
     4
 10
-336.750000
 20
12.000000
 11
-336.750000
 21
18.250000
  0
LINE
  8
0
 62
     4
 10
-340.750000
 20
12.000000
 11
-340.750000
 21
18.250000
  0
LINE
  8
0
 62
     4
 10
-340.749908
 20
18.249992
 11
-340.249908
 21
19.249985
  0
LINE
  8
0
 62
     4
 10
-336.750000
 20
18.249966
 11
-337.250000
 21
19.249975
  0
LINE
  8
0
 62
     4
 10
-337.250000
 20
19.250000
 11
-337.250000
 21
24.250000
  0
LINE
  8
0
 62
     4
 10
-340.250000
 20
19.250000
 11
-340.250000
 21
24.250000
  0
LINE
  8
0
 62
     4
 10
-336.750000
 20
-2.250000
 11
-336.750000
 21
4.000000
  0
LINE
  8
0
 62
     4
 10
-341.549988
 20
12.000000
 11
-341.549988
 21
4.000000
  0
LINE
  8
0
 62
     4
 10
-325.750000
 20
6.500000
 11
-326.250000
 21
6.500000
  0
LINE
  8
0
 62
     4
 10
-325.750000
 20
9.500000
 11
-326.250000
 21
9.500000
  0
LINE
  8
0
 62
     4
 10
-326.250000
 20
5.000000
 11
-340.750000
 21
5.000000
  0
LINE
  8
0
 62
     4
 10
-326.250000
 20
11.000000
 11
-340.750000
 21
11.000000
  0
LINE
  8
0
 62
     4
 10
-312.750000
 20
4.000000
 11
-341.549988
 21
4.000000
  0
LINE
  8
0
 62
     4
 10
-312.750000
 20
12.000000
 11
-341.549988
 21
12.000000
  0
LINE
  8
0
 62
     4
 10
-312.750000
 20
12.000000
 11
-312.750000
 21
4.000000
  0
LINE
  8
0
 62
     4
 10
-324.750000
 20
12.000000
 11
-324.750000
 21
4.000000
  0
LINE
  8
0
 62
     4
 10
-326.250000
 20
11.000000
 11
-326.250000
 21
5.000000
  0
LINE
  8
0
 62
     4
 10
-325.750000
 20
9.500000
 11
-325.750000
 21
6.500000
  0
LINE
  8
0
 62
     4
 10
-340.750000
 20
11.000000
 11
-340.750000
 21
5.000000
  0
LINE
  8
0
 62
     4
 10
-330.810638
 20
9.060669
 11
-328.689331
 21
6.939348
  0
LINE
  8
0
 62
     4
 10
-328.689331
 20
9.060658
 11
-330.810669
 21
6.939338
  0
LINE
  8
0
 62
     4
 10
-340.750000
 20
-2.250000
 11
-340.750000
 21
4.000000
  0
LINE
  8
0
 62
     4
 10
-337.616028
 20
-3.750000
 11
-339.883972
 21
-3.750000
  0
LINE
  8
0
 62
     4
 10
-340.750275
 20
-2.250125
 11
-339.884247
 21
-3.750128
  0
LINE
  8
0
 62
     4
 10
-336.750122
 20
-2.249973
 11
-337.616150
 21
-3.749976
  0
LINE
  8
0
 62
     4
 10
-257.750000
 20
89.885498
 11
-252.750000
 21
89.885498
  0
LINE
  8
0
 62
     4
 10
-266.750000
 20
85.185486
 11
-259.750000
 21
85.185486
  0
LINE
  8
0
 62
     4
 10
-244.149994
 20
31.014503
 11
-249.349991
 21
31.014503
  0
LINE
  8
0
 62
     4
 10
-244.949997
 20
29.014503
 11
-246.449997
 21
29.014503
  0
LINE
  8
0
 62
     4
 10
-249.349991
 20
29.814507
 11
-249.349991
 21
31.014503
  0
LINE
  8
0
 62
     4
 10
-244.149994
 20
29.814507
 11
-244.149994
 21
31.014503
  0
LINE
  8
0
 62
     4
 10
-246.449997
 20
30.014503
 11
-246.449997
 21
29.014503
  0
LINE
  8
0
 62
     4
 10
-247.050003
 20
30.014503
 11
-247.050003
 21
29.014503
  0
LINE
  8
0
 62
     4
 10
-246.449997
 20
30.014503
 11
-247.050003
 21
30.014503
  0
LINE
  8
0
 62
     4
 10
-247.050003
 20
29.014503
 11
-248.549988
 21
29.014503
  0
LINE
  8
0
 62
     4
 10
-235.750000
 20
36.314514
 11
-241.750000
 21
36.314514
  0
LINE
  8
0
 62
     4
 10
-257.750000
 20
36.314514
 11
-257.750000
 21
43.200012
  0
LINE
  8
0
 62
     4
 10
-235.750000
 20
36.314514
 11
-235.750000
 21
43.200012
  0
LINE
  8
0
 62
     4
 10
-235.750000
 20
42.814514
 11
-242.750000
 21
42.814514
  0
LINE
  8
0
 62
     4
 10
-237.250000
 20
36.314514
 11
-237.250000
 21
35.814514
  0
LINE
  8
0
 62
     4
 10
-241.250000
 20
36.314514
 11
-241.250000
 21
35.814514
  0
LINE
  8
0
 62
     4
 10
-237.250000
 20
35.814514
 11
-241.250000
 21
35.814514
  0
LINE
  8
0
 62
     4
 10
-241.207764
 20
35.741398
 11
-241.249969
 21
35.814510
  0
LINE
  8
0
 62
     4
 10
-237.292160
 20
35.741364
 11
-237.249939
 21
35.814491
  0
LINE
  8
0
 62
     4
 10
-257.750000
 20
37.314514
 11
-259.750000
 21
37.314514
  0
LINE
  8
0
 62
     4
 10
-257.750000
 20
42.314514
 11
-259.750000
 21
42.314514
  0
LINE
  8
0
 62
     4
 10
-259.750000
 20
37.314514
 11
-259.750000
 21
42.314514
  0
LINE
  8
0
 62
     4
 10
-248.250000
 20
31.014503
 11
-248.250000
 21
32.000008
  0
LINE
  8
0
 62
     4
 10
-245.250000
 20
31.014503
 11
-245.250000
 21
32.000008
  0
LINE
  8
0
 62
     1
 10
-245.500000
 20
31.014503
 11
-245.500000
 21
32.000008
  0
LINE
  8
0
 62
     1
 10
-248.000000
 20
31.014503
 11
-248.000000
 21
32.000008
  0
LINE
  8
0
 62
     4
 10
-242.250000
 20
39.000000
 11
-251.250000
 21
39.000000
  0
LINE
  8
0
 62
     4
 10
-241.750000
 20
38.500000
 11
-241.750000
 21
32.000008
  0
LINE
  8
0
 62
     4
 10
-251.750000
 20
38.500000
 11
-251.750000
 21
32.000008
  0
LINE
  8
0
 62
     4
 10
-241.750000
 20
32.000008
 11
-251.750000
 21
32.000008
  0
LINE
  8
0
 62
     4
 10
-251.750000
 20
36.314514
 11
-257.750000
 21
36.314514
  0
LINE
  8
0
 62
     4
 10
-242.750000
 20
84.950012
 11
-250.750000
 21
84.950012
  0
LINE
  8
0
 62
     4
 10
-242.750000
 20
39.000000
 11
-242.750000
 21
84.950012
  0
LINE
  8
0
 62
     4
 10
-250.750000
 20
39.000000
 11
-250.750000
 21
84.950012
  0
LINE
  8
0
 62
     4
 10
-250.750000
 20
42.814514
 11
-257.750000
 21
42.814514
  0
LINE
  8
0
 62
     4
 10
-259.750000
 20
38.114502
 11
-264.750000
 21
38.114502
  0
LINE
  8
0
 62
     4
 10
-259.750000
 20
41.514496
 11
-264.750000
 21
41.514496
  0
LINE
  8
0
 62
     4
 10
-273.350006
 20
96.985497
 11
-268.150024
 21
96.985497
  0
LINE
  8
0
 62
     4
 10
-272.549988
 20
98.985497
 11
-271.049988
 21
98.985497
  0
LINE
  8
0
 62
     4
 10
-268.150024
 20
98.185493
 11
-268.150024
 21
96.985497
  0
LINE
  8
0
 62
     4
 10
-273.350006
 20
98.185493
 11
-273.350006
 21
96.985497
  0
LINE
  8
0
 62
     4
 10
-271.049988
 20
97.985497
 11
-271.049988
 21
98.985497
  0
LINE
  8
0
 62
     4
 10
-270.450012
 20
97.985497
 11
-270.450012
 21
98.985497
  0
LINE
  8
0
 62
     4
 10
-271.049988
 20
97.985497
 11
-270.450012
 21
97.985497
  0
LINE
  8
0
 62
     4
 10
-270.450012
 20
98.985497
 11
-268.950012
 21
98.985497
  0
LINE
  8
0
 62
     4
 10
-281.750000
 20
91.685486
 11
-275.750000
 21
91.685486
  0
LINE
  8
0
 62
     4
 10
-259.750000
 20
91.685486
 11
-259.750000
 21
84.799988
  0
LINE
  8
0
 62
     4
 10
-281.750000
 20
91.685486
 11
-281.750000
 21
84.799988
  0
LINE
  8
0
 62
     4
 10
-281.750000
 20
85.185486
 11
-274.750000
 21
85.185486
  0
LINE
  8
0
 62
     4
 10
-280.250000
 20
91.685486
 11
-280.250000
 21
92.185486
  0
LINE
  8
0
 62
     4
 10
-276.250000
 20
91.685486
 11
-276.250000
 21
92.185486
  0
LINE
  8
0
 62
     4
 10
-280.250000
 20
92.185486
 11
-276.250000
 21
92.185486
  0
LINE
  8
0
 62
     4
 10
-276.292267
 20
92.258606
 11
-276.250031
 21
92.185493
  0
LINE
  8
0
 62
     4
 10
-280.207703
 20
92.258583
 11
-280.249908
 21
92.185455
  0
LINE
  8
0
 62
     4
 10
-259.750000
 20
90.685486
 11
-257.750000
 21
90.685486
  0
LINE
  8
0
 62
     4
 10
-259.750000
 20
85.685486
 11
-257.750000
 21
85.685486
  0
LINE
  8
0
 62
     4
 10
-257.750000
 20
90.685486
 11
-257.750000
 21
85.685486
  0
LINE
  8
0
 62
     4
 10
-269.250000
 20
96.985497
 11
-269.250000
 21
94.999992
  0
LINE
  8
0
 62
     4
 10
-272.250000
 20
96.985497
 11
-272.250000
 21
94.999992
  0
LINE
  8
0
 62
     1
 10
-272.000000
 20
96.985497
 11
-272.000000
 21
94.999992
  0
LINE
  8
0
  6
CENTER
 62
     2
 10
-503.416626
 20
142.382980
 11
-503.416626
 21
-14.117813
  0
LINE
  8
0
  6
CENTER
 62
     2
 10
-537.645752
 20
64.000000
 11
-470.239746
 21
64.000000
  0
LINE
  8
0
 10
-530.416626
 20
131.000046
 11
-530.416626
 21
-3.000015
  0
LINE
  8
0
 10
-476.416626
 20
131.000046
 11
-476.416626
 21
-3.000015
  0
LINE
  8
0
 10
-530.416748
 20
-3.000000
 11
-476.416626
 21
-3.000000
  0
LINE
  8
0
 10
-530.416748
 20
131.000061
 11
-476.416626
 21
131.000061
  0
LINE
  8
0
 10
-529.916626
 20
132.200027
 11
-529.916626
 21
131.000031
  0
LINE
  8
0
 10
-476.916748
 20
132.200027
 11
-476.916748
 21
131.000031
  0
LINE
  8
0
 10
-529.916626
 20
132.200012
 11
-476.916748
 21
132.200012
  0
LINE
  8
0
 10
-528.863525
 20
139.000000
 11
-477.969727
 21
139.000000
  0
LINE
  8
0
 10
-529.741699
 20
134.200043
 11
-518.649658
 21
134.200043
  0
LINE
  8
0
 10
-488.183594
 20
134.200043
 11
-477.091675
 21
134.200043
  0
LINE
  8
0
 10
-529.916382
 20
132.199921
 11
-529.361328
 21
138.543503
  0
LINE
  8
0
 10
-517.853699
 20
134.930374
 11
-517.593445
 21
137.904724
  0
LINE
  8
0
 10
-488.981506
 20
134.930252
 11
-489.241760
 21
137.904541
  0
LINE
  8
0
 10
-476.916351
 20
132.200027
 11
-477.471405
 21
138.543594
  0
LINE
  8
0
 10
-518.666626
 20
136.674057
 11
-518.666626
 21
135.500031
  0
LINE
  8
0
 10
-528.166748
 20
136.674057
 11
-528.166748
 21
135.500031
  0
LINE
  8
0
 10
-518.666626
 20
135.500000
 11
-528.166748
 21
135.500000
  0
LINE
  8
0
 10
-518.916626
 20
135.500031
 11
-518.916626
 21
134.200027
  0
LINE
  8
0
 10
-527.916626
 20
135.500031
 11
-527.916626
 21
134.200027
  0
LINE
  8
0
 10
-478.666626
 20
136.674057
 11
-478.666626
 21
135.500031
  0
LINE
  8
0
 10
-488.166748
 20
136.674057
 11
-488.166748
 21
135.500031
  0
LINE
  8
0
 10
-478.666748
 20
135.500000
 11
-488.166748
 21
135.500000
  0
LINE
  8
0
 10
-478.916626
 20
135.500031
 11
-478.916626
 21
134.200027
  0
LINE
  8
0
 10
-487.916626
 20
135.500031
 11
-487.916626
 21
134.200027
  0
LINE
  8
0
 10
-529.916626
 20
-4.200005
 11
-529.916626
 21
-3.000015
  0
LINE
  8
0
 10
-476.916748
 20
-4.200005
 11
-476.916748
 21
-3.000015
  0
LINE
  8
0
 10
-529.916626
 20
-4.200012
 11
-476.916748
 21
-4.200012
  0
LINE
  8
0
 10
-528.863525
 20
-11.000000
 11
-477.969727
 21
-11.000000
  0
LINE
  8
0
 10
-529.741699
 20
-6.200012
 11
-518.649658
 21
-6.200012
  0
LINE
  8
0
 10
-488.183594
 20
-6.200012
 11
-477.091675
 21
-6.200012
  0
LINE
  8
0
 10
-529.916382
 20
-4.199990
 11
-529.361450
 21
-10.543562
  0
LINE
  8
0
 10
-517.853027
 20
-6.930316
 11
-517.592773
 21
-9.904624
  0
LINE
  8
0
 10
-488.980560
 20
-6.930311
 11
-489.240692
 21
-9.904630
  0
LINE
  8
0
 10
-476.916870
 20
-4.199997
 11
-477.471924
 21
-10.543589
  0
LINE
  8
0
 10
-518.666626
 20
-8.674026
 11
-518.666626
 21
-7.500008
  0
LINE
  8
0
 10
-528.166748
 20
-8.674026
 11
-528.166748
 21
-7.500008
  0
LINE
  8
0
 10
-518.666626
 20
-7.500000
 11
-528.166748
 21
-7.500000
  0
LINE
  8
0
 10
-518.916626
 20
-7.500008
 11
-518.916626
 21
-6.200012
  0
LINE
  8
0
 10
-527.916626
 20
-7.500008
 11
-527.916626
 21
-6.200012
  0
LINE
  8
0
 10
-478.666626
 20
-8.674026
 11
-478.666626
 21
-7.500008
  0
LINE
  8
0
 10
-488.166748
 20
-8.674026
 11
-488.166748
 21
-7.500008
  0
LINE
  8
0
 10
-478.666748
 20
-7.500000
 11
-488.166748
 21
-7.500000
  0
LINE
  8
0
 10
-478.916626
 20
-7.500008
 11
-478.916626
 21
-6.200012
  0
LINE
  8
0
 10
-487.916626
 20
-7.500008
 11
-487.916626
 21
-6.200012
  0
LINE
  8
0
 10
-495.416748
 20
-16.000000
 11
-482.416626
 21
-16.000000
  0
LINE
  8
0
 10
-492.416626
 20
-20.500000
 11
-485.416626
 21
-20.500000
  0
LINE
  8
0
 10
-484.916626
 20
-20.000008
 11
-484.916626
 21
-16.000008
  0
LINE
  8
0
 10
-492.916748
 20
-20.000008
 11
-492.916748
 21
-16.000008
  0
LINE
  8
0
 10
-492.916290
 20
-19.999882
 11
-492.416412
 21
-20.499880
  0
LINE
  8
0
 10
-484.916504
 20
-20.000193
 11
-485.416473
 21
-20.500185
  0
LINE
  8
0
 10
-492.916748
 20
-20.000000
 11
-484.916626
 21
-20.000000
  0
LINE
  8
0
 62
     2
 10
-492.240234
 20
-20.500015
 11
-492.240234
 21
-16.000008
  0
LINE
  8
0
 62
     2
 10
-485.593140
 20
-20.500015
 11
-485.593140
 21
-16.000008
  0
LINE
  8
0
 10
-482.416626
 20
-11.000008
 11
-482.416626
 21
-16.000008
  0
LINE
  8
0
 10
-495.416748
 20
-11.000008
 11
-495.416748
 21
-16.000008
  0
LINE
  8
0
 10
-488.916626
 20
-11.580566
 11
-488.916626
 21
-15.419456
  0
LINE
  8
0
 10
-495.416748
 20
144.000000
 11
-482.416626
 21
144.000000
  0
LINE
  8
0
 10
-492.416626
 20
148.500061
 11
-485.416626
 21
148.500061
  0
LINE
  8
0
 10
-484.916626
 20
148.000031
 11
-484.916626
 21
144.000031
  0
LINE
  8
0
 10
-492.916748
 20
148.000031
 11
-492.916748
 21
144.000031
  0
LINE
  8
0
 10
-492.916473
 20
147.999878
 11
-492.416473
 21
148.499847
  0
LINE
  8
0
 10
-484.916382
 20
148.000046
 11
-485.416412
 21
148.500015
  0
LINE
  8
0
 10
-492.916748
 20
148.000031
 11
-484.916626
 21
148.000031
  0
LINE
  8
0
 62
     2
 10
-492.240234
 20
148.500015
 11
-492.240234
 21
144.000031
  0
LINE
  8
0
 62
     2
 10
-485.593140
 20
148.500015
 11
-485.593140
 21
144.000031
  0
LINE
  8
0
 10
-482.416626
 20
139.000031
 11
-482.416626
 21
144.000031
  0
LINE
  8
0
 10
-495.416748
 20
139.000031
 11
-495.416748
 21
144.000031
  0
LINE
  8
0
 10
-488.916626
 20
139.580582
 11
-488.916626
 21
143.419495
  0
LINE
  8
0
  6
CENTER
 62
     2
 10
-479.916748
 20
83.000031
 11
-488.916626
 21
83.000031
  0
LINE
  8
0
  6
CENTER
 62
     2
 10
-479.916626
 20
45.000000
 11
-488.916626
 21
45.000000
  0
LINE
  8
0
  6
CENTER
 62
     2
 10
-517.916626
 20
45.000000
 11
-526.916626
 21
45.000000
  0
LINE
  8
0
  6
CENTER
 62
     2
 10
-517.916626
 20
83.000000
 11
-526.916626
 21
83.000000
  0
LINE
  8
0
  6
CENTER
 62
     2
 10
-484.416748
 20
87.498657
 11
-484.416748
 21
78.867477
  0
LINE
  8
0
  6
CENTER
 62
     2
 10
-522.416626
 20
87.498657
 11
-522.416626
 21
78.414101
  0
LINE
  8
0
  6
CENTER
 62
     2
 10
-522.416626
 20
49.499989
 11
-522.416626
 21
40.500004
  0
LINE
  8
0
  6
CENTER
 62
     2
 10
-484.416626
 20
49.500000
 11
-484.416626
 21
40.500015
  0
LINE
  8
0
 62
     4
 10
-503.416687
 20
74.969734
 11
-512.916748
 21
69.484894
  0
LINE
  8
0
 62
     4
 10
-493.916748
 20
58.515202
 11
-503.416748
 21
53.030373
  0
LINE
  8
0
 62
     4
 10
-493.916595
 20
69.484863
 11
-503.416595
 21
74.969711
  0
LINE
  8
0
 62
     4
 10
-503.416595
 20
53.030342
 11
-512.916748
 21
58.515198
  0
LINE
  8
0
 62
     4
 10
-493.916626
 20
69.484825
 11
-493.916626
 21
58.515152
  0
LINE
  8
0
 62
     4
 10
-512.916626
 20
69.484833
 11
-512.916626
 21
58.515152
  0
LINE
  8
0
 62
     4
 10
-469.444794
 20
122.800003
 11
-470.416626
 21
122.800003
  0
LINE
  8
0
 62
     4
 10
-469.444794
 20
117.199997
 11
-470.416626
 21
117.199997
  0
LINE
  8
0
 62
     4
 10
-475.916626
 20
124.000000
 11
-470.416626
 21
124.000000
  0
LINE
  8
0
 62
     4
 10
-475.916626
 20
116.000000
 11
-470.416626
 21
116.000000
  0
LINE
  8
0
 62
     4
 10
-475.916626
 20
124.000000
 11
-475.916626
 21
116.000000
  0
LINE
  8
0
 62
     4
 10
-470.416626
 20
124.000000
 11
-470.416626
 21
116.000000
  0
LINE
  8
0
 62
     4
 10
-473.282654
 20
131.750000
 11
-475.550598
 21
131.750000
  0
LINE
  8
0
 62
     4
 10
-476.416565
 20
130.249985
 11
-475.550537
 21
131.750000
  0
LINE
  8
0
 62
     4
 10
-472.416534
 20
130.250061
 11
-473.282562
 21
131.750076
  0
LINE
  8
0
 62
     4
 10
-472.416626
 20
130.250000
 11
-472.416626
 21
124.000000
  0
LINE
  8
0
 62
     4
 10
-472.416626
 20
130.250000
 11
-476.416626
 21
130.250000
  0
LINE
  8
0
 62
     4
 10
-472.416626
 20
109.750000
 11
-476.416626
 21
109.750000
  0
LINE
  8
0
 62
     4
 10
-472.916626
 20
108.750000
 11
-475.916626
 21
108.750000
  0
LINE
  8
0
 62
     4
 10
-475.916626
 20
108.750000
 11
-475.916626
 21
103.750000
  0
LINE
  8
0
 62
     4
 10
-472.916626
 20
108.750000
 11
-472.916626
 21
103.750000
  0
LINE
  8
0
 62
     4
 10
-472.416779
 20
109.750092
 11
-472.916779
 21
108.750084
  0
LINE
  8
0
 62
     4
 10
-476.416504
 20
109.750031
 11
-475.916504
 21
108.750053
  0
LINE
  8
0
 62
     4
 10
-476.416626
 20
130.250000
 11
-476.416626
 21
109.750000
  0
LINE
  8
0
 62
     4
 10
-472.416626
 20
116.000000
 11
-472.416626
 21
109.750000
  0
LINE
  8
0
 62
     4
 10
-472.416626
 20
18.249983
 11
-472.916626
 21
19.249992
  0
LINE
  8
0
 62
     4
 10
-472.916626
 20
19.250000
 11
-472.916626
 21
24.250000
  0
LINE
  8
0
 62
     4
 10
-475.916626
 20
19.250000
 11
-475.916626
 21
24.250000
  0
LINE
  8
0
 62
     4
 10
-472.916626
 20
19.250000
 11
-475.916626
 21
19.250000
  0
LINE
  8
0
 62
     4
 10
-472.416626
 20
18.250000
 11
-476.416626
 21
18.250000
  0
LINE
  8
0
 62
     4
 10
-472.416626
 20
-2.250000
 11
-476.416626
 21
-2.250000
  0
LINE
  8
0
 62
     4
 10
-472.416626
 20
12.000000
 11
-472.416626
 21
18.250000
  0
LINE
  8
0
 62
     4
 10
-476.416473
 20
18.249981
 11
-475.916504
 21
19.249973
  0
LINE
  8
0
 62
     4
 10
-469.444794
 20
5.199997
 11
-470.416626
 21
5.199997
  0
LINE
  8
0
 62
     4
 10
-469.444794
 20
10.800003
 11
-470.416626
 21
10.800003
  0
LINE
  8
0
 62
     4
 10
-475.916626
 20
4.000000
 11
-470.416626
 21
4.000000
  0
LINE
  8
0
 62
     4
 10
-475.916626
 20
12.000000
 11
-470.416626
 21
12.000000
  0
LINE
  8
0
 62
     4
 10
-475.916626
 20
4.000000
 11
-475.916626
 21
12.000000
  0
LINE
  8
0
 62
     4
 10
-470.416626
 20
4.000000
 11
-470.416626
 21
12.000000
  0
LINE
  8
0
 62
     4
 10
-476.416626
 20
-2.250000
 11
-476.416626
 21
18.250000
  0
LINE
  8
0
 62
     4
 10
-473.282654
 20
-3.750000
 11
-475.550598
 21
-3.750000
  0
LINE
  8
0
 62
     4
 10
-476.416565
 20
-2.249959
 11
-475.550537
 21
-3.749964
  0
LINE
  8
0
 62
     4
 10
-472.416534
 20
-2.250041
 11
-473.282562
 21
-3.750046
  0
LINE
  8
0
 62
     4
 10
-472.416626
 20
-2.250000
 11
-472.416626
 21
4.000000
  0
LINE
  8
0
  6
CENTER
 62
     2
 10
-110.083374
 20
142.575531
 11
-110.083374
 21
-14.319054
  0
LINE
  8
0
  6
CENTER
 62
     2
 10
-75.854248
 20
64.000000
 11
-143.260315
 21
64.000000
  0
LINE
  8
0
 10
-83.083313
 20
131.000015
 11
-83.083313
 21
-3.000015
  0
LINE
  8
0
 10
-137.083374
 20
131.000015
 11
-137.083374
 21
130.249954
  0
LINE
  8
0
 10
-83.083313
 20
-3.000000
 11
-137.083313
 21
-3.000000
  0
LINE
  8
0
 10
-83.083313
 20
131.000000
 11
-137.083313
 21
131.000000
  0
LINE
  8
0
  6
CENTER
 62
     2
 10
-112.083313
 20
124.500000
 11
-126.083313
 21
124.500000
  0
LINE
  8
0
  6
CENTER
 62
     2
 10
-119.083313
 20
131.500000
 11
-119.083313
 21
117.499977
  0
LINE
  8
0
  6
CENTER
 62
     2
 10
-112.083313
 20
3.500000
 11
-126.083313
 21
3.500000
  0
LINE
  8
0
  6
CENTER
 62
     2
 10
-119.083313
 20
-3.241989
 11
-119.083313
 21
10.582123
  0
LINE
  8
0
 10
-83.583374
 20
132.199997
 11
-83.583374
 21
131.000015
  0
LINE
  8
0
 10
-136.583313
 20
132.199997
 11
-136.583313
 21
131.000015
  0
LINE
  8
0
 10
-83.583374
 20
132.200012
 11
-136.583313
 21
132.200012
  0
LINE
  8
0
 10
-84.636414
 20
139.000000
 11
-135.530273
 21
139.000000
  0
LINE
  8
0
 10
-83.758301
 20
134.200012
 11
-94.850220
 21
134.200012
  0
LINE
  8
0
 10
-125.316406
 20
134.200012
 11
-136.408325
 21
134.200012
  0
LINE
  8
0
 10
-83.583603
 20
132.199951
 11
-84.138596
 21
138.543518
  0
LINE
  8
0
 10
-95.646660
 20
134.930359
 11
-95.906914
 21
137.904678
  0
LINE
  8
0
 10
-124.519218
 20
134.930298
 11
-124.258965
 21
137.904617
  0
LINE
  8
0
 10
-136.583557
 20
132.200043
 11
-136.028503
 21
138.543625
  0
LINE
  8
0
 10
-94.833374
 20
136.674026
 11
-94.833374
 21
135.500015
  0
LINE
  8
0
 10
-85.333313
 20
136.674026
 11
-85.333313
 21
135.500015
  0
LINE
  8
0
 10
-94.833374
 20
135.500000
 11
-85.333313
 21
135.500000
  0
LINE
  8
0
 10
-94.583374
 20
135.500015
 11
-94.583374
 21
134.200012
  0
LINE
  8
0
 10
-85.583313
 20
135.500015
 11
-85.583313
 21
134.200012
  0
LINE
  8
0
 10
-134.833374
 20
136.674026
 11
-134.833374
 21
135.500015
  0
LINE
  8
0
 10
-125.333313
 20
136.674026
 11
-125.333313
 21
135.500015
  0
LINE
  8
0
 10
-134.833313
 20
135.500000
 11
-125.333313
 21
135.500000
  0
LINE
  8
0
 10
-134.583374
 20
135.500015
 11
-134.583374
 21
134.200012
  0
LINE
  8
0
 10
-125.583313
 20
135.500015
 11
-125.583313
 21
134.200012
  0
LINE
  8
0
 10
-83.583374
 20
-4.200012
 11
-83.583374
 21
-3.000015
  0
LINE
  8
0
 10
-136.583313
 20
-4.200012
 11
-136.583313
 21
-3.000015
  0
LINE
  8
0
 10
-83.583374
 20
-4.200012
 11
-136.583313
 21
-4.200012
  0
LINE
  8
0
 10
-84.636414
 20
-11.000000
 11
-135.530273
 21
-11.000000
  0
LINE
  8
0
 10
-83.758301
 20
-6.200012
 11
-94.850220
 21
-6.200012
  0
LINE
  8
0
 10
-125.316406
 20
-6.200012
 11
-136.408325
 21
-6.200012
  0
LINE
  8
0
 10
-83.582939
 20
-4.200051
 11
-84.137993
 21
-10.543628
  0
LINE
  8
0
 10
-95.647018
 20
-6.930314
 11
-95.907211
 21
-9.904627
  0
LINE
  8
0
 10
-124.520004
 20
-6.930324
 11
-124.259804
 21
-9.904659
  0
LINE
  8
0
 10
-136.583054
 20
-4.199968
 11
-136.028000
 21
-10.543560
  0
LINE
  8
0
 10
-94.833374
 20
-8.674026
 11
-94.833374
 21
-7.500008
  0
LINE
  8
0
 10
-85.333313
 20
-8.674026
 11
-85.333313
 21
-7.500008
  0
LINE
  8
0
 10
-94.833374
 20
-7.500000
 11
-85.333313
 21
-7.500000
  0
LINE
  8
0
 10
-94.583374
 20
-7.500008
 11
-94.583374
 21
-6.200012
  0
LINE
  8
0
 10
-85.583313
 20
-7.500008
 11
-85.583313
 21
-6.200012
  0
LINE
  8
0
 10
-134.833374
 20
-8.674026
 11
-134.833374
 21
-7.500008
  0
LINE
  8
0
 10
-125.333313
 20
-8.674026
 11
-125.333313
 21
-7.500008
  0
LINE
  8
0
 10
-134.833313
 20
-7.500000
 11
-125.333313
 21
-7.500000
  0
LINE
  8
0
 10
-134.583374
 20
-7.500008
 11
-134.583374
 21
-6.200012
  0
LINE
  8
0
 10
-125.583313
 20
-7.500008
 11
-125.583313
 21
-6.200012
  0
LINE
  8
0
 10
-118.083313
 20
-16.000000
 11
-131.083374
 21
-16.000000
  0
LINE
  8
0
 10
-121.083374
 20
-20.500000
 11
-128.083374
 21
-20.500000
  0
LINE
  8
0
 10
-128.583374
 20
-20.000008
 11
-128.583374
 21
-16.000008
  0
LINE
  8
0
 10
-120.583313
 20
-20.000008
 11
-120.583313
 21
-16.000008
  0
LINE
  8
0
 10
-120.583580
 20
-19.999912
 11
-121.083511
 21
-20.499874
  0
LINE
  8
0
 10
-128.583572
 20
-20.000130
 11
-128.083511
 21
-20.500135
  0
LINE
  8
0
 10
-120.583313
 20
-20.000000
 11
-128.583374
 21
-20.000000
  0
LINE
  8
0
 62
     2
 10
-121.259827
 20
-20.500015
 11
-121.259827
 21
-16.000008
  0
LINE
  8
0
 62
     2
 10
-127.906860
 20
-20.500015
 11
-127.906860
 21
-16.000008
  0
LINE
  8
0
 10
-131.083374
 20
-11.000008
 11
-131.083374
 21
-16.000008
  0
LINE
  8
0
 10
-118.083313
 20
-11.000008
 11
-118.083313
 21
-16.000008
  0
LINE
  8
0
 10
-124.583374
 20
-11.580566
 11
-124.583374
 21
-15.419456
  0
LINE
  8
0
 10
-118.083313
 20
144.000000
 11
-131.083374
 21
144.000000
  0
LINE
  8
0
 10
-121.083374
 20
148.500000
 11
-128.083374
 21
148.500000
  0
LINE
  8
0
 10
-128.583374
 20
147.999985
 11
-128.583374
 21
144.000000
  0
LINE
  8
0
 10
-120.583313
 20
147.999985
 11
-120.583313
 21
144.000000
  0
LINE
  8
0
 10
-120.583618
 20
147.999832
 11
-121.083549
 21
148.499786
  0
LINE
  8
0
 10
-128.583237
 20
147.999863
 11
-128.083298
 21
148.499817
  0
LINE
  8
0
 10
-120.583313
 20
148.000000
 11
-128.583374
 21
148.000000
  0
LINE
  8
0
 62
     2
 10
-121.259827
 20
148.500000
 11
-121.259827
 21
144.000000
  0
LINE
  8
0
 62
     2
 10
-127.906860
 20
148.500000
 11
-127.906860
 21
144.000000
  0
LINE
  8
0
 10
-131.083374
 20
139.000000
 11
-131.083374
 21
144.000000
  0
LINE
  8
0
 10
-118.083313
 20
139.000000
 11
-118.083313
 21
144.000000
  0
LINE
  8
0
 10
-124.583374
 20
139.580566
 11
-124.583374
 21
143.419479
  0
LINE
  8
0
 10
-134.083313
 20
85.166016
 11
-134.083313
 21
42.834000
  0
LINE
  8
0
 10
-86.083374
 20
85.166016
 11
-86.083374
 21
42.834000
  0
LINE
  8
0
 10
-129.949341
 20
84.500000
 11
-128.217285
 21
84.500000
  0
LINE
  8
0
 10
-129.949341
 20
81.500000
 11
-128.217285
 21
81.500000
  0
LINE
  8
0
 10
-129.949158
 20
84.499840
 11
-130.815186
 21
82.999855
  0
LINE
  8
0
 10
-127.351059
 20
82.999901
 11
-128.217087
 21
81.499893
  0
LINE
  8
0
 10
-130.815659
 20
82.999855
 11
-129.949615
 21
81.499825
  0
LINE
  8
0
 10
-128.217575
 20
84.499832
 11
-127.351540
 21
82.999825
  0
LINE
  8
0
 10
-89.583374
 20
83.866035
 11
-89.583374
 21
82.133965
  0
LINE
  8
0
 10
-92.583374
 20
83.866035
 11
-92.583374
 21
82.133965
  0
LINE
  8
0
 10
-89.583328
 20
83.866302
 11
-91.083282
 21
84.732292
  0
LINE
  8
0
 10
-91.083221
 20
81.268196
 11
-92.583221
 21
82.134224
  0
LINE
  8
0
 10
-91.083450
 20
84.732147
 11
-92.583435
 21
83.866135
  0
LINE
  8
0
 10
-89.583473
 20
82.134109
 11
-91.083481
 21
81.268089
  0
LINE
  8
0
 10
-90.217285
 20
43.500000
 11
-91.949341
 21
43.500000
  0
LINE
  8
0
 10
-90.217285
 20
46.500000
 11
-91.949341
 21
46.500000
  0
LINE
  8
0
 10
-90.216988
 20
43.499817
 11
-89.350952
 21
44.999817
  0
LINE
  8
0
 10
-92.815079
 20
44.999886
 11
-91.949051
 21
46.499889
  0
LINE
  8
0
 10
-89.351143
 20
44.999992
 11
-90.217171
 21
46.500000
  0
LINE
  8
0
 10
-91.949196
 20
43.500053
 11
-92.815224
 21
45.000057
  0
LINE
  8
0
 10
-130.583374
 20
44.133972
 11
-130.583374
 21
45.866020
  0
LINE
  8
0
 10
-127.583374
 20
44.133972
 11
-127.583374
 21
45.866020
  0
LINE
  8
0
 10
-130.583191
 20
44.134483
 11
-129.083176
 21
43.268456
  0
LINE
  8
0
 10
-129.083069
 20
46.732555
 11
-127.583061
 21
45.866524
  0
LINE
  8
0
 10
-129.083359
 20
43.267952
 11
-127.583290
 21
44.134003
  0
LINE
  8
0
 10
-130.583328
 20
45.866039
 11
-129.083267
 21
46.732086
  0
LINE
  8
0
 10
-92.429993
 20
75.000000
 11
-127.736694
 21
75.000000
  0
LINE
  8
0
 10
-92.429993
 20
53.000000
 11
-127.736694
 21
53.000000
  0
LINE
  8
0
 10
-137.083374
 20
109.749954
 11
-137.083374
 21
18.250046
  0
LINE
  8
0
 10
-137.083374
 20
-2.249954
 11
-137.083374
 21
-3.000015
  0
LINE
  8
0
 62
     4
 10
-108.083405
 20
36.314514
 11
-108.083405
 21
35.814514
  0
LINE
  8
0
 62
     4
 10
-108.125580
 20
35.741402
 11
-108.083366
 21
35.814529
  0
LINE
  8
0
 62
     4
 10
-112.041153
 20
35.741421
 11
-112.083359
 21
35.814537
  0
LINE
  8
0
 62
     4
 10
-106.583405
 20
36.014511
 11
-106.583405
 21
42.814514
  0
LINE
  8
0
 62
     4
 10
-106.583405
 20
42.814503
 11
-107.083405
 21
43.314503
  0
LINE
  8
0
 62
     4
 10
-107.903961
 20
43.314514
 11
-107.083405
 21
43.314514
  0
LINE
  8
0
 62
     4
 10
-115.083405
 20
39.000015
 11
-115.083405
 21
34.200012
  0
LINE
  8
0
 62
     4
 10
-104.083405
 20
35.500015
 11
-104.083405
 21
34.200012
  0
LINE
  8
0
 62
     4
 10
-105.083405
 20
34.500015
 11
-105.083405
 21
35.500015
  0
LINE
  8
0
 62
     4
 10
-114.083405
 20
34.500015
 11
-114.083405
 21
39.000015
  0
LINE
  8
0
 62
     4
 10
-106.083405
 20
39.000015
 11
-106.083405
 21
33.500015
  0
LINE
  8
0
 62
     4
 10
-141.083374
 20
130.249954
 11
-141.083374
 21
123.999954
  0
LINE
  8
0
 62
     4
 10
-143.083374
 20
123.999954
 11
-143.083374
 21
115.999954
  0
LINE
  8
0
 62
     4
 10
-139.083374
 20
123.999954
 11
-139.083374
 21
115.999954
  0
LINE
  8
0
 62
     4
 10
-106.583344
 20
93.999985
 11
-107.483337
 21
93.999985
  0
LINE
  8
0
 62
     4
 10
-112.083405
 20
35.814514
 11
-108.083405
 21
35.814514
  0
LINE
  8
0
 62
     4
 10
-113.883408
 20
33.000015
 11
-106.583405
 21
33.000015
  0
LINE
  8
0
 62
     4
 10
-107.483398
 20
34.000015
 11
-106.083405
 21
34.000015
  0
LINE
  8
0
 62
     4
 10
-115.083405
 20
39.000015
 11
-114.083405
 21
39.000015
  0
LINE
  8
0
 62
     4
 10
-105.083405
 20
35.500015
 11
-104.083405
 21
35.500015
  0
LINE
  8
0
 62
     4
 10
-111.883408
 20
35.000015
 11
-108.283401
 21
35.000015
  0
LINE
  8
0
 62
     4
 10
-111.883408
 20
35.000015
 11
-111.883408
 21
34.800018
  0
LINE
  8
0
 62
     4
 10
-108.283401
 20
35.000015
 11
-108.283401
 21
34.800018
  0
LINE
  8
0
 62
     4
 10
-113.583405
 20
34.000015
 11
-112.683411
 21
34.000015
  0
LINE
  8
0
 62
     4
 10
-107.583405
 20
32.000015
 11
-106.283401
 21
32.000015
  0
LINE
  8
0
 62
     4
 10
-105.083405
 20
39.000015
 11
-106.083405
 21
39.000015
  0
LINE
  8
0
 62
     4
 10
-107.583405
 20
32.000015
 11
-107.583405
 21
33.000015
  0
LINE
  8
0
 62
     4
 10
-105.083405
 20
33.200012
 11
-105.083405
 21
39.000015
  0
LINE
  8
0
 62
     4
 10
-144.055206
 20
122.799957
 11
-143.083374
 21
122.799957
  0
LINE
  8
0
 62
     4
 10
-144.055206
 20
117.199951
 11
-143.083374
 21
117.199951
  0
LINE
  8
0
 62
     4
 10
-143.083374
 20
115.999954
 11
-136.083374
 21
115.999954
  0
LINE
  8
0
 62
     4
 10
-143.083374
 20
123.999954
 11
-136.083374
 21
123.999954
  0
LINE
  8
0
 62
     4
 10
-136.083374
 20
123.999954
 11
-136.083374
 21
115.999954
  0
LINE
  8
0
 62
     4
 10
-108.283340
 20
92.999985
 11
-108.283340
 21
93.199982
  0
LINE
  8
0
 62
     4
 10
-111.583344
 20
95.485489
 11
-111.583344
 21
94.999985
  0
LINE
  8
0
 62
     4
 10
-111.583344
 20
92.999985
 11
-111.583344
 21
92.583557
  0
LINE
  8
0
 62
     1
 10
-111.333344
 20
92.999985
 11
-111.333344
 21
92.712662
  0
LINE
  8
0
 62
     1
 10
-108.833344
 20
92.999985
 11
-108.833344
 21
92.712662
  0
LINE
  8
0
 62
     4
 10
-108.583344
 20
92.999985
 11
-108.583344
 21
92.583557
  0
LINE
  8
0
 62
     4
 10
-114.083344
 20
88.999985
 11
-114.083344
 21
94.499985
  0
LINE
  8
0
 62
     4
 10
-115.083344
 20
94.799988
 11
-115.083344
 21
88.999985
  0
LINE
  8
0
 62
     4
 10
-112.583344
 20
95.999985
 11
-112.583344
 21
94.999985
  0
LINE
  8
0
 62
     4
 10
-115.083344
 20
88.999985
 11
-114.083344
 21
88.999985
  0
LINE
  8
0
 62
     4
 10
-112.583344
 20
95.999985
 11
-113.883347
 21
95.999985
  0
LINE
  8
0
 62
     4
 10
-137.949402
 20
131.749954
 11
-140.217346
 21
131.749954
  0
LINE
  8
0
 62
     4
 10
-137.083374
 20
109.749954
 11
-141.083374
 21
109.749954
  0
LINE
  8
0
 62
     4
 10
-141.083389
 20
130.249954
 11
-140.217361
 21
131.749969
  0
LINE
  8
0
 62
     4
 10
-137.083344
 20
130.250015
 11
-137.949371
 21
131.750015
  0
LINE
  8
0
 62
     4
 10
-137.083374
 20
130.249954
 11
-137.083374
 21
123.999954
  0
LINE
  8
0
 62
     4
 10
-137.583374
 20
108.749954
 11
-140.583374
 21
108.749954
  0
LINE
  8
0
 62
     4
 10
-137.083374
 20
130.249954
 11
-141.083374
 21
130.249954
  0
LINE
  8
0
 62
     4
 10
-140.583374
 20
108.749954
 11
-140.583374
 21
103.749954
  0
LINE
  8
0
 62
     4
 10
-137.583374
 20
108.749954
 11
-137.583374
 21
103.749954
  0
LINE
  8
0
 62
     4
 10
-137.083435
 20
109.749985
 11
-137.583435
 21
108.749977
  0
LINE
  8
0
 62
     4
 10
-141.083328
 20
109.749939
 11
-140.583328
 21
108.749947
  0
LINE
  8
0
 62
     4
 10
-141.083374
 20
115.999954
 11
-141.083374
 21
109.749954
  0
LINE
  8
0
 62
     4
 10
-137.083374
 20
115.999954
 11
-137.083374
 21
109.749954
  0
LINE
  8
0
 62
     4
 10
-108.283340
 20
92.999985
 11
-111.883347
 21
92.999985
  0
LINE
  8
0
 62
     4
 10
-136.083374
 20
4.000046
 11
-136.083374
 21
12.000046
  0
LINE
  8
0
 62
     4
 10
-143.083374
 20
4.000046
 11
-136.083374
 21
4.000046
  0
LINE
  8
0
 62
     4
 10
-143.083374
 20
12.000046
 11
-136.083374
 21
12.000046
  0
LINE
  8
0
 62
     4
 10
-144.055206
 20
10.800049
 11
-143.083374
 21
10.800049
  0
LINE
  8
0
 62
     4
 10
-144.055206
 20
5.200043
 11
-143.083374
 21
5.200043
  0
LINE
  8
0
 62
     4
 10
-139.083374
 20
4.000046
 11
-139.083374
 21
12.000046
  0
LINE
  8
0
 62
     4
 10
-143.083374
 20
4.000046
 11
-143.083374
 21
12.000046
  0
LINE
  8
0
 62
     4
 10
-141.083374
 20
-2.249954
 11
-141.083374
 21
4.000046
  0
LINE
  8
0
 62
     4
 10
-137.949402
 20
-3.749954
 11
-140.217346
 21
-3.749954
  0
LINE
  8
0
 62
     4
 10
-137.083374
 20
18.250046
 11
-141.083374
 21
18.250046
  0
LINE
  8
0
 62
     4
 10
-141.083542
 20
-2.250045
 11
-140.217514
 21
-3.750048
  0
LINE
  8
0
 62
     4
 10
-137.083282
 20
-2.250018
 11
-137.949326
 21
-3.750030
  0
LINE
  8
0
 62
     4
 10
-137.083374
 20
-2.249954
 11
-137.083374
 21
4.000046
  0
LINE
  8
0
 62
     4
 10
-137.583374
 20
19.250046
 11
-140.583374
 21
19.250046
  0
LINE
  8
0
 62
     4
 10
-137.083374
 20
-2.249954
 11
-141.083374
 21
-2.249954
  0
LINE
  8
0
 62
     4
 10
-140.583374
 20
19.250046
 11
-140.583374
 21
24.250046
  0
LINE
  8
0
 62
     4
 10
-137.583374
 20
19.250046
 11
-137.583374
 21
24.250046
  0
LINE
  8
0
 62
     4
 10
-137.083359
 20
18.250029
 11
-137.583359
 21
19.250038
  0
LINE
  8
0
 62
     4
 10
-141.083328
 20
18.250040
 11
-140.583328
 21
19.250032
  0
LINE
  8
0
 62
     4
 10
-141.083374
 20
12.000046
 11
-141.083374
 21
18.250046
  0
LINE
  8
0
 62
     4
 10
-137.083374
 20
12.000046
 11
-137.083374
 21
18.250046
  0
LINE
  8
0
 62
     4
 10
-111.883347
 20
92.999985
 11
-111.883347
 21
93.199982
  0
LINE
  8
0
 62
     4
 10
-123.339432
 20
47.971416
 11
-113.980217
 21
39.108944
  0
LINE
  8
0
 62
     4
 10
-114.083397
 20
39.000046
 11
-123.438942
 21
47.859043
  0
LINE
  8
0
 62
     4
 10
-96.827293
 20
47.971363
 11
-106.186508
 21
39.108891
  0
LINE
  8
0
 62
     4
 10
-106.083351
 20
39.000057
 11
-96.727806
 21
47.859058
  0
LINE
  8
0
 62
     4
 10
-112.683411
 20
31.014511
 11
-107.483398
 21
31.014511
  0
LINE
  8
0
 62
     4
 10
-113.583405
 20
36.014511
 11
-112.083405
 21
36.014511
  0
LINE
  8
0
 62
     4
 10
-111.883408
 20
29.014511
 11
-108.283401
 21
29.014511
  0
LINE
  8
0
 62
     4
 10
-107.483398
 20
29.814514
 11
-107.483398
 21
31.014511
  0
LINE
  8
0
 62
     4
 10
-112.683411
 20
29.814514
 11
-112.683411
 21
31.014511
  0
LINE
  8
0
 62
     4
 10
-115.083344
 20
92.499985
 11
-116.083344
 21
92.499985
  0
LINE
  8
0
 62
     4
 10
-105.083344
 20
88.999985
 11
-106.083344
 21
88.999985
  0
LINE
  8
0
 62
     4
 10
-112.683350
 20
93.999985
 11
-114.083344
 21
93.999985
  0
LINE
  8
0
 62
     4
 10
-106.283340
 20
94.999985
 11
-113.583344
 21
94.999985
  0
LINE
  8
0
 62
     4
 10
-106.083344
 20
93.499985
 11
-106.083344
 21
88.999985
  0
LINE
  8
0
 62
     4
 10
-115.083344
 20
93.499985
 11
-115.083344
 21
92.499985
  0
LINE
  8
0
 62
     4
 10
-116.083344
 20
92.499985
 11
-116.083344
 21
93.799988
  0
LINE
  8
0
 62
     4
 10
-105.083344
 20
88.999985
 11
-105.083344
 21
93.799988
  0
LINE
  8
0
 62
     4
 10
-112.262787
 20
84.685486
 11
-113.083344
 21
84.685486
  0
LINE
  8
0
 62
     4
 10
-113.583351
 20
85.185478
 11
-113.083351
 21
84.685478
  0
LINE
  8
0
 62
     4
 10
-113.583344
 20
91.985489
 11
-113.583344
 21
85.185486
  0
LINE
  8
0
 62
     4
 10
-108.125595
 20
92.258568
 11
-108.083389
 21
92.185463
  0
LINE
  8
0
 62
     4
 10
-112.041092
 20
92.258545
 11
-112.083305
 21
92.185425
  0
LINE
  8
0
 62
     4
 10
-108.083344
 20
92.185486
 11
-112.083344
 21
92.185486
  0
LINE
  8
0
 62
     4
 10
-112.083344
 20
91.685486
 11
-112.083344
 21
92.185486
  0
LINE
  8
0
 62
     4
 10
-108.083344
 20
91.685486
 11
-108.083344
 21
92.185486
  0
LINE
  8
0
 62
     4
 10
-106.583344
 20
85.185486
 11
-113.583344
 21
85.185486
  0
LINE
  8
0
 62
     4
 10
-106.583328
 20
85.185471
 11
-107.083328
 21
84.685471
  0
LINE
  8
0
 62
     4
 10
-106.583344
 20
91.985489
 11
-106.583344
 21
85.185486
  0
LINE
  8
0
 62
     4
 10
-107.083344
 20
84.685486
 11
-107.903900
 21
84.685486
  0
LINE
  8
0
 62
     4
 10
-106.583344
 20
91.685486
 11
-113.583344
 21
91.685486
  0
LINE
  8
0
 62
     4
 10
-108.833344
 20
96.985489
 11
-108.833344
 21
95.485489
  0
LINE
  8
0
 62
     4
 10
-111.333344
 20
96.985489
 11
-111.333344
 21
95.485489
  0
LINE
  8
0
 62
     4
 10
-107.483337
 20
98.185486
 11
-107.483337
 21
96.985489
  0
LINE
  8
0
 62
     4
 10
-112.683350
 20
98.185486
 11
-112.683350
 21
96.985489
  0
LINE
  8
0
 62
     4
 10
-108.283340
 20
98.985489
 11
-111.883347
 21
98.985489
  0
LINE
  8
0
 62
     4
 10
-106.583344
 20
91.985489
 11
-108.083344
 21
91.985489
  0
LINE
  8
0
 62
     4
 10
-107.483337
 20
96.985489
 11
-112.683350
 21
96.985489
  0
LINE
  8
0
 62
     4
 10
-114.083389
 20
88.999977
 11
-123.438942
 21
80.140976
  0
LINE
  8
0
 62
     4
 10
-123.339455
 20
80.028633
 11
-113.980240
 21
88.891098
  0
LINE
  8
0
 62
     4
 10
-106.083366
 20
88.999969
 11
-96.727814
 21
80.140968
  0
LINE
  8
0
 62
     4
 10
-96.827309
 20
80.028564
 11
-106.186523
 21
88.891037
  0
LINE
  8
0
 62
     4
 10
-108.583405
 20
32.514511
 11
-108.583405
 21
33.000015
  0
LINE
  8
0
 62
     1
 10
-108.833405
 20
32.514511
 11
-108.833405
 21
33.000015
  0
LINE
  8
0
 62
     4
 10
-113.583405
 20
36.014511
 11
-113.583405
 21
42.814514
  0
LINE
  8
0
 62
     4
 10
-113.583397
 20
42.814510
 11
-113.083397
 21
43.314510
  0
LINE
  8
0
 62
     4
 10
-113.583405
 20
42.814514
 11
-106.583405
 21
42.814514
  0
LINE
  8
0
 62
     4
 10
-112.083405
 20
36.314514
 11
-112.083405
 21
35.814514
  0
LINE
  8
0
 62
     4
 10
-111.583405
 20
35.000015
 11
-111.583405
 21
35.416443
  0
LINE
  8
0
 62
     1
 10
-111.333405
 20
35.000015
 11
-111.333405
 21
35.287338
  0
LINE
  8
0
 62
     1
 10
-108.833405
 20
35.000015
 11
-108.833405
 21
35.287338
  0
LINE
  8
0
 62
     4
 10
-108.583405
 20
35.000015
 11
-108.583405
 21
35.416443
  0
LINE
  8
0
 62
     1
 10
-111.333344
 20
95.485489
 11
-111.333344
 21
94.999985
  0
LINE
  8
0
 62
     1
 10
-108.833344
 20
95.485489
 11
-108.833344
 21
94.999985
  0
LINE
  8
0
 62
     4
 10
-108.083405
 20
36.014511
 11
-106.583405
 21
36.014511
  0
LINE
  8
0
 62
     4
 10
-114.083405
 20
34.750015
 11
-113.933411
 21
34.750015
  0
LINE
  8
0
 62
     4
 10
-106.233398
 20
34.750015
 11
-106.083405
 21
34.750015
  0
LINE
  8
0
 62
     4
 10
-113.933411
 20
34.750015
 11
-113.933411
 21
39.000015
  0
LINE
  8
0
 62
     4
 10
-106.233398
 20
34.750015
 11
-106.233398
 21
39.000015
  0
LINE
  8
0
 62
     4
 10
-111.583405
 20
32.514511
 11
-111.583405
 21
33.000015
  0
LINE
  8
0
 62
     4
 10
-111.583405
 20
32.514511
 11
-108.583405
 21
32.514511
  0
LINE
  8
0
 62
     1
 10
-111.333405
 20
32.514511
 11
-111.333405
 21
33.000015
  0
LINE
  8
0
 62
     4
 10
-113.083405
 20
43.314514
 11
-112.262848
 21
43.314514
  0
LINE
  8
0
 62
     4
 10
-113.583405
 20
36.314514
 11
-106.583405
 21
36.314514
  0
LINE
  8
0
 62
     4
 10
-111.333405
 20
31.014511
 11
-111.333405
 21
32.514511
  0
LINE
  8
0
 62
     4
 10
-108.833405
 20
31.014511
 11
-108.833405
 21
32.514511
  0
LINE
  8
0
 62
     4
 10
-108.583344
 20
95.485489
 11
-108.583344
 21
94.999985
  0
LINE
  8
0
 62
     4
 10
-113.933350
 20
93.249985
 11
-113.933350
 21
88.999985
  0
LINE
  8
0
 62
     4
 10
-108.583344
 20
95.485489
 11
-111.583344
 21
95.485489
  0
LINE
  8
0
 62
     4
 10
-106.233337
 20
93.249985
 11
-106.233337
 21
88.999985
  0
LINE
  8
0
 62
     4
 10
-113.933350
 20
93.249985
 11
-114.083344
 21
93.249985
  0
LINE
  8
0
 62
     4
 10
-106.083344
 20
93.249985
 11
-106.233337
 21
93.249985
  0
LINE
  8
0
 62
     4
 10
-112.083344
 20
91.985489
 11
-113.583344
 21
91.985489
  0
LINE
  8
0
  6
CENTER
 62
     2
 10
-338.750000
 20
-193.715546
 11
-338.750000
 21
-130.204300
  0
LINE
  8
0
 10
-312.750000
 20
-137.666672
 11
-312.750000
 21
-185.666687
  0
LINE
  8
0
 10
-364.750000
 20
-137.666672
 11
-364.750000
 21
-185.666687
  0
LINE
  8
0
 10
-315.750000
 20
-134.666656
 11
-361.750000
 21
-134.666656
  0
LINE
  8
0
 10
-315.750000
 20
-188.666641
 11
-361.750000
 21
-188.666641
  0
LINE
  8
0
 62
     4
 10
-398.750000
 20
-156.379089
 11
-398.750000
 21
-166.954224
  0
LINE
  8
0
 10
-319.750000
 20
-147.166656
 11
-313.750000
 21
-147.166656
  0
LINE
  8
0
 10
-357.750000
 20
-147.166656
 11
-363.750000
 21
-147.166656
  0
LINE
  8
0
 10
-357.750000
 20
-176.166641
 11
-363.750000
 21
-176.166641
  0
LINE
  8
0
 10
-319.750000
 20
-176.166641
 11
-313.750000
 21
-176.166641
  0
LINE
  8
0
 10
-325.250000
 20
-181.666656
 11
-325.250000
 21
-187.666672
  0
LINE
  8
0
 10
-352.250000
 20
-181.666656
 11
-352.250000
 21
-187.666672
  0
LINE
  8
0
 10
-352.250000
 20
-141.666672
 11
-352.250000
 21
-135.666656
  0
LINE
  8
0
 10
-325.250000
 20
-141.666672
 11
-325.250000
 21
-135.666672
  0
LINE
  8
0
 10
-364.250000
 20
-137.666672
 11
-364.250000
 21
-185.666687
  0
LINE
  8
0
 10
-313.250000
 20
-137.666672
 11
-313.250000
 21
-185.666687
  0
LINE
  8
0
 10
-315.750000
 20
-135.166672
 11
-361.750000
 21
-135.166672
  0
LINE
  8
0
 10
-315.750000
 20
-188.166687
 11
-361.750000
 21
-188.166687
  0
LINE
  8
0
  6
CENTER
 62
     2
 10
-329.750000
 20
-147.166687
 11
-347.750000
 21
-147.166687
  0
LINE
  8
0
 10
-334.997192
 20
-140.666687
 11
-342.502747
 21
-140.666687
  0
LINE
  8
0
 10
-334.997192
 20
-153.666702
 11
-342.502747
 21
-153.666702
  0
LINE
  8
0
 10
-331.244446
 20
-147.166672
 11
-334.997253
 21
-140.666656
  0
LINE
  8
0
 10
-342.502838
 20
-153.666718
 11
-346.255585
 21
-147.166702
  0
LINE
  8
0
 10
-342.502594
 20
-140.666840
 11
-346.255402
 21
-147.166840
  0
LINE
  8
0
 10
-331.244568
 20
-147.166672
 11
-334.997314
 21
-153.666687
  0
LINE
  8
0
 10
-299.750000
 20
-137.666672
 11
-299.750000
 21
-185.666687
  0
LINE
  8
0
 10
-299.750000
 20
-185.666687
 11
-312.750000
 21
-185.666687
  0
LINE
  8
0
 10
-299.750000
 20
-137.666672
 11
-312.750000
 21
-137.666672
  0
LINE
  8
0
  6
CENTER
 62
     2
 10
-215.468140
 20
-161.666672
 11
-402.302979
 21
-161.666672
  0
LINE
  8
0
 10
-219.750000
 20
-141.866653
 11
-219.750000
 21
-181.466675
  0
LINE
  8
0
 10
-220.749985
 20
-140.866653
 11
-242.750000
 21
-140.866653
  0
LINE
  8
0
 10
-220.750183
 20
-182.466675
 11
-242.750000
 21
-182.466675
  0
LINE
  8
0
 10
-220.749969
 20
-140.866653
 11
-219.749985
 21
-141.866638
  0
LINE
  8
0
 10
-219.750000
 20
-181.466553
 11
-220.750153
 21
-182.466660
  0
LINE
  8
0
 10
-220.750000
 20
-140.866653
 11
-220.750000
 21
-144.013336
  0
LINE
  8
0
 10
-225.750000
 20
-144.013336
 11
-225.750000
 21
-179.319992
  0
LINE
  8
0
 10
-219.750000
 20
-144.013336
 11
-225.750000
 21
-144.013336
  0
LINE
  8
0
 10
-219.750000
 20
-179.319977
 11
-225.750000
 21
-179.319977
  0
LINE
  8
0
 10
-220.750000
 20
-179.319992
 11
-220.750000
 21
-182.466675
  0
LINE
  8
0
 62
     4
 10
-367.750000
 20
-168.166672
 11
-385.750000
 21
-168.166672
  0
LINE
  8
0
 62
     4
 10
-367.750000
 20
-155.166672
 11
-385.750000
 21
-155.166672
  0
LINE
  8
0
 62
     4
 10
-398.049988
 20
-155.166672
 11
-398.049988
 21
-168.166672
  0
LINE
  8
0
 62
     4
 10
-398.049866
 20
-155.166718
 11
-398.749878
 21
-156.379166
  0
LINE
  8
0
 62
     4
 10
-398.049957
 20
-168.166718
 11
-398.750031
 21
-166.954269
  0
LINE
  8
0
 62
     4
 10
-375.750000
 20
-155.166672
 11
-375.750000
 21
-159.068588
  0
LINE
  8
0
 62
     4
 10
-375.750000
 20
-159.068588
 11
-385.750000
 21
-159.068588
  0
LINE
  8
0
 62
     4
 10
-375.750000
 20
-164.264740
 11
-385.750000
 21
-164.264740
  0
LINE
  8
0
 62
     4
 10
-375.750000
 20
-164.264740
 11
-375.750000
 21
-168.166672
  0
LINE
  8
0
 62
     4
 10
-398.049988
 20
-159.068497
 11
-398.750000
 21
-159.768539
  0
LINE
  8
0
 62
     4
 10
-398.050323
 20
-164.265091
 11
-398.750366
 21
-163.565079
  0
LINE
  8
0
 62
     4
 10
-375.749420
 20
-159.068848
 11
-373.496613
 21
-155.166794
  0
LINE
  8
0
 62
     4
 10
-375.749176
 20
-164.264236
 11
-373.496307
 21
-168.166306
  0
LINE
  8
0
 62
     1
 10
-375.750000
 20
-167.584167
 11
-385.750000
 21
-167.584167
  0
LINE
  8
0
 62
     1
 10
-375.750000
 20
-155.749161
 11
-385.750000
 21
-155.749161
  0
LINE
  8
0
 62
     1
 10
-375.749969
 20
-155.749191
 11
-374.726837
 21
-155.158508
  0
LINE
  8
0
 62
     1
 10
-375.750183
 20
-167.584320
 11
-374.741180
 21
-168.166870
  0
LINE
  8
0
 62
     4
 10
-385.750000
 20
-152.166672
 11
-385.750000
 21
-171.166656
  0
LINE
  8
0
 62
     4
 10
-393.750000
 20
-155.166672
 11
-398.049988
 21
-155.166672
  0
LINE
  8
0
 62
     1
 10
-393.750000
 20
-155.749161
 11
-398.386292
 21
-155.749161
  0
LINE
  8
0
 62
     4
 10
-393.750000
 20
-159.068588
 11
-398.049988
 21
-159.068588
  0
LINE
  8
0
 62
     4
 10
-393.750000
 20
-164.264740
 11
-398.049988
 21
-164.264740
  0
LINE
  8
0
 62
     1
 10
-393.750000
 20
-167.584167
 11
-398.386292
 21
-167.584167
  0
LINE
  8
0
 62
     4
 10
-393.750000
 20
-168.166672
 11
-398.049988
 21
-168.166672
  0
LINE
  8
0
 62
     4
 10
-393.750000
 20
-152.166672
 11
-393.750000
 21
-171.166656
  0
LINE
  8
0
 62
     4
 10
-385.750000
 20
-171.166656
 11
-393.750000
 21
-171.166656
  0
LINE
  8
0
 62
     4
 10
-385.750000
 20
-152.166656
 11
-393.750000
 21
-152.166656
  0
LINE
  8
0
 62
     4
 10
-386.598511
 20
-161.666672
 11
-392.901489
 21
-161.666672
  0
LINE
  8
0
 10
-367.750000
 20
-146.366669
 11
-367.750000
 21
-176.966660
  0
LINE
  8
0
 10
-364.750000
 20
-177.666672
 11
-367.050049
 21
-177.666672
  0
LINE
  8
0
 10
-364.750000
 20
-145.666656
 11
-367.050049
 21
-145.666656
  0
LINE
  8
0
 10
-367.050049
 20
-145.666656
 11
-367.050049
 21
-177.666672
  0
LINE
  8
0
 10
-367.050140
 20
-145.666641
 11
-367.750122
 21
-146.366623
  0
LINE
  8
0
 10
-367.050232
 20
-177.666870
 11
-367.750275
 21
-176.966873
  0
LINE
  8
0
 10
-317.946991
 20
-179.863556
 11
-321.553192
 21
-183.469803
  0
LINE
  8
0
 10
-317.946777
 20
-183.469711
 11
-321.553040
 21
-179.863464
  0
LINE
  8
0
 10
-317.946991
 20
-139.863510
 11
-321.553192
 21
-143.469757
  0
LINE
  8
0
 10
-317.946991
 20
-143.469879
 11
-321.553162
 21
-139.863647
  0
LINE
  8
0
 10
-355.946777
 20
-139.863556
 11
-359.553070
 21
-143.469818
  0
LINE
  8
0
 10
-355.947021
 20
-143.469910
 11
-359.553253
 21
-139.863663
  0
LINE
  8
0
 10
-355.946869
 20
-179.863571
 11
-359.553101
 21
-183.469788
  0
LINE
  8
0
 10
-355.947021
 20
-183.469940
 11
-359.553223
 21
-179.863678
  0
LINE
  8
0
 10
-231.750000
 20
-140.866653
 11
-231.750000
 21
-182.466675
  0
LINE
  8
0
  6
CENTER
 62
     2
 10
-306.250000
 20
-132.410538
 11
-306.250000
 21
-143.311157
  0
LINE
  8
0
 10
-274.750000
 20
-140.866653
 11
-299.750000
 21
-140.866653
  0
LINE
  8
0
 10
-250.750000
 20
-140.866653
 11
-266.750000
 21
-140.866653
  0
LINE
  8
0
 10
-274.750000
 20
-182.466675
 11
-299.750000
 21
-182.466675
  0
LINE
  8
0
 10
-250.750000
 20
-182.466675
 11
-266.750000
 21
-182.466675
  0
LINE
  8
0
 62
     4
 10
-245.830765
 20
-160.747421
 11
-247.669266
 21
-162.585922
  0
LINE
  8
0
 62
     4
 10
-245.830719
 20
-162.585892
 11
-247.669189
 21
-160.747421
  0
LINE
  8
0
 62
     4
 10
-235.750000
 20
-158.166672
 11
-235.750000
 21
-165.166672
  0
LINE
  8
0
 62
     4
 10
-250.750000
 20
-166.666672
 11
-250.750000
 21
-182.616653
  0
LINE
  8
0
 62
     4
 10
-242.750000
 20
-166.666672
 11
-242.750000
 21
-182.616653
  0
LINE
  8
0
 62
     4
 10
-242.750000
 20
-182.616653
 11
-250.750000
 21
-182.616653
  0
LINE
  8
0
 62
     4
 10
-250.750000
 20
-140.716675
 11
-250.750000
 21
-156.666672
  0
LINE
  8
0
 62
     4
 10
-242.750000
 20
-140.716675
 11
-242.750000
 21
-156.666672
  0
LINE
  8
0
 62
     4
 10
-242.750000
 20
-140.716675
 11
-250.750000
 21
-140.716675
  0
LINE
  8
0
 62
     4
 10
-244.500000
 20
-166.666672
 11
-244.500000
 21
-165.198425
  0
LINE
  8
0
 62
     4
 10
-249.000000
 20
-166.666672
 11
-249.000000
 21
-165.198425
  0
LINE
  8
0
 62
     4
 10
-251.750000
 20
-165.166672
 11
-257.750000
 21
-165.166672
  0
LINE
  8
0
 62
     4
 10
-251.750000
 20
-158.166672
 11
-257.750000
 21
-158.166672
  0
LINE
  8
0
 62
     4
 10
-249.000000
 20
-166.666672
 11
-251.750000
 21
-166.666672
  0
LINE
  8
0
 62
     4
 10
-251.750000
 20
-165.166672
 11
-251.750000
 21
-166.666672
  0
LINE
  8
0
 62
     4
 10
-241.750000
 20
-165.166672
 11
-241.750000
 21
-166.666672
  0
LINE
  8
0
 62
     4
 10
-250.116028
 20
-165.666672
 11
-251.250000
 21
-165.666672
  0
LINE
  8
0
 62
     4
 10
-244.750000
 20
-167.966660
 11
-248.750000
 21
-167.966660
  0
LINE
  8
0
 62
     4
 10
-242.250000
 20
-165.666672
 11
-243.383972
 21
-165.666672
  0
LINE
  8
0
 62
     4
 10
-248.750000
 20
-167.032684
 11
-248.750000
 21
-167.966660
  0
LINE
  8
0
 62
     4
 10
-244.750000
 20
-167.032684
 11
-244.750000
 21
-167.966660
  0
LINE
  8
0
 62
     4
 10
-257.750000
 20
-158.166672
 11
-257.750000
 21
-165.166672
  0
LINE
  8
0
 62
     4
 10
-251.750000
 20
-157.166672
 11
-251.750000
 21
-165.166672
  0
LINE
  8
0
 62
     4
 10
-241.750000
 20
-157.166672
 11
-241.750000
 21
-165.166672
  0
LINE
  8
0
 62
     4
 10
-235.750000
 20
-165.166672
 11
-241.750000
 21
-165.166672
  0
LINE
  8
0
 62
     4
 10
-235.750000
 20
-158.166672
 11
-241.750000
 21
-158.166672
  0
LINE
  8
0
 62
     4
 10
-241.750000
 20
-166.666672
 11
-244.500000
 21
-166.666672
  0
LINE
  8
0
 62
     4
 10
-242.250000
 20
-156.666672
 11
-251.250000
 21
-156.666672
  0
LINE
  8
0
 62
     4
 10
-259.750000
 20
-159.166672
 11
-259.750000
 21
-164.166672
  0
LINE
  8
0
 62
     4
 10
-257.750000
 20
-164.166672
 11
-259.750000
 21
-164.166672
  0
LINE
  8
0
 62
     4
 10
-257.750000
 20
-159.166672
 11
-259.750000
 21
-159.166672
  0
LINE
  8
0
 62
     4
 10
-340.750000
 20
-134.666656
 11
-336.750000
 21
-134.666656
  0
LINE
  8
0
 62
     4
 10
-340.750000
 20
-134.166656
 11
-341.549988
 21
-134.166656
  0
LINE
  8
0
 62
     4
 10
-336.750000
 20
-130.666656
 11
-340.750000
 21
-130.666656
  0
LINE
  8
0
 62
     4
 10
-340.750000
 20
-134.666656
 11
-340.750000
 21
-130.666656
  0
LINE
  8
0
 62
     4
 10
-336.750000
 20
-134.666656
 11
-336.750000
 21
-130.666656
  0
LINE
  8
0
 62
     4
 10
-326.950012
 20
-127.694824
 11
-326.950012
 21
-128.666656
  0
LINE
  8
0
 62
     4
 10
-332.549988
 20
-127.694824
 11
-332.549988
 21
-128.666656
  0
LINE
  8
0
 62
     4
 10
-329.750000
 20
-134.666656
 11
-329.750000
 21
-134.166656
  0
LINE
  8
0
 62
     4
 10
-329.750000
 20
-134.166656
 11
-336.750000
 21
-134.166656
  0
LINE
  8
0
 62
     4
 10
-312.749939
 20
-132.666595
 11
-324.749939
 21
-128.666595
  0
LINE
  8
0
 62
     4
 10
-312.750000
 20
-135.666656
 11
-313.513916
 21
-135.666656
  0
LINE
  8
0
 62
     4
 10
-324.750000
 20
-128.666656
 11
-341.549988
 21
-128.666656
  0
LINE
  8
0
 62
     4
 10
-312.750000
 20
-135.666656
 11
-312.750000
 21
-132.666656
  0
LINE
  8
0
 62
     4
 10
-341.549988
 20
-134.166656
 11
-341.549988
 21
-128.666656
  0
LINE
  8
0
 62
     4
 10
-266.750000
 20
-140.716675
 11
-274.750000
 21
-140.716675
  0
LINE
  8
0
 62
     4
 10
-266.750000
 20
-182.616653
 11
-274.750000
 21
-182.616653
  0
LINE
  8
0
 62
     4
 10
-266.750000
 20
-140.716675
 11
-266.750000
 21
-182.616653
  0
LINE
  8
0
 62
     4
 10
-274.750000
 20
-140.716675
 11
-274.750000
 21
-182.616653
  0
LINE
  8
0
 62
     4
 10
-259.750000
 20
-163.366669
 11
-264.750000
 21
-163.366669
  0
LINE
  8
0
 62
     4
 10
-259.750000
 20
-159.966660
 11
-264.750000
 21
-159.966660
  0
LINE
  8
0
  6
CENTER
 62
     1
 10
-433.416595
 20
-305.074524
 11
-451.416626
 21
-305.074524
  0
LINE
  8
0
  6
CENTER
 62
     1
 10
-442.416626
 20
-296.074524
 11
-442.416626
 21
-314.074524
  0
LINE
  8
0
 62
     4
 10
-435.916565
 20
-299.574524
 11
-435.916565
 21
-310.574524
  0
LINE
  8
0
 62
     4
 10
-448.916626
 20
-299.574524
 11
-448.916626
 21
-310.574524
  0
LINE
  8
0
 62
     4
 10
-436.916565
 20
-298.574524
 11
-447.916626
 21
-298.574524
  0
LINE
  8
0
 62
     4
 10
-436.916565
 20
-311.574524
 11
-447.916626
 21
-311.574524
  0
LINE
  8
0
 62
     4
 10
-322.749969
 20
-299.786957
 11
-322.749969
 21
-310.362091
  0
LINE
  8
0
  6
CENTER
 62
     1
 10
-285.662964
 20
-305.074524
 11
-326.302948
 21
-305.074524
  0
LINE
  8
0
 62
     4
 10
-291.750000
 20
-311.574524
 11
-322.049957
 21
-311.574524
  0
LINE
  8
0
 62
     4
 10
-291.750000
 20
-298.574524
 11
-322.050079
 21
-298.574524
  0
LINE
  8
0
 62
     4
 10
-322.049957
 20
-298.574524
 11
-322.049957
 21
-311.574524
  0
LINE
  8
0
 62
     4
 10
-322.049988
 20
-298.574493
 11
-322.750000
 21
-299.786957
  0
LINE
  8
0
 62
     4
 10
-322.050262
 20
-311.574707
 11
-322.750275
 21
-310.362305
  0
LINE
  8
0
 62
     4
 10
-299.749939
 20
-298.574524
 11
-299.749939
 21
-302.476440
  0
LINE
  8
0
 62
     4
 10
-299.749969
 20
-302.476440
 11
-322.049957
 21
-302.476440
  0
LINE
  8
0
 62
     4
 10
-299.749969
 20
-307.672577
 11
-322.049957
 21
-307.672577
  0
LINE
  8
0
 62
     4
 10
-299.749939
 20
-307.672607
 11
-299.749939
 21
-311.574524
  0
LINE
  8
0
 62
     4
 10
-322.049896
 20
-302.476349
 11
-322.749908
 21
-303.176361
  0
LINE
  8
0
 62
     4
 10
-322.050201
 20
-307.672791
 11
-322.750183
 21
-306.972809
  0
LINE
  8
0
 62
     4
 10
-299.749725
 20
-302.476562
 11
-297.496887
 21
-298.574554
  0
LINE
  8
0
 62
     4
 10
-299.749939
 20
-307.672577
 11
-297.497070
 21
-311.574646
  0
LINE
  8
0
  6
CENTER
 62
     2
 10
380.750000
 20
64.000000
 11
194.877075
 21
64.000000
  0
LINE
  8
0
  6
CENTER
 62
     2
 10
258.750000
 20
152.357376
 11
258.750000
 21
-24.545593
  0
LINE
  8
0
 10
232.750000
 20
131.000046
 11
232.750000
 21
-3.000015
  0
LINE
  8
0
 10
284.750000
 20
131.000046
 11
284.750000
 21
-3.000015
  0
LINE
  8
0
 10
284.750000
 20
131.000061
 11
260.317047
 21
131.000061
  0
LINE
  8
0
 10
284.750000
 20
-3.000000
 11
260.316895
 21
-3.000000
  0
LINE
  8
0
  6
CENTER
 62
     2
 10
281.250000
 20
37.000000
 11
266.250000
 21
37.000000
  0
LINE
  8
0
  6
CENTER
 62
     2
 10
273.750000
 20
46.223995
 11
273.750000
 21
28.312431
  0
LINE
  8
0
  6
CENTER
 62
     2
 10
273.750000
 20
83.499985
 11
273.750000
 21
98.499985
  0
LINE
  8
0
  6
CENTER
 62
     2
 10
281.250000
 20
91.000000
 11
266.250000
 21
91.000000
  0
LINE
  8
0
  6
CENTER
 62
     2
 10
243.750000
 20
46.223995
 11
243.750000
 21
28.590134
  0
LINE
  8
0
  6
CENTER
 62
     2
 10
236.250000
 20
37.000000
 11
251.250000
 21
37.000000
  0
LINE
  8
0
  6
CENTER
 62
     2
 10
243.750000
 20
83.499985
 11
243.750000
 21
98.499985
  0
LINE
  8
0
  6
CENTER
 62
     2
 10
236.250000
 20
91.000000
 11
251.250000
 21
91.000000
  0
LINE
  8
0
 10
283.196899
 20
139.000000
 11
234.303101
 21
139.000000
  0
LINE
  8
0
 10
284.075012
 20
134.200043
 11
272.983032
 21
134.200043
  0
LINE
  8
0
 10
284.250000
 20
132.200012
 11
233.250000
 21
132.200012
  0
LINE
  8
0
 10
284.250000
 20
132.200027
 11
284.250000
 21
131.000031
  0
LINE
  8
0
 10
233.250000
 20
132.200027
 11
233.250000
 21
131.000031
  0
LINE
  8
0
 10
244.516968
 20
134.200043
 11
233.424988
 21
134.200043
  0
LINE
  8
0
 10
284.250061
 20
132.200027
 11
283.695068
 21
138.543625
  0
LINE
  8
0
 10
272.186005
 20
134.930283
 11
271.925812
 21
137.904572
  0
LINE
  8
0
 10
245.314270
 20
134.930283
 11
245.574463
 21
137.904617
  0
LINE
  8
0
 10
233.250107
 20
132.199951
 11
233.805161
 21
138.543564
  0
LINE
  8
0
 10
273.000000
 20
136.674057
 11
273.000000
 21
135.500031
  0
LINE
  8
0
 10
282.500000
 20
136.674057
 11
282.500000
 21
135.500031
  0
LINE
  8
0
 10
273.000000
 20
135.500000
 11
282.500000
 21
135.500000
  0
LINE
  8
0
 10
273.250000
 20
135.500031
 11
273.250000
 21
134.200027
  0
LINE
  8
0
 10
282.250000
 20
135.500031
 11
282.250000
 21
134.200027
  0
LINE
  8
0
 10
235.000000
 20
136.674057
 11
235.000000
 21
135.500031
  0
LINE
  8
0
 10
244.500000
 20
136.674057
 11
244.500000
 21
135.500031
  0
LINE
  8
0
 10
235.000000
 20
135.500000
 11
244.500000
 21
135.500000
  0
LINE
  8
0
 10
235.250000
 20
135.500031
 11
235.250000
 21
134.200027
  0
LINE
  8
0
 10
244.250000
 20
135.500031
 11
244.250000
 21
134.200027
  0
LINE
  8
0
 10
284.075012
 20
-6.200012
 11
272.983032
 21
-6.200012
  0
LINE
  8
0
 10
284.250000
 20
-4.200012
 11
233.250000
 21
-4.200012
  0
LINE
  8
0
 10
284.250000
 20
-4.200005
 11
284.250000
 21
-3.000015
  0
LINE
  8
0
 10
233.250000
 20
-4.200005
 11
233.250000
 21
-3.000015
  0
LINE
  8
0
 10
244.516968
 20
-6.200012
 11
233.424988
 21
-6.200012
  0
LINE
  8
0
 10
284.249847
 20
-4.199968
 11
283.694855
 21
-10.543565
  0
LINE
  8
0
 10
272.185822
 20
-6.930293
 11
271.925629
 21
-9.904605
  0
LINE
  8
0
 10
245.314102
 20
-6.930270
 11
245.574295
 21
-9.904583
  0
LINE
  8
0
 10
233.249527
 20
-4.200037
 11
233.804581
 21
-10.543621
  0
LINE
  8
0
 10
273.000000
 20
-8.674026
 11
273.000000
 21
-7.500008
  0
LINE
  8
0
 10
282.500000
 20
-8.674026
 11
282.500000
 21
-7.500008
  0
LINE
  8
0
 10
273.000000
 20
-7.500000
 11
282.500000
 21
-7.500000
  0
LINE
  8
0
 10
273.250000
 20
-7.500008
 11
273.250000
 21
-6.200012
  0
LINE
  8
0
 10
282.250000
 20
-7.500008
 11
282.250000
 21
-6.200012
  0
LINE
  8
0
 10
235.000000
 20
-8.674026
 11
235.000000
 21
-7.500008
  0
LINE
  8
0
 10
244.500000
 20
-8.674026
 11
244.500000
 21
-7.500008
  0
LINE
  8
0
 10
235.000000
 20
-7.500000
 11
244.500000
 21
-7.500000
  0
LINE
  8
0
 10
235.250000
 20
-7.500008
 11
235.250000
 21
-6.200012
  0
LINE
  8
0
 10
244.250000
 20
-7.500008
 11
244.250000
 21
-6.200012
  0
LINE
  8
0
 10
265.250000
 20
144.000000
 11
252.250000
 21
144.000000
  0
LINE
  8
0
 10
266.255554
 20
143.419495
 11
266.255554
 21
139.580582
  0
LINE
  8
0
 10
251.244446
 20
143.419449
 11
251.244446
 21
139.580582
  0
LINE
  8
0
 10
262.502808
 20
143.419495
 11
262.502808
 21
139.580566
  0
LINE
  8
0
 10
254.997253
 20
143.419495
 11
254.997253
 21
139.580582
  0
LINE
  8
0
 10
265.249969
 20
143.999832
 11
266.255554
 21
143.419266
  0
LINE
  8
0
 10
252.249847
 20
144.000458
 11
251.244324
 21
143.419937
  0
LINE
  8
0
 10
265.249786
 20
139.000412
 11
266.255371
 21
139.580963
  0
LINE
  8
0
 10
252.249939
 20
139.000153
 11
251.244476
 21
139.580658
  0
LINE
  8
0
 10
262.250000
 20
148.500061
 11
255.250000
 21
148.500061
  0
LINE
  8
0
 10
254.750000
 20
148.000031
 11
254.750000
 21
144.000031
  0
LINE
  8
0
 10
262.750000
 20
148.000031
 11
262.750000
 21
144.000031
  0
LINE
  8
0
 10
262.749939
 20
148.000000
 11
262.249969
 21
148.500000
  0
LINE
  8
0
 10
254.750519
 20
147.999481
 11
255.250549
 21
148.499512
  0
LINE
  8
0
 10
262.750000
 20
148.000031
 11
254.750000
 21
148.000031
  0
LINE
  8
0
 62
     2
 10
262.073486
 20
148.500015
 11
262.073486
 21
144.000031
  0
LINE
  8
0
 62
     2
 10
255.426514
 20
148.500015
 11
255.426514
 21
144.000031
  0
LINE
  8
0
 10
283.196899
 20
-11.000000
 11
234.303101
 21
-11.000000
  0
LINE
  8
0
 10
265.250000
 20
-16.000000
 11
252.250000
 21
-16.000000
  0
LINE
  8
0
 10
266.255554
 20
-15.419456
 11
266.255554
 21
-11.580566
  0
LINE
  8
0
 10
251.244446
 20
-15.419441
 11
251.244446
 21
-11.580566
  0
LINE
  8
0
 10
262.502808
 20
-15.419456
 11
262.502808
 21
-11.580551
  0
LINE
  8
0
 10
254.997253
 20
-15.419456
 11
254.997253
 21
-11.580566
  0
LINE
  8
0
 10
265.249939
 20
-15.999892
 11
266.255493
 21
-15.419379
  0
LINE
  8
0
 10
252.249969
 20
-16.000105
 11
251.244400
 21
-15.419559
  0
LINE
  8
0
 10
265.249969
 20
-11.000087
 11
266.255554
 21
-11.580638
  0
LINE
  8
0
 10
252.249908
 20
-10.999890
 11
251.244385
 21
-11.580412
  0
LINE
  8
0
 10
262.250000
 20
-20.500000
 11
255.250000
 21
-20.500000
  0
LINE
  8
0
 10
254.750000
 20
-20.000008
 11
254.750000
 21
-16.000008
  0
LINE
  8
0
 10
262.750000
 20
-20.000008
 11
262.750000
 21
-16.000008
  0
LINE
  8
0
 10
262.750153
 20
-20.000193
 11
262.250214
 21
-20.500162
  0
LINE
  8
0
 10
254.750046
 20
-20.000013
 11
255.249954
 21
-20.499990
  0
LINE
  8
0
 10
262.750000
 20
-20.000000
 11
254.750000
 21
-20.000000
  0
LINE
  8
0
 62
     2
 10
262.073486
 20
-20.500015
 11
262.073486
 21
-16.000008
  0
LINE
  8
0
 62
     2
 10
255.426514
 20
-20.500015
 11
255.426514
 21
-16.000008
  0
LINE
  8
0
 10
297.750000
 20
95.999985
 11
297.750000
 21
31.999996
  0
LINE
  8
0
 10
297.750000
 20
96.000000
 11
284.750000
 21
96.000000
  0
LINE
  8
0
 10
297.750000
 20
85.166016
 11
284.750000
 21
85.166016
  0
LINE
  8
0
 10
297.750000
 20
42.833984
 11
284.750000
 21
42.833984
  0
LINE
  8
0
 10
297.750000
 20
32.000000
 11
284.750000
 21
32.000000
  0
LINE
  8
0
  6
CENTER
 62
     2
 10
291.250000
 20
71.142845
 11
291.250000
 21
57.142853
  0
LINE
  8
0
 10
377.750000
 20
75.000000
 11
377.750000
 21
52.999992
  0
LINE
  8
0
 10
377.750000
 20
53.000000
 11
371.750000
 21
53.000000
  0
LINE
  8
0
 10
377.750000
 20
75.000000
 11
371.750000
 21
75.000000
  0
LINE
  8
0
 10
376.750000
 20
75.000000
 11
376.750000
 21
52.999992
  0
LINE
  8
0
 10
371.750000
 20
84.799988
 11
371.750000
 21
75.000000
  0
LINE
  8
0
 10
371.750000
 20
52.999992
 11
371.750000
 21
43.200012
  0
LINE
  8
0
 10
371.750000
 20
84.799988
 11
354.750000
 21
84.799988
  0
LINE
  8
0
 10
371.750000
 20
43.200012
 11
354.750000
 21
43.200012
  0
LINE
  8
0
 62
     4
 10
198.750000
 20
69.287567
 11
198.750000
 21
58.712448
  0
LINE
  8
0
 62
     4
 10
224.750000
 20
57.500000
 11
211.750000
 21
57.500000
  0
LINE
  8
0
 62
     4
 10
224.750000
 20
70.500000
 11
211.750000
 21
70.500000
  0
LINE
  8
0
 62
     4
 10
199.450012
 20
70.500000
 11
199.450012
 21
57.500008
  0
LINE
  8
0
 62
     4
 10
199.449951
 20
70.500046
 11
198.749939
 21
69.287621
  0
LINE
  8
0
 62
     4
 10
199.449799
 20
57.499905
 11
198.749817
 21
58.712299
  0
LINE
  8
0
 62
     4
 10
221.750000
 20
70.500000
 11
221.750000
 21
66.598076
  0
LINE
  8
0
 62
     4
 10
221.750000
 20
66.598083
 11
211.750000
 21
66.598083
  0
LINE
  8
0
 62
     4
 10
221.750000
 20
61.401917
 11
211.750000
 21
61.401917
  0
LINE
  8
0
 62
     4
 10
221.750000
 20
61.401917
 11
221.750000
 21
57.500008
  0
LINE
  8
0
 62
     4
 10
199.450165
 20
66.597931
 11
198.750137
 21
65.897896
  0
LINE
  8
0
 62
     4
 10
199.449966
 20
61.401836
 11
198.749954
 21
62.101803
  0
LINE
  8
0
 62
     4
 10
221.750443
 20
66.597878
 11
224.003372
 21
70.500015
  0
LINE
  8
0
 62
     4
 10
221.750443
 20
61.402176
 11
224.003281
 21
57.500069
  0
LINE
  8
0
 62
     1
 10
221.750000
 20
58.082520
 11
211.750000
 21
58.082520
  0
LINE
  8
0
 62
     1
 10
221.750000
 20
69.917511
 11
211.750000
 21
69.917511
  0
LINE
  8
0
 62
     1
 10
221.750290
 20
69.917168
 11
222.759171
 21
70.499680
  0
LINE
  8
0
 62
     1
 10
221.750015
 20
58.082474
 11
222.758926
 21
57.499996
  0
LINE
  8
0
 62
     4
 10
211.750000
 20
73.499985
 11
211.750000
 21
54.500000
  0
LINE
  8
0
 62
     4
 10
203.750000
 20
70.500000
 11
199.450012
 21
70.500000
  0
LINE
  8
0
 62
     1
 10
203.750000
 20
69.917511
 11
199.113708
 21
69.917511
  0
LINE
  8
0
 62
     4
 10
203.750000
 20
66.598083
 11
199.450012
 21
66.598083
  0
LINE
  8
0
 62
     4
 10
203.750000
 20
61.401917
 11
199.450012
 21
61.401917
  0
LINE
  8
0
 62
     1
 10
203.750000
 20
58.082520
 11
199.113708
 21
58.082520
  0
LINE
  8
0
 62
     4
 10
203.750000
 20
57.500000
 11
199.450012
 21
57.500000
  0
LINE
  8
0
 62
     4
 10
210.901489
 20
74.969666
 11
204.598511
 21
74.969666
  0
LINE
  8
0
 62
     4
 10
210.901489
 20
69.484802
 11
204.598511
 21
69.484802
  0
LINE
  8
0
 62
     4
 10
210.901489
 20
58.515167
 11
204.598511
 21
58.515167
  0
LINE
  8
0
 62
     4
 10
211.750000
 20
73.499947
 11
210.901505
 21
74.969612
  0
LINE
  8
0
 62
     4
 10
211.749664
 20
54.500179
 11
210.901154
 21
53.030514
  0
LINE
  8
0
 62
     4
 10
210.901489
 20
53.030334
 11
204.598511
 21
53.030334
  0
LINE
  8
0
 62
     4
 10
203.749954
 20
54.499943
 11
204.598450
 21
53.030277
  0
LINE
  8
0
 62
     4
 10
203.750000
 20
73.499985
 11
203.750000
 21
54.500000
  0
LINE
  8
0
 62
     4
 10
203.749893
 20
73.500130
 11
204.598419
 21
74.969795
  0
LINE
  8
0
 10
365.750000
 20
84.799988
 11
365.750000
 21
43.200012
  0
LINE
  8
0
 10
224.750000
 20
37.000000
 11
232.750000
 21
37.000000
  0
LINE
  8
0
 10
224.750000
 20
91.000000
 11
224.750000
 21
37.000000
  0
LINE
  8
0
 10
224.750000
 20
91.000000
 11
232.750000
 21
91.000000
  0
LINE
  8
0
 10
224.750000
 20
89.000000
 11
232.750000
 21
89.000000
  0
LINE
  8
0
  6
CENTER
 62
     2
 10
223.366333
 20
84.000000
 11
235.338135
 21
84.000000
  0
LINE
  8
0
  6
CENTER
 62
     2
 10
223.366333
 20
44.000000
 11
235.338135
 21
44.000000
  0
LINE
  8
0
 10
224.750000
 20
39.000000
 11
232.750000
 21
39.000000
  0
LINE
  8
0
 62
     4
 10
322.250000
 20
89.000000
 11
331.250000
 21
89.000000
  0
LINE
  8
0
 62
     4
 10
324.750000
 20
92.500000
 11
328.750000
 21
92.500000
  0
LINE
  8
0
 62
     4
 10
324.500000
 20
94.999992
 11
329.000000
 21
94.999992
  0
LINE
  8
0
 62
     4
 10
321.750000
 20
95.999992
 11
324.500000
 21
95.999992
  0
LINE
  8
0
 62
     4
 10
321.750000
 20
89.500000
 11
321.750000
 21
95.999992
  0
LINE
  8
0
 62
     4
 10
331.750000
 20
89.500000
 11
331.750000
 21
95.999992
  0
LINE
  8
0
 62
     4
 10
324.750000
 20
94.999992
 11
324.750000
 21
92.500000
  0
LINE
  8
0
 62
     4
 10
328.750000
 20
94.999992
 11
328.750000
 21
92.500000
  0
LINE
  8
0
 62
     4
 10
324.500000
 20
95.999992
 11
324.500000
 21
94.385490
  0
LINE
  8
0
 62
     4
 10
329.000000
 20
95.999992
 11
329.000000
 21
94.385490
  0
LINE
  8
0
 62
     4
 10
329.000000
 20
95.999992
 11
331.750000
 21
95.999992
  0
LINE
  8
0
 62
     4
 10
324.323273
 20
93.999992
 11
324.750000
 21
93.999992
  0
LINE
  8
0
 62
     4
 10
328.750000
 20
93.999992
 11
329.176697
 21
93.999992
  0
LINE
  8
0
 62
     4
 10
331.750000
 20
91.685486
 11
337.750000
 21
91.685486
  0
LINE
  8
0
 62
     4
 10
322.750000
 20
43.049988
 11
330.750000
 21
43.049988
  0
LINE
  8
0
 62
     4
 10
322.750000
 20
89.000000
 11
322.750000
 21
43.049988
  0
LINE
  8
0
 62
     4
 10
330.750000
 20
89.000000
 11
330.750000
 21
43.049988
  0
LINE
  8
0
 62
     4
 10
339.750000
 20
86.485504
 11
344.750000
 21
86.485504
  0
LINE
  8
0
 62
     1
 10
328.000000
 20
96.985497
 11
328.000000
 21
94.999992
  0
LINE
  8
0
 62
     4
 10
255.949997
 20
116.000000
 11
255.949997
 21
124.000000
  0
LINE
  8
0
 62
     4
 10
271.750000
 20
121.500000
 11
271.250000
 21
121.500000
  0
LINE
  8
0
 62
     4
 10
271.750000
 20
118.500000
 11
271.250000
 21
118.500000
  0
LINE
  8
0
 62
     4
 10
271.250000
 20
123.000000
 11
256.750000
 21
123.000000
  0
LINE
  8
0
 62
     4
 10
271.250000
 20
117.000000
 11
256.750000
 21
117.000000
  0
LINE
  8
0
 62
     4
 10
284.750000
 20
124.000000
 11
255.949997
 21
124.000000
  0
LINE
  8
0
 62
     4
 10
284.750000
 20
116.000000
 11
255.949997
 21
116.000000
  0
LINE
  8
0
 62
     4
 10
284.750000
 20
116.000000
 11
284.750000
 21
124.000000
  0
LINE
  8
0
 62
     4
 10
272.750000
 20
116.000000
 11
272.750000
 21
124.000000
  0
LINE
  8
0
 62
     4
 10
271.250000
 20
117.000000
 11
271.250000
 21
123.000000
  0
LINE
  8
0
 62
     4
 10
271.750000
 20
118.500000
 11
271.750000
 21
121.500000
  0
LINE
  8
0
 62
     4
 10
256.750000
 20
117.000000
 11
256.750000
 21
123.000000
  0
LINE
  8
0
 62
     4
 10
266.689301
 20
118.939308
 11
268.810608
 21
121.060631
  0
LINE
  8
0
 62
     4
 10
268.810669
 20
118.939369
 11
266.689362
 21
121.060692
  0
LINE
  8
0
 62
     4
 10
256.750000
 20
130.250000
 11
256.750000
 21
124.000000
  0
LINE
  8
0
 62
     4
 10
259.883972
 20
131.750000
 11
257.616028
 21
131.750000
  0
LINE
  8
0
 62
     4
 10
256.749969
 20
130.249969
 11
257.615997
 21
131.749985
  0
LINE
  8
0
 62
     4
 10
260.750031
 20
130.250031
 11
259.884003
 21
131.750031
  0
LINE
  8
0
 62
     4
 10
260.750000
 20
130.250000
 11
260.750000
 21
124.000000
  0
LINE
  8
0
 62
     4
 10
260.750000
 20
130.250000
 11
256.750000
 21
130.250000
  0
LINE
  8
0
 62
     4
 10
260.750000
 20
109.750000
 11
256.750000
 21
109.750000
  0
LINE
  8
0
 62
     4
 10
260.250000
 20
108.750000
 11
257.250000
 21
108.750000
  0
LINE
  8
0
 62
     4
 10
257.250000
 20
108.750000
 11
257.250000
 21
103.750000
  0
LINE
  8
0
 62
     4
 10
260.250000
 20
108.750000
 11
260.250000
 21
103.750000
  0
LINE
  8
0
 62
     4
 10
260.749908
 20
109.750038
 11
260.249908
 21
108.750031
  0
LINE
  8
0
 62
     4
 10
256.750000
 20
109.750000
 11
257.250000
 21
108.750008
  0
LINE
  8
0
 62
     4
 10
256.750000
 20
116.000000
 11
256.750000
 21
109.750000
  0
LINE
  8
0
 62
     4
 10
260.750000
 20
116.000000
 11
260.750000
 21
109.750000
  0
LINE
  8
0
 62
     4
 10
260.750000
 20
-2.250000
 11
256.750000
 21
-2.250000
  0
LINE
  8
0
 62
     4
 10
260.750000
 20
18.250000
 11
256.750000
 21
18.250000
  0
LINE
  8
0
 62
     4
 10
260.250000
 20
19.250000
 11
257.250000
 21
19.250000
  0
LINE
  8
0
 62
     4
 10
260.750000
 20
12.000000
 11
260.750000
 21
18.250000
  0
LINE
  8
0
 62
     4
 10
256.750000
 20
12.000000
 11
256.750000
 21
18.250000
  0
LINE
  8
0
 62
     4
 10
256.750031
 20
18.249992
 11
257.250031
 21
19.249983
  0
LINE
  8
0
 62
     4
 10
260.749969
 20
18.249973
 11
260.249969
 21
19.249981
  0
LINE
  8
0
 62
     4
 10
260.250000
 20
19.250000
 11
260.250000
 21
24.250000
  0
LINE
  8
0
 62
     4
 10
257.250000
 20
19.250000
 11
257.250000
 21
24.250000
  0
LINE
  8
0
 62
     4
 10
260.750000
 20
-2.250000
 11
260.750000
 21
4.000000
  0
LINE
  8
0
 62
     4
 10
255.949997
 20
12.000000
 11
255.949997
 21
4.000000
  0
LINE
  8
0
 62
     4
 10
271.750000
 20
6.500000
 11
271.250000
 21
6.500000
  0
LINE
  8
0
 62
     4
 10
271.750000
 20
9.500000
 11
271.250000
 21
9.500000
  0
LINE
  8
0
 62
     4
 10
271.250000
 20
5.000000
 11
256.750000
 21
5.000000
  0
LINE
  8
0
 62
     4
 10
271.250000
 20
11.000000
 11
256.750000
 21
11.000000
  0
LINE
  8
0
 62
     4
 10
284.750000
 20
4.000000
 11
255.949997
 21
4.000000
  0
LINE
  8
0
 62
     4
 10
284.750000
 20
12.000000
 11
255.949997
 21
12.000000
  0
LINE
  8
0
 62
     4
 10
284.750000
 20
12.000000
 11
284.750000
 21
4.000000
  0
LINE
  8
0
 62
     4
 10
272.750000
 20
12.000000
 11
272.750000
 21
4.000000
  0
LINE
  8
0
 62
     4
 10
271.250000
 20
11.000000
 11
271.250000
 21
5.000000
  0
LINE
  8
0
 62
     4
 10
271.750000
 20
9.500000
 11
271.750000
 21
6.500000
  0
LINE
  8
0
 62
     4
 10
256.750000
 20
11.000000
 11
256.750000
 21
5.000000
  0
LINE
  8
0
 62
     4
 10
266.689331
 20
9.060637
 11
268.810638
 21
6.939316
  0
LINE
  8
0
 62
     4
 10
268.810669
 20
9.060658
 11
266.689331
 21
6.939338
  0
LINE
  8
0
 62
     4
 10
256.750000
 20
-2.250000
 11
256.750000
 21
4.000000
  0
LINE
  8
0
 62
     4
 10
259.883972
 20
-3.750000
 11
257.616028
 21
-3.750000
  0
LINE
  8
0
 62
     4
 10
256.749847
 20
-2.250089
 11
257.615875
 21
-3.750092
  0
LINE
  8
0
 62
     4
 10
260.750000
 20
-2.250014
 11
259.883972
 21
-3.750011
  0
LINE
  8
0
 62
     4
 10
339.750000
 20
89.885498
 11
344.750000
 21
89.885498
  0
LINE
  8
0
 62
     4
 10
330.750000
 20
85.185486
 11
337.750000
 21
85.185486
  0
LINE
  8
0
 62
     4
 10
353.350006
 20
31.014503
 11
348.149994
 21
31.014503
  0
LINE
  8
0
 62
     4
 10
352.550018
 20
29.014503
 11
351.050018
 21
29.014503
  0
LINE
  8
0
 62
     4
 10
348.149994
 20
29.814507
 11
348.149994
 21
31.014503
  0
LINE
  8
0
 62
     4
 10
353.350006
 20
29.814507
 11
353.350006
 21
31.014503
  0
LINE
  8
0
 62
     4
 10
351.050018
 20
30.014503
 11
351.050018
 21
29.014503
  0
LINE
  8
0
 62
     4
 10
350.449982
 20
30.014503
 11
350.449982
 21
29.014503
  0
LINE
  8
0
 62
     4
 10
351.050018
 20
30.014503
 11
350.449982
 21
30.014503
  0
LINE
  8
0
 62
     4
 10
350.449982
 20
29.014503
 11
348.950012
 21
29.014503
  0
LINE
  8
0
 62
     4
 10
361.750000
 20
36.314514
 11
355.750000
 21
36.314514
  0
LINE
  8
0
 62
     4
 10
339.750000
 20
36.314514
 11
339.750000
 21
43.200012
  0
LINE
  8
0
 62
     4
 10
361.750000
 20
36.314514
 11
361.750000
 21
43.200012
  0
LINE
  8
0
 62
     4
 10
361.750000
 20
42.814514
 11
354.750000
 21
42.814514
  0
LINE
  8
0
 62
     4
 10
360.250000
 20
36.314514
 11
360.250000
 21
35.814514
  0
LINE
  8
0
 62
     4
 10
356.250000
 20
36.314514
 11
356.250000
 21
35.814514
  0
LINE
  8
0
 62
     4
 10
360.250000
 20
35.814514
 11
356.250000
 21
35.814514
  0
LINE
  8
0
 62
     4
 10
356.292267
 20
35.741390
 11
356.250061
 21
35.814491
  0
LINE
  8
0
 62
     4
 10
360.207794
 20
35.741383
 11
360.250031
 21
35.814510
  0
LINE
  8
0
 62
     4
 10
339.750000
 20
37.314514
 11
337.750000
 21
37.314514
  0
LINE
  8
0
 62
     4
 10
339.750000
 20
42.314514
 11
337.750000
 21
42.314514
  0
LINE
  8
0
 62
     4
 10
337.750000
 20
37.314514
 11
337.750000
 21
42.314514
  0
LINE
  8
0
 62
     4
 10
349.250000
 20
31.014503
 11
349.250000
 21
32.000008
  0
LINE
  8
0
 62
     4
 10
352.250000
 20
31.014503
 11
352.250000
 21
32.000008
  0
LINE
  8
0
 62
     1
 10
352.000000
 20
31.014503
 11
352.000000
 21
32.000008
  0
LINE
  8
0
 62
     1
 10
349.500000
 20
31.014503
 11
349.500000
 21
32.000008
  0
LINE
  8
0
 62
     4
 10
355.250000
 20
39.000000
 11
346.250000
 21
39.000000
  0
LINE
  8
0
 62
     4
 10
355.750000
 20
38.500000
 11
355.750000
 21
32.000008
  0
LINE
  8
0
 62
     4
 10
345.750000
 20
38.500000
 11
345.750000
 21
32.000008
  0
LINE
  8
0
 62
     4
 10
355.750000
 20
32.000008
 11
345.750000
 21
32.000008
  0
LINE
  8
0
 62
     4
 10
345.750000
 20
36.314514
 11
339.750000
 21
36.314514
  0
LINE
  8
0
 62
     4
 10
354.750000
 20
84.950012
 11
346.750000
 21
84.950012
  0
LINE
  8
0
 62
     4
 10
354.750000
 20
39.000000
 11
354.750000
 21
84.950012
  0
LINE
  8
0
 62
     4
 10
346.750000
 20
39.000000
 11
346.750000
 21
84.950012
  0
LINE
  8
0
 62
     4
 10
346.750000
 20
42.814514
 11
339.750000
 21
42.814514
  0
LINE
  8
0
 62
     4
 10
337.750000
 20
38.114502
 11
332.750000
 21
38.114502
  0
LINE
  8
0
 62
     4
 10
337.750000
 20
41.514496
 11
332.750000
 21
41.514496
  0
LINE
  8
0
 62
     4
 10
324.149994
 20
96.985497
 11
329.349976
 21
96.985497
  0
LINE
  8
0
 62
     4
 10
324.950012
 20
98.985497
 11
326.450012
 21
98.985497
  0
LINE
  8
0
 62
     4
 10
329.349976
 20
98.185493
 11
329.349976
 21
96.985497
  0
LINE
  8
0
 62
     4
 10
324.149994
 20
98.185493
 11
324.149994
 21
96.985497
  0
LINE
  8
0
 62
     4
 10
326.450012
 20
97.985497
 11
326.450012
 21
98.985497
  0
LINE
  8
0
 62
     4
 10
327.049988
 20
97.985497
 11
327.049988
 21
98.985497
  0
LINE
  8
0
 62
     4
 10
326.450012
 20
97.985497
 11
327.049988
 21
97.985497
  0
LINE
  8
0
 62
     4
 10
327.049988
 20
98.985497
 11
328.549988
 21
98.985497
  0
LINE
  8
0
 62
     4
 10
315.750000
 20
91.685486
 11
321.750000
 21
91.685486
  0
LINE
  8
0
 62
     4
 10
337.750000
 20
91.685486
 11
337.750000
 21
84.799988
  0
LINE
  8
0
 62
     4
 10
315.750000
 20
91.685486
 11
315.750000
 21
84.799988
  0
LINE
  8
0
 62
     4
 10
315.750000
 20
85.185486
 11
322.750000
 21
85.185486
  0
LINE
  8
0
 62
     4
 10
317.250000
 20
91.685486
 11
317.250000
 21
92.185486
  0
LINE
  8
0
 62
     4
 10
321.250000
 20
91.685486
 11
321.250000
 21
92.185486
  0
LINE
  8
0
 62
     4
 10
317.250000
 20
92.185486
 11
321.250000
 21
92.185486
  0
LINE
  8
0
 62
     4
 10
321.207764
 20
92.258614
 11
321.249969
 21
92.185493
  0
LINE
  8
0
 62
     4
 10
317.292236
 20
92.258583
 11
317.250031
 21
92.185478
  0
LINE
  8
0
 62
     4
 10
337.750000
 20
90.685486
 11
339.750000
 21
90.685486
  0
LINE
  8
0
 62
     4
 10
337.750000
 20
85.685486
 11
339.750000
 21
85.685486
  0
LINE
  8
0
 62
     4
 10
339.750000
 20
90.685486
 11
339.750000
 21
85.685486
  0
LINE
  8
0
 62
     4
 10
328.250000
 20
96.985497
 11
328.250000
 21
94.999992
  0
LINE
  8
0
 62
     4
 10
325.250000
 20
96.985497
 11
325.250000
 21
94.999992
  0
LINE
  8
0
 62
     1
 10
325.500000
 20
96.985497
 11
325.500000
 21
94.999992
  0
LINE
  8
0
 10
322.750000
 20
84.799988
 11
297.750000
 21
84.799988
  0
LINE
  8
0
 10
346.750000
 20
84.799988
 11
330.750000
 21
84.799988
  0
LINE
  8
0
 10
322.750000
 20
43.200012
 11
297.750000
 21
43.200012
  0
LINE
  8
0
 10
346.750000
 20
43.200012
 11
330.750000
 21
43.200012
  0
LINE
  8
0
 10
257.183075
 20
131.000061
 11
232.750000
 21
131.000061
  0
LINE
  8
0
 10
257.182739
 20
-3.000000
 11
232.750000
 21
-3.000000
  0
LINE
  8
0
  6
CENTER
 62
     2
 10
74.083374
 20
142.382980
 11
74.083374
 21
-14.117813
  0
LINE
  8
0
 10
47.083374
 20
131.000046
 11
47.083374
 21
91.000000
  0
LINE
  8
0
 10
101.083374
 20
131.000046
 11
101.083374
 21
91.000000
  0
LINE
  8
0
 10
47.083252
 20
-3.000000
 11
101.083374
 21
-3.000000
  0
LINE
  8
0
 10
47.083252
 20
131.000061
 11
101.083374
 21
131.000061
  0
LINE
  8
0
 10
47.583374
 20
132.200027
 11
47.583374
 21
131.000031
  0
LINE
  8
0
 10
100.583252
 20
132.200027
 11
100.583252
 21
131.000031
  0
LINE
  8
0
 10
47.583374
 20
132.200012
 11
100.583252
 21
132.200012
  0
LINE
  8
0
 10
48.636475
 20
139.000000
 11
99.530273
 21
139.000000
  0
LINE
  8
0
 10
47.758301
 20
134.200043
 11
58.850342
 21
134.200043
  0
LINE
  8
0
 10
89.316406
 20
134.200043
 11
100.408325
 21
134.200043
  0
LINE
  8
0
 10
47.583702
 20
132.199921
 11
48.138756
 21
138.543503
  0
LINE
  8
0
 10
59.646202
 20
134.930374
 11
59.906456
 21
137.904724
  0
LINE
  8
0
 10
88.518532
 20
134.930252
 11
88.258278
 21
137.904556
  0
LINE
  8
0
 10
100.583641
 20
132.200027
 11
100.028587
 21
138.543610
  0
LINE
  8
0
 10
58.833374
 20
136.674057
 11
58.833374
 21
135.500031
  0
LINE
  8
0
 10
49.333252
 20
136.674057
 11
49.333252
 21
135.500031
  0
LINE
  8
0
 10
58.833374
 20
135.500000
 11
49.333252
 21
135.500000
  0
LINE
  8
0
 10
58.583374
 20
135.500031
 11
58.583374
 21
134.200027
  0
LINE
  8
0
 10
49.583374
 20
135.500031
 11
49.583374
 21
134.200027
  0
LINE
  8
0
 10
98.833374
 20
136.674057
 11
98.833374
 21
135.500031
  0
LINE
  8
0
 10
89.333252
 20
136.674057
 11
89.333252
 21
135.500031
  0
LINE
  8
0
 10
98.833252
 20
135.500000
 11
89.333252
 21
135.500000
  0
LINE
  8
0
 10
98.583374
 20
135.500031
 11
98.583374
 21
134.200027
  0
LINE
  8
0
 10
89.583374
 20
135.500031
 11
89.583374
 21
134.200027
  0
LINE
  8
0
 10
47.583374
 20
-4.200005
 11
47.583374
 21
-3.000015
  0
LINE
  8
0
 10
100.583252
 20
-4.200005
 11
100.583252
 21
-3.000015
  0
LINE
  8
0
 10
47.583374
 20
-4.200012
 11
100.583252
 21
-4.200012
  0
LINE
  8
0
 10
48.636475
 20
-11.000000
 11
99.530273
 21
-11.000000
  0
LINE
  8
0
 10
47.758301
 20
-6.200012
 11
58.850342
 21
-6.200012
  0
LINE
  8
0
 10
89.316406
 20
-6.200012
 11
100.408325
 21
-6.200012
  0
LINE
  8
0
 10
47.583565
 20
-4.199984
 11
48.138496
 21
-10.543555
  0
LINE
  8
0
 10
59.646854
 20
-6.930334
 11
59.907104
 21
-9.904641
  0
LINE
  8
0
 10
88.519562
 20
-6.930302
 11
88.259430
 21
-9.904620
  0
LINE
  8
0
 10
100.583221
 20
-4.200002
 11
100.028168
 21
-10.543586
  0
LINE
  8
0
 10
58.833374
 20
-8.674026
 11
58.833374
 21
-7.500008
  0
LINE
  8
0
 10
49.333252
 20
-8.674026
 11
49.333252
 21
-7.500008
  0
LINE
  8
0
 10
58.833374
 20
-7.500000
 11
49.333252
 21
-7.500000
  0
LINE
  8
0
 10
58.583374
 20
-7.500008
 11
58.583374
 21
-6.200012
  0
LINE
  8
0
 10
49.583374
 20
-7.500008
 11
49.583374
 21
-6.200012
  0
LINE
  8
0
 10
98.833374
 20
-8.674026
 11
98.833374
 21
-7.500008
  0
LINE
  8
0
 10
89.333252
 20
-8.674026
 11
89.333252
 21
-7.500008
  0
LINE
  8
0
 10
98.833252
 20
-7.500000
 11
89.333252
 21
-7.500000
  0
LINE
  8
0
 10
98.583374
 20
-7.500008
 11
98.583374
 21
-6.200012
  0
LINE
  8
0
 10
89.583374
 20
-7.500008
 11
89.583374
 21
-6.200012
  0
LINE
  8
0
 10
82.083252
 20
-16.000000
 11
95.083374
 21
-16.000000
  0
LINE
  8
0
 10
85.083374
 20
-20.500000
 11
92.083374
 21
-20.500000
  0
LINE
  8
0
 10
92.583374
 20
-20.000008
 11
92.583374
 21
-16.000008
  0
LINE
  8
0
 10
84.583252
 20
-20.000008
 11
84.583252
 21
-16.000008
  0
LINE
  8
0
 10
84.583641
 20
-19.999865
 11
85.083542
 21
-20.499863
  0
LINE
  8
0
 10
92.583481
 20
-20.000202
 11
92.083488
 21
-20.500195
  0
LINE
  8
0
 10
84.583252
 20
-20.000000
 11
92.583374
 21
-20.000000
  0
LINE
  8
0
 62
     2
 10
85.259766
 20
-20.500015
 11
85.259766
 21
-16.000008
  0
LINE
  8
0
 62
     2
 10
91.906860
 20
-20.500015
 11
91.906860
 21
-16.000008
  0
LINE
  8
0
 10
95.083374
 20
-11.000008
 11
95.083374
 21
-16.000008
  0
LINE
  8
0
 10
82.083252
 20
-11.000008
 11
82.083252
 21
-16.000008
  0
LINE
  8
0
 10
88.583374
 20
-11.580566
 11
88.583374
 21
-15.419456
  0
LINE
  8
0
 10
82.083252
 20
144.000000
 11
95.083374
 21
144.000000
  0
LINE
  8
0
 10
85.083374
 20
148.500061
 11
92.083374
 21
148.500061
  0
LINE
  8
0
 10
92.583374
 20
148.000031
 11
92.583374
 21
144.000031
  0
LINE
  8
0
 10
84.583252
 20
148.000031
 11
84.583252
 21
144.000031
  0
LINE
  8
0
 10
84.583511
 20
147.999924
 11
85.083527
 21
148.499893
  0
LINE
  8
0
 10
92.583542
 20
148.000076
 11
92.083542
 21
148.500046
  0
LINE
  8
0
 10
84.583252
 20
148.000031
 11
92.583374
 21
148.000031
  0
LINE
  8
0
 62
     2
 10
85.259766
 20
148.500015
 11
85.259766
 21
144.000031
  0
LINE
  8
0
 62
     2
 10
91.906860
 20
148.500015
 11
91.906860
 21
144.000031
  0
LINE
  8
0
 10
95.083374
 20
139.000031
 11
95.083374
 21
144.000031
  0
LINE
  8
0
 10
82.083252
 20
139.000031
 11
82.083252
 21
144.000031
  0
LINE
  8
0
 10
88.583374
 20
139.580582
 11
88.583374
 21
143.419495
  0
LINE
  8
0
 62
     4
 10
74.083290
 20
74.969742
 11
64.583252
 21
69.484901
  0
LINE
  8
0
 62
     4
 10
83.583267
 20
58.515194
 11
74.083260
 21
53.030361
  0
LINE
  8
0
 62
     4
 10
83.583305
 20
69.484840
 11
74.083305
 21
74.969688
  0
LINE
  8
0
 62
     4
 10
74.083389
 20
53.030323
 11
64.583252
 21
58.515179
  0
LINE
  8
0
 62
     4
 10
83.583374
 20
69.484825
 11
83.583374
 21
58.515152
  0
LINE
  8
0
 62
     4
 10
64.583374
 20
69.484833
 11
64.583374
 21
58.515152
  0
LINE
  8
0
 10
47.083374
 20
37.000000
 11
47.083374
 21
-3.000015
  0
LINE
  8
0
 10
101.083374
 20
37.000000
 11
101.083374
 21
-3.000015
  0
LINE
  8
0
  6
CENTER
 62
     2
 10
24.032448
 20
64.000000
 11
123.453598
 21
64.000000
  0
LINE
  8
0
 10
31.083374
 20
91.000000
 11
117.083374
 21
91.000000
  0
LINE
  8
0
 10
31.083374
 20
37.000000
 11
117.083374
 21
37.000000
  0
LINE
  8
0
 10
119.083374
 20
89.000000
 11
119.083374
 21
39.000004
  0
LINE
  8
0
 10
117.083359
 20
90.999985
 11
119.083359
 21
88.999985
  0
LINE
  8
0
 10
117.083351
 20
37.000004
 11
119.083351
 21
39.000008
  0
LINE
  8
0
  6
CENTER
 62
     2
 10
104.083374
 20
84.000000
 11
114.083374
 21
84.000000
  0
LINE
  8
0
  6
CENTER
 62
     2
 10
109.083374
 20
89.000000
 11
109.083374
 21
79.000000
  0
LINE
  8
0
  6
CENTER
 62
     2
 10
104.083374
 20
44.000000
 11
114.083374
 21
44.000000
  0
LINE
  8
0
  6
CENTER
 62
     2
 10
109.083374
 20
39.000000
 11
109.083374
 21
49.000000
  0
LINE
  8
0
 10
29.083374
 20
89.000000
 11
29.083374
 21
39.000000
  0
LINE
  8
0
 10
31.083374
 20
91.000000
 11
29.083372
 21
88.999992
  0
LINE
  8
0
 10
29.083374
 20
39.000000
 11
31.083374
 21
37.000000
  0
LINE
  8
0
  6
CENTER
 62
     2
 10
44.083374
 20
84.000000
 11
34.083374
 21
84.000000
  0
LINE
  8
0
  6
CENTER
 62
     2
 10
39.083374
 20
89.000000
 11
39.083374
 21
79.000000
  0
LINE
  8
0
  6
CENTER
 62
     2
 10
44.083374
 20
44.000000
 11
34.083374
 21
44.000000
  0
LINE
  8
0
  6
CENTER
 62
     2
 10
39.083374
 20
39.000000
 11
39.083374
 21
49.000000
  0
LINE
  8
0
 62
     4
 10
105.083351
 20
18.249989
 11
104.583351
 21
19.249998
  0
LINE
  8
0
 62
     4
 10
104.583374
 20
19.250000
 11
104.583374
 21
24.250000
  0
LINE
  8
0
 62
     4
 10
101.583374
 20
19.250000
 11
101.583374
 21
24.250000
  0
LINE
  8
0
 62
     4
 10
104.583374
 20
19.250000
 11
101.583374
 21
19.250000
  0
LINE
  8
0
 62
     4
 10
105.083374
 20
18.250000
 11
101.083374
 21
18.250000
  0
LINE
  8
0
 62
     4
 10
105.083374
 20
-2.250000
 11
101.083374
 21
-2.250000
  0
LINE
  8
0
 62
     4
 10
108.055206
 20
122.800003
 11
107.083374
 21
122.800003
  0
LINE
  8
0
 62
     4
 10
108.055206
 20
117.199997
 11
107.083374
 21
117.199997
  0
LINE
  8
0
 62
     4
 10
101.583374
 20
124.000000
 11
107.083374
 21
124.000000
  0
LINE
  8
0
 62
     4
 10
101.583374
 20
116.000000
 11
107.083374
 21
116.000000
  0
LINE
  8
0
 62
     4
 10
101.583374
 20
124.000000
 11
101.583374
 21
116.000000
  0
LINE
  8
0
 62
     4
 10
107.083374
 20
124.000000
 11
107.083374
 21
116.000000
  0
LINE
  8
0
 62
     4
 10
104.217346
 20
131.750000
 11
101.949402
 21
131.750000
  0
LINE
  8
0
 62
     4
 10
101.083382
 20
130.249969
 11
101.949409
 21
131.749969
  0
LINE
  8
0
 62
     4
 10
105.083458
 20
130.250092
 11
104.217430
 21
131.750092
  0
LINE
  8
0
 62
     4
 10
105.083374
 20
130.250000
 11
105.083374
 21
124.000000
  0
LINE
  8
0
 62
     4
 10
105.083374
 20
130.250000
 11
101.083374
 21
130.250000
  0
LINE
  8
0
 62
     4
 10
105.083374
 20
109.750000
 11
101.083374
 21
109.750000
  0
LINE
  8
0
 62
     4
 10
104.583374
 20
108.750000
 11
101.583374
 21
108.750000
  0
LINE
  8
0
 62
     4
 10
101.583374
 20
108.750000
 11
101.583374
 21
103.750000
  0
LINE
  8
0
 62
     4
 10
104.583374
 20
108.750000
 11
104.583374
 21
103.750000
  0
LINE
  8
0
 62
     4
 10
105.083275
 20
109.750069
 11
104.583267
 21
108.750069
  0
LINE
  8
0
 62
     4
 10
101.083412
 20
109.750038
 11
101.583405
 21
108.750046
  0
LINE
  8
0
 62
     4
 10
101.083374
 20
130.250000
 11
101.083374
 21
109.750000
  0
LINE
  8
0
 62
     4
 10
105.083374
 20
116.000000
 11
105.083374
 21
109.750000
  0
LINE
  8
0
 62
     4
 10
105.083374
 20
12.000000
 11
105.083374
 21
18.250000
  0
LINE
  8
0
 62
     4
 10
101.083427
 20
18.249994
 11
101.583427
 21
19.249985
  0
LINE
  8
0
 62
     4
 10
108.055206
 20
5.199997
 11
107.083374
 21
5.199997
  0
LINE
  8
0
 62
     4
 10
108.055206
 20
10.800003
 11
107.083374
 21
10.800003
  0
LINE
  8
0
 62
     4
 10
101.583374
 20
4.000000
 11
107.083374
 21
4.000000
  0
LINE
  8
0
 62
     4
 10
101.583374
 20
12.000000
 11
107.083374
 21
12.000000
  0
LINE
  8
0
 62
     4
 10
101.583374
 20
4.000000
 11
101.583374
 21
12.000000
  0
LINE
  8
0
 62
     4
 10
107.083374
 20
4.000000
 11
107.083374
 21
12.000000
  0
LINE
  8
0
 62
     4
 10
101.083374
 20
-2.250000
 11
101.083374
 21
18.250000
  0
LINE
  8
0
 62
     4
 10
104.217346
 20
-3.750000
 11
101.949402
 21
-3.750000
  0
LINE
  8
0
 62
     4
 10
101.083344
 20
-2.249995
 11
101.949371
 21
-3.750000
  0
LINE
  8
0
 62
     4
 10
105.083427
 20
-2.250040
 11
104.217400
 21
-3.750045
  0
LINE
  8
0
 62
     4
 10
105.083374
 20
-2.250000
 11
105.083374
 21
4.000000
  0
LINE
  8
0
  6
CENTER
 62
     2
 10
467.416626
 20
142.575531
 11
467.416626
 21
-14.319054
  0
LINE
  8
0
  6
CENTER
 62
     2
 10
516.364624
 20
64.000000
 11
418.341705
 21
64.000000
  0
LINE
  8
0
 10
494.416687
 20
131.000015
 11
494.416687
 21
-3.000015
  0
LINE
  8
0
 10
440.416626
 20
131.000015
 11
440.416626
 21
130.249954
  0
LINE
  8
0
 10
494.416687
 20
-3.000000
 11
440.416687
 21
-3.000000
  0
LINE
  8
0
 10
494.416687
 20
131.000000
 11
440.416687
 21
131.000000
  0
LINE
  8
0
  6
CENTER
 62
     2
 10
465.416687
 20
124.500000
 11
451.416687
 21
124.500000
  0
LINE
  8
0
  6
CENTER
 62
     2
 10
458.416687
 20
131.500000
 11
458.416687
 21
117.499977
  0
LINE
  8
0
  6
CENTER
 62
     2
 10
465.416687
 20
3.500000
 11
451.416687
 21
3.500000
  0
LINE
  8
0
  6
CENTER
 62
     2
 10
458.416687
 20
-3.241989
 11
458.416687
 21
11.865318
  0
LINE
  8
0
 10
493.916626
 20
132.199997
 11
493.916626
 21
131.000015
  0
LINE
  8
0
 10
440.916687
 20
132.199997
 11
440.916687
 21
131.000015
  0
LINE
  8
0
 10
493.916626
 20
132.200012
 11
440.916687
 21
132.200012
  0
LINE
  8
0
 10
492.863586
 20
139.000000
 11
441.969727
 21
139.000000
  0
LINE
  8
0
 10
493.741699
 20
134.200012
 11
482.649780
 21
134.200012
  0
LINE
  8
0
 10
452.183594
 20
134.200012
 11
441.091675
 21
134.200012
  0
LINE
  8
0
 10
493.916595
 20
132.199997
 11
493.361603
 21
138.543579
  0
LINE
  8
0
 10
481.853485
 20
134.930374
 11
481.593231
 21
137.904694
  0
LINE
  8
0
 10
452.980865
 20
134.930283
 11
453.241119
 21
137.904602
  0
LINE
  8
0
 10
440.916534
 20
132.200012
 11
441.471588
 21
138.543594
  0
LINE
  8
0
 10
482.666626
 20
136.674026
 11
482.666626
 21
135.500015
  0
LINE
  8
0
 10
492.166687
 20
136.674026
 11
492.166687
 21
135.500015
  0
LINE
  8
0
 10
482.666626
 20
135.500000
 11
492.166687
 21
135.500000
  0
LINE
  8
0
 10
482.916626
 20
135.500015
 11
482.916626
 21
134.200012
  0
LINE
  8
0
 10
491.916687
 20
135.500015
 11
491.916687
 21
134.200012
  0
LINE
  8
0
 10
442.666626
 20
136.674026
 11
442.666626
 21
135.500015
  0
LINE
  8
0
 10
452.166687
 20
136.674026
 11
452.166687
 21
135.500015
  0
LINE
  8
0
 10
442.666687
 20
135.500000
 11
452.166687
 21
135.500000
  0
LINE
  8
0
 10
442.916626
 20
135.500015
 11
442.916626
 21
134.200012
  0
LINE
  8
0
 10
451.916687
 20
135.500015
 11
451.916687
 21
134.200012
  0
LINE
  8
0
 10
493.916626
 20
-4.200012
 11
493.916626
 21
-3.000015
  0
LINE
  8
0
 10
440.916687
 20
-4.200012
 11
440.916687
 21
-3.000015
  0
LINE
  8
0
 10
493.916626
 20
-4.200012
 11
440.916687
 21
-4.200012
  0
LINE
  8
0
 10
492.863586
 20
-11.000000
 11
441.969727
 21
-11.000000
  0
LINE
  8
0
 10
493.741699
 20
-6.200012
 11
482.649780
 21
-6.200012
  0
LINE
  8
0
 10
452.183594
 20
-6.200012
 11
441.091675
 21
-6.200012
  0
LINE
  8
0
 10
493.917328
 20
-4.200066
 11
493.362274
 21
-10.543635
  0
LINE
  8
0
 10
481.852753
 20
-6.930280
 11
481.592560
 21
-9.904593
  0
LINE
  8
0
 10
452.979767
 20
-6.930342
 11
453.239960
 21
-9.904670
  0
LINE
  8
0
 10
440.917023
 20
-4.199974
 11
441.472076
 21
-10.543566
  0
LINE
  8
0
 10
482.666626
 20
-8.674026
 11
482.666626
 21
-7.500008
  0
LINE
  8
0
 10
492.166687
 20
-8.674026
 11
492.166687
 21
-7.500008
  0
LINE
  8
0
 10
482.666626
 20
-7.500000
 11
492.166687
 21
-7.500000
  0
LINE
  8
0
 10
482.916626
 20
-7.500008
 11
482.916626
 21
-6.200012
  0
LINE
  8
0
 10
491.916687
 20
-7.500008
 11
491.916687
 21
-6.200012
  0
LINE
  8
0
 10
442.666626
 20
-8.674026
 11
442.666626
 21
-7.500008
  0
LINE
  8
0
 10
452.166687
 20
-8.674026
 11
452.166687
 21
-7.500008
  0
LINE
  8
0
 10
442.666687
 20
-7.500000
 11
452.166687
 21
-7.500000
  0
LINE
  8
0
 10
442.916626
 20
-7.500008
 11
442.916626
 21
-6.200012
  0
LINE
  8
0
 10
451.916687
 20
-7.500008
 11
451.916687
 21
-6.200012
  0
LINE
  8
0
 10
459.416687
 20
-16.000000
 11
446.416626
 21
-16.000000
  0
LINE
  8
0
 10
456.416626
 20
-20.500000
 11
449.416626
 21
-20.500000
  0
LINE
  8
0
 10
448.916626
 20
-20.000008
 11
448.916626
 21
-16.000008
  0
LINE
  8
0
 10
456.916687
 20
-20.000008
 11
456.916687
 21
-16.000008
  0
LINE
  8
0
 10
456.916534
 20
-19.999958
 11
456.416595
 21
-20.499920
  0
LINE
  8
0
 10
448.916504
 20
-20.000032
 11
449.416565
 21
-20.500038
  0
LINE
  8
0
 10
456.916687
 20
-20.000000
 11
448.916626
 21
-20.000000
  0
LINE
  8
0
 62
     2
 10
456.240173
 20
-20.500015
 11
456.240173
 21
-16.000008
  0
LINE
  8
0
 62
     2
 10
449.593140
 20
-20.500015
 11
449.593140
 21
-16.000008
  0
LINE
  8
0
 10
446.416626
 20
-11.000008
 11
446.416626
 21
-16.000008
  0
LINE
  8
0
 10
459.416687
 20
-11.000008
 11
459.416687
 21
-16.000008
  0
LINE
  8
0
 10
452.916626
 20
-11.580566
 11
452.916626
 21
-15.419456
  0
LINE
  8
0
 10
459.416687
 20
144.000000
 11
446.416626
 21
144.000000
  0
LINE
  8
0
 10
456.416626
 20
148.500000
 11
449.416626
 21
148.500000
  0
LINE
  8
0
 10
448.916626
 20
147.999985
 11
448.916626
 21
144.000000
  0
LINE
  8
0
 10
456.916687
 20
147.999985
 11
456.916687
 21
144.000000
  0
LINE
  8
0
 10
456.916321
 20
147.999771
 11
456.416382
 21
148.499741
  0
LINE
  8
0
 10
448.916687
 20
147.999878
 11
449.416626
 21
148.499832
  0
LINE
  8
0
 10
456.916687
 20
148.000000
 11
448.916626
 21
148.000000
  0
LINE
  8
0
 62
     2
 10
456.240173
 20
148.500000
 11
456.240173
 21
144.000000
  0
LINE
  8
0
 62
     2
 10
449.593140
 20
148.500000
 11
449.593140
 21
144.000000
  0
LINE
  8
0
 10
446.416626
 20
139.000000
 11
446.416626
 21
144.000000
  0
LINE
  8
0
 10
459.416687
 20
139.000000
 11
459.416687
 21
144.000000
  0
LINE
  8
0
 10
452.916626
 20
139.580566
 11
452.916626
 21
143.419479
  0
LINE
  8
0
 10
443.416687
 20
85.166016
 11
443.416687
 21
42.834000
  0
LINE
  8
0
 10
491.416626
 20
85.166016
 11
491.416626
 21
42.834000
  0
LINE
  8
0
 10
447.550659
 20
84.500000
 11
449.282715
 21
84.500000
  0
LINE
  8
0
 10
447.550659
 20
81.500000
 11
449.282715
 21
81.500000
  0
LINE
  8
0
 10
447.550964
 20
84.499802
 11
446.684937
 21
82.999832
  0
LINE
  8
0
 10
450.149200
 20
82.999817
 11
449.283173
 21
81.499817
  0
LINE
  8
0
 10
446.684204
 20
82.999825
 11
447.550232
 21
81.499786
  0
LINE
  8
0
 10
449.282318
 20
84.499763
 11
450.148346
 21
82.999763
  0
LINE
  8
0
 10
487.916626
 20
83.866035
 11
487.916626
 21
82.133965
  0
LINE
  8
0
 10
484.916626
 20
83.866035
 11
484.916626
 21
82.133965
  0
LINE
  8
0
 10
487.916779
 20
83.866417
 11
486.416809
 21
84.732399
  0
LINE
  8
0
 10
486.416931
 20
81.268265
 11
484.916931
 21
82.134293
  0
LINE
  8
0
 10
486.416687
 20
84.732071
 11
484.916718
 21
83.866066
  0
LINE
  8
0
 10
487.916626
 20
82.134018
 11
486.416626
 21
81.267990
  0
LINE
  8
0
 10
487.282715
 20
43.500000
 11
485.550659
 21
43.500000
  0
LINE
  8
0
 10
487.282715
 20
46.500000
 11
485.550659
 21
46.500000
  0
LINE
  8
0
 10
487.283142
 20
43.499756
 11
488.149170
 21
44.999756
  0
LINE
  8
0
 10
484.684937
 20
44.999886
 11
485.550964
 21
46.499893
  0
LINE
  8
0
 10
488.148682
 20
44.999920
 11
487.282654
 21
46.499928
  0
LINE
  8
0
 10
485.550751
 20
43.500088
 11
484.684723
 21
45.000092
  0
LINE
  8
0
 10
446.916626
 20
44.133972
 11
446.916626
 21
45.866020
  0
LINE
  8
0
 10
449.916626
 20
44.133972
 11
449.916626
 21
45.866020
  0
LINE
  8
0
 10
446.916962
 20
44.134544
 11
448.416962
 21
43.268517
  0
LINE
  8
0
 10
448.417114
 20
46.732647
 11
449.917114
 21
45.866615
  0
LINE
  8
0
 10
448.416626
 20
43.267952
 11
449.916687
 21
44.134003
  0
LINE
  8
0
 10
446.916656
 20
45.866013
 11
448.416718
 21
46.732059
  0
LINE
  8
0
 10
485.070007
 20
75.000000
 11
449.763306
 21
75.000000
  0
LINE
  8
0
 10
485.070007
 20
53.000000
 11
449.763306
 21
53.000000
  0
LINE
  8
0
 10
424.416626
 20
91.000000
 11
440.416626
 21
91.000000
  0
LINE
  8
0
 10
424.416626
 20
37.000000
 11
440.416626
 21
37.000000
  0
LINE
  8
0
 10
512.416626
 20
89.000000
 11
512.416626
 21
39.000004
  0
LINE
  8
0
 10
422.416626
 20
89.000000
 11
422.416626
 21
39.000000
  0
LINE
  8
0
 10
510.416534
 20
90.999924
 11
512.416504
 21
88.999924
  0
LINE
  8
0
 10
510.416412
 20
37.000099
 11
512.416443
 21
39.000103
  0
LINE
  8
0
 10
424.416595
 20
91.000008
 11
422.416595
 21
89.000008
  0
LINE
  8
0
 10
422.416595
 20
38.999954
 11
424.416595
 21
36.999954
  0
LINE
  8
0
 10
494.416687
 20
91.000000
 11
510.416626
 21
91.000000
  0
LINE
  8
0
 10
494.416687
 20
37.000000
 11
510.416626
 21
37.000000
  0
LINE
  8
0
 62
     4
 10
464.416595
 20
43.314514
 11
465.237152
 21
43.314514
  0
LINE
  8
0
 62
     4
 10
463.916595
 20
36.314514
 11
470.916595
 21
36.314514
  0
LINE
  8
0
 62
     4
 10
466.166595
 20
31.014511
 11
466.166595
 21
32.514511
  0
LINE
  8
0
 62
     4
 10
468.666595
 20
31.014511
 11
468.666595
 21
32.514511
  0
LINE
  8
0
 62
     4
 10
468.916656
 20
95.485489
 11
468.916656
 21
94.999985
  0
LINE
  8
0
 62
     4
 10
463.566650
 20
93.249985
 11
463.566650
 21
88.999985
  0
LINE
  8
0
 62
     4
 10
468.916656
 20
95.485489
 11
465.916656
 21
95.485489
  0
LINE
  8
0
 62
     4
 10
471.266663
 20
93.249985
 11
471.266663
 21
88.999985
  0
LINE
  8
0
 62
     4
 10
463.566650
 20
93.249985
 11
463.416656
 21
93.249985
  0
LINE
  8
0
 62
     4
 10
471.416656
 20
93.249985
 11
471.266663
 21
93.249985
  0
LINE
  8
0
 62
     4
 10
465.416656
 20
91.985489
 11
463.916656
 21
91.985489
  0
LINE
  8
0
 62
     1
 10
468.666656
 20
95.485489
 11
468.666656
 21
94.999985
  0
LINE
  8
0
 62
     1
 10
466.166656
 20
95.485489
 11
466.166656
 21
94.999985
  0
LINE
  8
0
 62
     4
 10
465.916656
 20
95.485489
 11
465.916656
 21
94.999985
  0
LINE
  8
0
 62
     4
 10
465.916656
 20
92.999985
 11
465.916656
 21
92.583557
  0
LINE
  8
0
 62
     1
 10
466.166656
 20
92.999985
 11
466.166656
 21
92.712662
  0
LINE
  8
0
 62
     1
 10
468.666656
 20
92.999985
 11
468.666656
 21
92.712662
  0
LINE
  8
0
 62
     4
 10
468.916656
 20
92.999985
 11
468.916656
 21
92.583557
  0
LINE
  8
0
 62
     4
 10
463.416656
 20
88.999985
 11
463.416656
 21
94.499985
  0
LINE
  8
0
 62
     4
 10
462.416656
 20
94.799988
 11
462.416656
 21
88.999985
  0
LINE
  8
0
 62
     4
 10
464.916656
 20
95.999985
 11
464.916656
 21
94.999985
  0
LINE
  8
0
 62
     4
 10
462.416656
 20
88.999985
 11
463.416656
 21
88.999985
  0
LINE
  8
0
 62
     4
 10
464.916656
 20
95.999985
 11
463.616669
 21
95.999985
  0
LINE
  8
0
 62
     4
 10
470.916656
 20
93.999985
 11
470.016663
 21
93.999985
  0
LINE
  8
0
 62
     4
 10
469.216675
 20
92.999985
 11
469.216675
 21
93.199982
  0
LINE
  8
0
 62
     4
 10
441.416626
 20
123.999954
 11
441.416626
 21
115.999954
  0
LINE
  8
0
 62
     4
 10
434.416626
 20
123.999954
 11
441.416626
 21
123.999954
  0
LINE
  8
0
 62
     4
 10
434.416626
 20
115.999954
 11
441.416626
 21
115.999954
  0
LINE
  8
0
 62
     4
 10
433.444794
 20
117.199951
 11
434.416626
 21
117.199951
  0
LINE
  8
0
 62
     4
 10
433.444794
 20
122.799957
 11
434.416626
 21
122.799957
  0
LINE
  8
0
 62
     4
 10
438.416626
 20
123.999954
 11
438.416626
 21
115.999954
  0
LINE
  8
0
 62
     4
 10
434.416626
 20
123.999954
 11
434.416626
 21
115.999954
  0
LINE
  8
0
 62
     4
 10
436.416626
 20
130.249954
 11
436.416626
 21
123.999954
  0
LINE
  8
0
 62
     4
 10
439.550598
 20
131.749954
 11
437.282654
 21
131.749954
  0
LINE
  8
0
 62
     4
 10
440.416626
 20
109.749954
 11
436.416626
 21
109.749954
  0
LINE
  8
0
 62
     4
 10
436.416534
 20
130.249969
 11
437.282562
 21
131.749985
  0
LINE
  8
0
 62
     4
 10
440.416656
 20
130.250000
 11
439.550629
 21
131.750000
  0
LINE
  8
0
 62
     4
 10
440.416626
 20
130.249954
 11
440.416626
 21
123.999954
  0
LINE
  8
0
 62
     4
 10
439.916626
 20
108.749954
 11
436.916626
 21
108.749954
  0
LINE
  8
0
 62
     4
 10
440.416626
 20
130.249954
 11
436.416626
 21
130.249954
  0
LINE
  8
0
 62
     4
 10
436.916626
 20
108.749954
 11
436.916626
 21
103.749954
  0
LINE
  8
0
 62
     4
 10
439.916626
 20
108.749954
 11
439.916626
 21
103.749954
  0
LINE
  8
0
 62
     4
 10
440.416595
 20
109.749977
 11
439.916595
 21
108.749969
  0
LINE
  8
0
 62
     4
 10
436.416565
 20
109.749908
 11
436.916565
 21
108.749916
  0
LINE
  8
0
 62
     4
 10
436.416626
 20
115.999954
 11
436.416626
 21
109.749954
  0
LINE
  8
0
 62
     4
 10
440.416626
 20
115.999954
 11
440.416626
 21
109.749954
  0
LINE
  8
0
 62
     4
 10
469.216644
 20
92.999985
 11
465.616669
 21
92.999985
  0
LINE
  8
0
 62
     4
 10
441.416626
 20
4.000046
 11
441.416626
 21
12.000046
  0
LINE
  8
0
 62
     4
 10
434.416626
 20
4.000046
 11
441.416626
 21
4.000046
  0
LINE
  8
0
 62
     4
 10
434.416626
 20
12.000046
 11
441.416626
 21
12.000046
  0
LINE
  8
0
 62
     4
 10
433.444794
 20
10.800049
 11
434.416626
 21
10.800049
  0
LINE
  8
0
 62
     4
 10
433.444794
 20
5.200043
 11
434.416626
 21
5.200043
  0
LINE
  8
0
 62
     4
 10
438.416626
 20
4.000046
 11
438.416626
 21
12.000046
  0
LINE
  8
0
 62
     4
 10
434.416626
 20
4.000046
 11
434.416626
 21
12.000046
  0
LINE
  8
0
 62
     4
 10
436.416626
 20
-2.249954
 11
436.416626
 21
4.000046
  0
LINE
  8
0
 62
     4
 10
439.550598
 20
-3.749954
 11
437.282654
 21
-3.749954
  0
LINE
  8
0
 62
     4
 10
440.416626
 20
18.250046
 11
436.416626
 21
18.250046
  0
LINE
  8
0
 62
     4
 10
436.416595
 20
-2.250006
 11
437.282623
 21
-3.750009
  0
LINE
  8
0
 62
     4
 10
440.416626
 20
-2.250026
 11
439.550598
 21
-3.750031
  0
LINE
  8
0
 62
     4
 10
440.416626
 20
-2.249954
 11
440.416626
 21
4.000046
  0
LINE
  8
0
 62
     4
 10
439.916626
 20
19.250046
 11
436.916626
 21
19.250046
  0
LINE
  8
0
 62
     4
 10
440.416626
 20
-2.249954
 11
436.416626
 21
-2.249954
  0
LINE
  8
0
 62
     4
 10
436.916626
 20
19.250046
 11
436.916626
 21
24.250046
  0
LINE
  8
0
 62
     4
 10
439.916626
 20
19.250046
 11
439.916626
 21
24.250046
  0
LINE
  8
0
 62
     4
 10
440.416626
 20
18.250021
 11
439.916626
 21
19.250029
  0
LINE
  8
0
 62
     4
 10
436.416565
 20
18.250046
 11
436.916565
 21
19.250051
  0
LINE
  8
0
 62
     4
 10
436.416626
 20
12.000046
 11
436.416626
 21
18.250046
  0
LINE
  8
0
 62
     4
 10
440.416626
 20
12.000046
 11
440.416626
 21
18.250046
  0
LINE
  8
0
 62
     4
 10
465.616638
 20
92.999985
 11
465.616638
 21
93.199982
  0
LINE
  8
0
 62
     4
 10
454.160553
 20
47.971390
 11
463.519775
 21
39.108917
  0
LINE
  8
0
 62
     4
 10
463.416595
 20
39.000046
 11
454.061035
 21
47.859035
  0
LINE
  8
0
 62
     4
 10
480.672668
 20
47.971363
 11
471.313477
 21
39.108891
  0
LINE
  8
0
 62
     4
 10
471.416718
 20
39.000015
 11
480.772247
 21
47.859009
  0
LINE
  8
0
 62
     4
 10
464.816589
 20
31.014511
 11
470.016602
 21
31.014511
  0
LINE
  8
0
 62
     4
 10
463.916595
 20
36.014511
 11
465.416595
 21
36.014511
  0
LINE
  8
0
 62
     4
 10
465.616608
 20
29.014511
 11
469.216614
 21
29.014511
  0
LINE
  8
0
 62
     4
 10
470.016602
 20
29.814514
 11
470.016602
 21
31.014511
  0
LINE
  8
0
 62
     4
 10
464.816589
 20
29.814514
 11
464.816589
 21
31.014511
  0
LINE
  8
0
 62
     4
 10
462.416656
 20
92.499985
 11
461.416656
 21
92.499985
  0
LINE
  8
0
 62
     4
 10
472.416656
 20
88.999985
 11
471.416656
 21
88.999985
  0
LINE
  8
0
 62
     4
 10
464.816650
 20
93.999985
 11
463.416656
 21
93.999985
  0
LINE
  8
0
 62
     4
 10
471.216644
 20
94.999985
 11
463.916656
 21
94.999985
  0
LINE
  8
0
 62
     4
 10
471.416656
 20
93.499985
 11
471.416656
 21
88.999985
  0
LINE
  8
0
 62
     4
 10
462.416656
 20
93.499985
 11
462.416656
 21
92.499985
  0
LINE
  8
0
 62
     4
 10
461.416656
 20
92.499985
 11
461.416656
 21
93.799988
  0
LINE
  8
0
 62
     4
 10
472.416656
 20
88.999985
 11
472.416656
 21
93.799988
  0
LINE
  8
0
 62
     4
 10
465.237213
 20
84.685486
 11
464.416656
 21
84.685486
  0
LINE
  8
0
 62
     4
 10
463.916565
 20
85.185417
 11
464.416534
 21
84.685425
  0
LINE
  8
0
 62
     4
 10
463.916656
 20
91.985489
 11
463.916656
 21
85.185486
  0
LINE
  8
0
 62
     4
 10
469.374390
 20
92.258568
 11
469.416595
 21
92.185471
  0
LINE
  8
0
 62
     4
 10
465.458801
 20
92.258568
 11
465.416565
 21
92.185440
  0
LINE
  8
0
 62
     4
 10
469.416656
 20
92.185486
 11
465.416656
 21
92.185486
  0
LINE
  8
0
 62
     4
 10
465.416656
 20
91.685486
 11
465.416656
 21
92.185486
  0
LINE
  8
0
 62
     4
 10
469.416656
 20
91.685486
 11
469.416656
 21
92.185486
  0
LINE
  8
0
 62
     4
 10
470.916656
 20
85.185486
 11
463.916656
 21
85.185486
  0
LINE
  8
0
 62
     4
 10
470.916656
 20
85.185501
 11
470.416656
 21
84.685486
  0
LINE
  8
0
 62
     4
 10
470.916656
 20
91.985489
 11
470.916656
 21
85.185486
  0
LINE
  8
0
 62
     4
 10
470.416656
 20
84.685486
 11
469.596100
 21
84.685486
  0
LINE
  8
0
 62
     4
 10
470.916656
 20
91.685486
 11
463.916656
 21
91.685486
  0
LINE
  8
0
 62
     4
 10
468.666656
 20
96.985489
 11
468.666656
 21
95.485489
  0
LINE
  8
0
 62
     4
 10
466.166656
 20
96.985489
 11
466.166656
 21
95.485489
  0
LINE
  8
0
 62
     4
 10
470.016663
 20
98.185486
 11
470.016663
 21
96.985489
  0
LINE
  8
0
 62
     4
 10
464.816650
 20
98.185486
 11
464.816650
 21
96.985489
  0
LINE
  8
0
 62
     4
 10
469.216644
 20
98.985489
 11
465.616669
 21
98.985489
  0
LINE
  8
0
 62
     4
 10
470.916656
 20
91.985489
 11
469.416656
 21
91.985489
  0
LINE
  8
0
 62
     4
 10
470.016663
 20
96.985489
 11
464.816650
 21
96.985489
  0
LINE
  8
0
 62
     4
 10
463.416626
 20
89.000000
 11
454.061066
 21
80.140984
  0
LINE
  8
0
 62
     4
 10
454.160522
 20
80.028625
 11
463.519745
 21
88.891098
  0
LINE
  8
0
 62
     4
 10
471.416656
 20
88.999939
 11
480.772186
 21
80.140945
  0
LINE
  8
0
 62
     4
 10
480.672607
 20
80.028549
 11
471.313416
 21
88.891022
  0
LINE
  8
0
 62
     4
 10
468.916595
 20
32.514511
 11
468.916595
 21
33.000015
  0
LINE
  8
0
 62
     1
 10
468.666595
 20
32.514511
 11
468.666595
 21
33.000015
  0
LINE
  8
0
 62
     1
 10
466.166595
 20
32.514511
 11
466.166595
 21
33.000015
  0
LINE
  8
0
 62
     4
 10
465.916595
 20
32.514511
 11
468.916595
 21
32.514511
  0
LINE
  8
0
 62
     4
 10
465.916595
 20
32.514511
 11
465.916595
 21
33.000015
  0
LINE
  8
0
 62
     4
 10
471.266602
 20
34.750015
 11
471.266602
 21
39.000015
  0
LINE
  8
0
 62
     4
 10
463.566589
 20
34.750015
 11
463.566589
 21
39.000015
  0
LINE
  8
0
 62
     4
 10
471.266602
 20
34.750015
 11
471.416595
 21
34.750015
  0
LINE
  8
0
 62
     4
 10
463.416595
 20
34.750015
 11
463.566589
 21
34.750015
  0
LINE
  8
0
 62
     4
 10
469.416595
 20
36.014511
 11
470.916595
 21
36.014511
  0
LINE
  8
0
 62
     4
 10
468.916595
 20
35.000015
 11
468.916595
 21
35.416443
  0
LINE
  8
0
 62
     1
 10
468.666595
 20
35.000015
 11
468.666595
 21
35.287338
  0
LINE
  8
0
 62
     1
 10
466.166595
 20
35.000015
 11
466.166595
 21
35.287338
  0
LINE
  8
0
 62
     4
 10
465.916595
 20
35.000015
 11
465.916595
 21
35.416443
  0
LINE
  8
0
 62
     4
 10
471.416595
 20
39.000015
 11
471.416595
 21
33.500015
  0
LINE
  8
0
 62
     4
 10
472.416595
 20
33.200012
 11
472.416595
 21
39.000015
  0
LINE
  8
0
 62
     4
 10
469.916595
 20
32.000015
 11
469.916595
 21
33.000015
  0
LINE
  8
0
 62
     4
 10
472.416595
 20
39.000015
 11
471.416595
 21
39.000015
  0
LINE
  8
0
 62
     4
 10
469.916595
 20
32.000015
 11
471.216614
 21
32.000015
  0
LINE
  8
0
 62
     4
 10
463.916595
 20
34.000015
 11
464.816589
 21
34.000015
  0
LINE
  8
0
 62
     4
 10
469.216614
 20
35.000015
 11
469.216614
 21
34.800018
  0
LINE
  8
0
 62
     4
 10
465.616577
 20
35.000015
 11
465.616577
 21
34.800018
  0
LINE
  8
0
 62
     4
 10
465.616608
 20
35.000015
 11
469.216614
 21
35.000015
  0
LINE
  8
0
 62
     4
 10
472.416595
 20
35.500015
 11
473.416595
 21
35.500015
  0
LINE
  8
0
 62
     4
 10
462.416595
 20
39.000015
 11
463.416595
 21
39.000015
  0
LINE
  8
0
 62
     4
 10
470.016602
 20
34.000015
 11
471.416595
 21
34.000015
  0
LINE
  8
0
 62
     4
 10
463.616608
 20
33.000015
 11
470.916595
 21
33.000015
  0
LINE
  8
0
 62
     4
 10
463.416595
 20
34.500015
 11
463.416595
 21
39.000015
  0
LINE
  8
0
 62
     4
 10
472.416595
 20
34.500015
 11
472.416595
 21
35.500015
  0
LINE
  8
0
 62
     4
 10
473.416595
 20
35.500015
 11
473.416595
 21
34.200012
  0
LINE
  8
0
 62
     4
 10
462.416595
 20
39.000015
 11
462.416595
 21
34.200012
  0
LINE
  8
0
 62
     4
 10
469.596039
 20
43.314514
 11
470.416595
 21
43.314514
  0
LINE
  8
0
 62
     4
 10
470.916565
 20
42.814510
 11
470.416565
 21
43.314499
  0
LINE
  8
0
 62
     4
 10
470.916595
 20
36.014511
 11
470.916595
 21
42.814514
  0
LINE
  8
0
 62
     4
 10
465.458801
 20
35.741447
 11
465.416595
 21
35.814548
  0
LINE
  8
0
 62
     4
 10
469.374298
 20
35.741447
 11
469.416504
 21
35.814548
  0
LINE
  8
0
 62
     4
 10
465.416595
 20
35.814514
 11
469.416595
 21
35.814514
  0
LINE
  8
0
 62
     4
 10
469.416595
 20
36.314514
 11
469.416595
 21
35.814514
  0
LINE
  8
0
 62
     4
 10
465.416595
 20
36.314514
 11
465.416595
 21
35.814514
  0
LINE
  8
0
 62
     4
 10
463.916595
 20
42.814514
 11
470.916595
 21
42.814514
  0
LINE
  8
0
 62
     4
 10
463.916626
 20
42.814510
 11
464.416626
 21
43.314522
  0
LINE
  8
0
 62
     4
 10
463.916595
 20
36.014511
 11
463.916595
 21
42.814514
  0
LINE
  8
0
 10
440.416626
 20
-2.249954
 11
440.416626
 21
-3.000015
  0
LINE
  8
0
 10
440.416626
 20
109.749954
 11
440.416626
 21
18.250046
  0
LINE
  8
0
  6
CENTER
 62
     2
 10
494.916626
 20
84.000000
 11
509.916626
 21
84.000000
  0
LINE
  8
0
  6
CENTER
 62
     2
 10
502.416626
 20
91.500000
 11
502.416626
 21
76.500000
  0
LINE
  8
0
  6
CENTER
 62
     2
 10
439.916626
 20
84.000000
 11
424.916626
 21
84.000000
  0
LINE
  8
0
  6
CENTER
 62
     2
 10
432.416626
 20
91.500000
 11
432.416626
 21
76.500000
  0
LINE
  8
0
  6
CENTER
 62
     2
 10
494.916626
 20
44.000000
 11
509.916626
 21
44.000000
  0
LINE
  8
0
  6
CENTER
 62
     2
 10
502.416626
 20
36.500000
 11
502.416626
 21
51.500000
  0
LINE
  8
0
  6
CENTER
 62
     2
 10
439.916626
 20
44.000000
 11
424.916626
 21
44.000000
  0
LINE
  8
0
  6
CENTER
 62
     2
 10
432.416626
 20
36.500000
 11
432.416626
 21
51.500000
  0
LINE
  8
0
  6
CENTER
 62
     2
 10
258.750000
 20
-193.715546
 11
258.750000
 21
-130.204300
  0
LINE
  8
0
 10
284.750000
 20
-137.666672
 11
284.750000
 21
-185.666687
  0
LINE
  8
0
 10
232.750000
 20
-116.666672
 11
232.750000
 21
-206.666672
  0
LINE
  8
0
 10
281.750000
 20
-134.666656
 11
235.750000
 21
-134.666656
  0
LINE
  8
0
 10
281.750000
 20
-188.666641
 11
235.750000
 21
-188.666641
  0
LINE
  8
0
 62
     4
 10
198.750000
 20
-156.379089
 11
198.750000
 21
-166.954224
  0
LINE
  8
0
 10
277.750000
 20
-147.166656
 11
283.750000
 21
-147.166656
  0
LINE
  8
0
 10
239.750000
 20
-147.166656
 11
233.750000
 21
-147.166656
  0
LINE
  8
0
 10
239.750000
 20
-176.166641
 11
233.750000
 21
-176.166641
  0
LINE
  8
0
 10
277.750000
 20
-176.166641
 11
283.750000
 21
-176.166641
  0
LINE
  8
0
 10
272.250000
 20
-181.666656
 11
272.250000
 21
-187.666672
  0
LINE
  8
0
 10
245.250000
 20
-181.666656
 11
245.250000
 21
-187.666672
  0
LINE
  8
0
 10
245.250000
 20
-141.666672
 11
245.250000
 21
-135.666656
  0
LINE
  8
0
 10
272.250000
 20
-141.666672
 11
272.250000
 21
-135.666672
  0
LINE
  8
0
 10
233.250000
 20
-137.666672
 11
233.250000
 21
-185.666687
  0
LINE
  8
0
 10
284.250000
 20
-137.666672
 11
284.250000
 21
-185.666687
  0
LINE
  8
0
 10
281.750000
 20
-135.166672
 11
235.750000
 21
-135.166672
  0
LINE
  8
0
 10
281.750000
 20
-188.166687
 11
235.750000
 21
-188.166687
  0
LINE
  8
0
  6
CENTER
 62
     2
 10
267.750000
 20
-147.166687
 11
249.750000
 21
-147.166687
  0
LINE
  8
0
 10
262.502808
 20
-140.666687
 11
254.997253
 21
-140.666687
  0
LINE
  8
0
 10
262.502808
 20
-153.666702
 11
254.997253
 21
-153.666702
  0
LINE
  8
0
 10
266.255524
 20
-147.166702
 11
262.502716
 21
-140.666687
  0
LINE
  8
0
 10
254.997177
 20
-153.666702
 11
251.244446
 21
-147.166702
  0
LINE
  8
0
 10
254.997391
 20
-140.666855
 11
251.244598
 21
-147.166840
  0
LINE
  8
0
 10
266.255463
 20
-147.166687
 11
262.502716
 21
-153.666687
  0
LINE
  8
0
 10
297.750000
 20
-137.666672
 11
297.750000
 21
-185.666687
  0
LINE
  8
0
 10
297.750000
 20
-185.666687
 11
284.750000
 21
-185.666687
  0
LINE
  8
0
 10
297.750000
 20
-137.666672
 11
284.750000
 21
-137.666672
  0
LINE
  8
0
  6
CENTER
 62
     2
 10
382.031860
 20
-161.666672
 11
195.197021
 21
-161.666672
  0
LINE
  8
0
 10
377.750000
 20
-141.866653
 11
377.750000
 21
-181.466675
  0
LINE
  8
0
 10
376.750031
 20
-140.866653
 11
354.750000
 21
-140.866653
  0
LINE
  8
0
 10
376.749817
 20
-182.466675
 11
354.750000
 21
-182.466675
  0
LINE
  8
0
 10
376.749969
 20
-140.866699
 11
377.749939
 21
-141.866669
  0
LINE
  8
0
 10
377.749786
 20
-181.466354
 11
376.749634
 21
-182.466461
  0
LINE
  8
0
 10
376.750000
 20
-140.866653
 11
376.750000
 21
-144.013336
  0
LINE
  8
0
 10
371.750000
 20
-144.013336
 11
371.750000
 21
-179.319992
  0
LINE
  8
0
 10
377.750000
 20
-144.013336
 11
371.750000
 21
-144.013336
  0
LINE
  8
0
 10
377.750000
 20
-179.319977
 11
371.750000
 21
-179.319977
  0
LINE
  8
0
 10
376.750000
 20
-179.319992
 11
376.750000
 21
-182.466675
  0
LINE
  8
0
 62
     4
 10
224.750000
 20
-168.166672
 11
211.750000
 21
-168.166672
  0
LINE
  8
0
 62
     4
 10
224.750000
 20
-155.166672
 11
211.750000
 21
-155.166672
  0
LINE
  8
0
 62
     4
 10
199.450012
 20
-155.166672
 11
199.450012
 21
-168.166672
  0
LINE
  8
0
 62
     4
 10
199.449982
 20
-155.166656
 11
198.749954
 21
-156.379120
  0
LINE
  8
0
 62
     4
 10
199.449890
 20
-168.166763
 11
198.749817
 21
-166.954315
  0
LINE
  8
0
 62
     4
 10
221.750000
 20
-155.166672
 11
221.750000
 21
-159.068588
  0
LINE
  8
0
 62
     4
 10
221.750000
 20
-159.068588
 11
211.750000
 21
-159.068588
  0
LINE
  8
0
 62
     4
 10
221.750000
 20
-164.264740
 11
211.750000
 21
-164.264740
  0
LINE
  8
0
 62
     4
 10
221.750000
 20
-164.264740
 11
221.750000
 21
-168.166672
  0
LINE
  8
0
 62
     4
 10
199.450058
 20
-159.068573
 11
198.750046
 21
-159.768600
  0
LINE
  8
0
 62
     4
 10
199.449722
 20
-164.265015
 11
198.749680
 21
-163.565002
  0
LINE
  8
0
 62
     4
 10
221.750366
 20
-159.068787
 11
224.003174
 21
-155.166733
  0
LINE
  8
0
 62
     4
 10
221.750656
 20
-164.264328
 11
224.003525
 21
-168.166397
  0
LINE
  8
0
 62
     1
 10
221.750000
 20
-167.584167
 11
211.750000
 21
-167.584167
  0
LINE
  8
0
 62
     1
 10
221.750000
 20
-155.749161
 11
211.750000
 21
-155.749161
  0
LINE
  8
0
 62
     1
 10
221.749969
 20
-155.749237
 11
222.773087
 21
-155.158539
  0
LINE
  8
0
 62
     1
 10
221.749832
 20
-167.584290
 11
222.758850
 21
-168.166824
  0
LINE
  8
0
 62
     4
 10
211.750000
 20
-152.166672
 11
211.750000
 21
-171.166656
  0
LINE
  8
0
 62
     4
 10
203.750000
 20
-155.166672
 11
199.450012
 21
-155.166672
  0
LINE
  8
0
 62
     1
 10
203.750000
 20
-155.749161
 11
199.113708
 21
-155.749161
  0
LINE
  8
0
 62
     4
 10
203.750000
 20
-159.068588
 11
199.450012
 21
-159.068588
  0
LINE
  8
0
 62
     4
 10
203.750000
 20
-164.264740
 11
199.450012
 21
-164.264740
  0
LINE
  8
0
 62
     1
 10
203.750000
 20
-167.584167
 11
199.113708
 21
-167.584167
  0
LINE
  8
0
 62
     4
 10
203.750000
 20
-168.166672
 11
199.450012
 21
-168.166672
  0
LINE
  8
0
 62
     4
 10
203.750000
 20
-152.166672
 11
203.750000
 21
-171.166656
  0
LINE
  8
0
 62
     4
 10
211.750000
 20
-171.166656
 11
203.750000
 21
-171.166656
  0
LINE
  8
0
 62
     4
 10
211.750000
 20
-152.166656
 11
203.750000
 21
-152.166656
  0
LINE
  8
0
 62
     4
 10
210.901489
 20
-161.666672
 11
204.598511
 21
-161.666672
  0
LINE
  8
0
 10
279.553131
 20
-179.863586
 11
275.946930
 21
-183.469833
  0
LINE
  8
0
 10
279.553162
 20
-183.469757
 11
275.946899
 21
-179.863495
  0
LINE
  8
0
 10
279.553101
 20
-139.863571
 11
275.946899
 21
-143.469818
  0
LINE
  8
0
 10
279.553101
 20
-143.469833
 11
275.946899
 21
-139.863617
  0
LINE
  8
0
 10
241.553177
 20
-139.863556
 11
237.946899
 21
-143.469818
  0
LINE
  8
0
 10
241.553070
 20
-143.469894
 11
237.946854
 21
-139.863632
  0
LINE
  8
0
 10
241.553101
 20
-179.863541
 11
237.946869
 21
-183.469757
  0
LINE
  8
0
 10
241.553070
 20
-183.469894
 11
237.946869
 21
-179.863632
  0
LINE
  8
0
 10
365.750000
 20
-140.866653
 11
365.750000
 21
-182.466675
  0
LINE
  8
0
 10
232.750000
 20
-206.666672
 11
224.750000
 21
-206.666672
  0
LINE
  8
0
 10
232.750000
 20
-116.666672
 11
224.750000
 21
-116.666672
  0
LINE
  8
0
 10
224.750000
 20
-116.666672
 11
224.750000
 21
-206.666672
  0
LINE
  8
0
 10
232.750000
 20
-118.666672
 11
224.750000
 21
-118.666672
  0
LINE
  8
0
  6
CENTER
 62
     2
 10
237.478348
 20
-126.666672
 11
220.500854
 21
-126.666672
  0
LINE
  8
0
  6
CENTER
 62
     2
 10
237.478348
 20
-196.666672
 11
220.500854
 21
-196.666672
  0
LINE
  8
0
 10
232.750000
 20
-204.666672
 11
224.750000
 21
-204.666672
  0
LINE
  8
0
  6
CENTER
 62
     2
 10
291.250000
 20
-132.410538
 11
291.250000
 21
-143.311157
  0
LINE
  8
0
 62
     4
 10
351.669220
 20
-160.747421
 11
349.830750
 21
-162.585892
  0
LINE
  8
0
 62
     4
 10
351.669220
 20
-162.585907
 11
349.830780
 21
-160.747452
  0
LINE
  8
0
 62
     4
 10
361.750000
 20
-158.166672
 11
361.750000
 21
-165.166672
  0
LINE
  8
0
 62
     4
 10
346.750000
 20
-166.666672
 11
346.750000
 21
-182.616653
  0
LINE
  8
0
 62
     4
 10
354.750000
 20
-166.666672
 11
354.750000
 21
-182.616653
  0
LINE
  8
0
 62
     4
 10
354.750000
 20
-182.616653
 11
346.750000
 21
-182.616653
  0
LINE
  8
0
 62
     4
 10
346.750000
 20
-140.716675
 11
346.750000
 21
-156.666672
  0
LINE
  8
0
 62
     4
 10
354.750000
 20
-140.716675
 11
354.750000
 21
-156.666672
  0
LINE
  8
0
 62
     4
 10
354.750000
 20
-140.716675
 11
346.750000
 21
-140.716675
  0
LINE
  8
0
 62
     4
 10
353.000000
 20
-166.666672
 11
353.000000
 21
-165.198425
  0
LINE
  8
0
 62
     4
 10
348.500000
 20
-166.666672
 11
348.500000
 21
-165.198425
  0
LINE
  8
0
 62
     4
 10
345.750000
 20
-165.166672
 11
339.750000
 21
-165.166672
  0
LINE
  8
0
 62
     4
 10
345.750000
 20
-158.166672
 11
339.750000
 21
-158.166672
  0
LINE
  8
0
 62
     4
 10
348.500000
 20
-166.666672
 11
345.750000
 21
-166.666672
  0
LINE
  8
0
 62
     4
 10
345.750000
 20
-165.166672
 11
345.750000
 21
-166.666672
  0
LINE
  8
0
 62
     4
 10
355.750000
 20
-165.166672
 11
355.750000
 21
-166.666672
  0
LINE
  8
0
 62
     4
 10
347.383972
 20
-165.666672
 11
346.250000
 21
-165.666672
  0
LINE
  8
0
 62
     4
 10
352.750000
 20
-167.966660
 11
348.750000
 21
-167.966660
  0
LINE
  8
0
 62
     4
 10
355.250000
 20
-165.666672
 11
354.116028
 21
-165.666672
  0
LINE
  8
0
 62
     4
 10
348.750000
 20
-167.032684
 11
348.750000
 21
-167.966660
  0
LINE
  8
0
 62
     4
 10
352.750000
 20
-167.032684
 11
352.750000
 21
-167.966660
  0
LINE
  8
0
 62
     4
 10
339.750000
 20
-158.166672
 11
339.750000
 21
-165.166672
  0
LINE
  8
0
 62
     4
 10
345.750000
 20
-157.166672
 11
345.750000
 21
-165.166672
  0
LINE
  8
0
 62
     4
 10
355.750000
 20
-157.166672
 11
355.750000
 21
-165.166672
  0
LINE
  8
0
 62
     4
 10
361.750000
 20
-165.166672
 11
355.750000
 21
-165.166672
  0
LINE
  8
0
 62
     4
 10
361.750000
 20
-158.166672
 11
355.750000
 21
-158.166672
  0
LINE
  8
0
 62
     4
 10
355.750000
 20
-166.666672
 11
353.000000
 21
-166.666672
  0
LINE
  8
0
 62
     4
 10
355.250000
 20
-156.666672
 11
346.250000
 21
-156.666672
  0
LINE
  8
0
 62
     4
 10
337.750000
 20
-159.166672
 11
337.750000
 21
-164.166672
  0
LINE
  8
0
 62
     4
 10
339.750000
 20
-164.166672
 11
337.750000
 21
-164.166672
  0
LINE
  8
0
 62
     4
 10
339.750000
 20
-159.166672
 11
337.750000
 21
-159.166672
  0
LINE
  8
0
 62
     4
 10
256.750000
 20
-134.666656
 11
260.750000
 21
-134.666656
  0
LINE
  8
0
 62
     4
 10
256.750000
 20
-134.166656
 11
255.949997
 21
-134.166656
  0
LINE
  8
0
 62
     4
 10
260.750000
 20
-130.666656
 11
256.750000
 21
-130.666656
  0
LINE
  8
0
 62
     4
 10
256.750000
 20
-134.666656
 11
256.750000
 21
-130.666656
  0
LINE
  8
0
 62
     4
 10
260.750000
 20
-134.666656
 11
260.750000
 21
-130.666656
  0
LINE
  8
0
 62
     4
 10
270.549988
 20
-127.694824
 11
270.549988
 21
-128.666656
  0
LINE
  8
0
 62
     4
 10
264.950012
 20
-127.694824
 11
264.950012
 21
-128.666656
  0
LINE
  8
0
 62
     4
 10
267.750000
 20
-134.666656
 11
267.750000
 21
-134.166656
  0
LINE
  8
0
 62
     4
 10
267.750000
 20
-134.166656
 11
260.750000
 21
-134.166656
  0
LINE
  8
0
 62
     4
 10
284.750031
 20
-132.666626
 11
272.750031
 21
-128.666626
  0
LINE
  8
0
 62
     4
 10
284.750000
 20
-135.666656
 11
283.986084
 21
-135.666656
  0
LINE
  8
0
 62
     4
 10
272.750000
 20
-128.666656
 11
255.949997
 21
-128.666656
  0
LINE
  8
0
 62
     4
 10
284.750000
 20
-135.666656
 11
284.750000
 21
-132.666656
  0
LINE
  8
0
 62
     4
 10
255.949997
 20
-134.166656
 11
255.949997
 21
-128.666656
  0
LINE
  8
0
 62
     4
 10
330.750000
 20
-140.716675
 11
322.750000
 21
-140.716675
  0
LINE
  8
0
 62
     4
 10
330.750000
 20
-182.616653
 11
322.750000
 21
-182.616653
  0
LINE
  8
0
 62
     4
 10
330.750000
 20
-140.716675
 11
330.750000
 21
-182.616653
  0
LINE
  8
0
 62
     4
 10
322.750000
 20
-140.716675
 11
322.750000
 21
-182.616653
  0
LINE
  8
0
 62
     4
 10
337.750000
 20
-163.366669
 11
332.750000
 21
-163.366669
  0
LINE
  8
0
 62
     4
 10
337.750000
 20
-159.966660
 11
332.750000
 21
-159.966660
  0
LINE
  8
0
 10
322.750000
 20
-140.866653
 11
297.750000
 21
-140.866653
  0
LINE
  8
0
 10
346.750000
 20
-140.866653
 11
330.750000
 21
-140.866653
  0
LINE
  8
0
 10
322.750000
 20
-182.466675
 11
297.750000
 21
-182.466675
  0
LINE
  8
0
 10
346.750000
 20
-182.466675
 11
330.750000
 21
-182.466675
  0
LINE
  8
0
  6
CENTER
 62
     1
 10
163.583405
 20
-305.074524
 11
145.583374
 21
-305.074524
  0
LINE
  8
0
  6
CENTER
 62
     1
 10
154.583374
 20
-296.074524
 11
154.583374
 21
-314.074524
  0
LINE
  8
0
 62
     4
 10
161.083435
 20
-299.574524
 11
161.083435
 21
-310.574524
  0
LINE
  8
0
 62
     4
 10
148.083374
 20
-299.574524
 11
148.083374
 21
-310.574524
  0
LINE
  8
0
 62
     4
 10
160.083435
 20
-298.574524
 11
149.083374
 21
-298.574524
  0
LINE
  8
0
 62
     4
 10
160.083435
 20
-311.574524
 11
149.083374
 21
-311.574524
  0
LINE
  8
0
 62
     4
 10
264.250031
 20
-299.786621
 11
264.250031
 21
-310.361755
  0
LINE
  8
0
  6
CENTER
 62
     1
 10
301.337036
 20
-305.074188
 11
260.697052
 21
-305.074188
  0
LINE
  8
0
 62
     4
 10
290.250000
 20
-311.574188
 11
264.950043
 21
-311.574188
  0
LINE
  8
0
 62
     4
 10
290.250000
 20
-298.574188
 11
264.949921
 21
-298.574188
  0
LINE
  8
0
 62
     4
 10
264.950043
 20
-298.574188
 11
264.950043
 21
-311.574188
  0
LINE
  8
0
 62
     4
 10
264.949951
 20
-298.574188
 11
264.249939
 21
-299.786652
  0
LINE
  8
0
 62
     4
 10
264.949799
 20
-311.574341
 11
264.249817
 21
-310.361938
  0
LINE
  8
0
 62
     4
 10
287.250061
 20
-298.574188
 11
287.250061
 21
-302.476105
  0
LINE
  8
0
 62
     4
 10
287.250031
 20
-302.476105
 11
264.950043
 21
-302.476105
  0
LINE
  8
0
 62
     4
 10
287.250031
 20
-307.672241
 11
264.950043
 21
-307.672241
  0
LINE
  8
0
 62
     4
 10
287.250061
 20
-307.672241
 11
287.250061
 21
-311.574188
  0
LINE
  8
0
 62
     4
 10
264.950073
 20
-302.475983
 11
264.250092
 21
-303.175995
  0
LINE
  8
0
 62
     4
 10
264.949860
 20
-307.672424
 11
264.249878
 21
-306.972443
  0
LINE
  8
0
 62
     4
 10
287.250000
 20
-302.476135
 11
289.502838
 21
-298.574097
  0
LINE
  8
0
 62
     4
 10
287.250183
 20
-307.672211
 11
289.503052
 21
-311.574310
  0
CIRCLE
  8
0
 10
-323.750000
 20
37.000000
 40
3.300000
  0
CIRCLE
  8
0
 10
-323.750000
 20
37.000000
 40
5.500000
  0
CIRCLE
  8
0
 10
-323.750000
 20
91.000000
 40
5.500000
  0
CIRCLE
  8
0
 10
-323.750000
 20
91.000000
 40
3.300000
  0
CIRCLE
  8
0
 10
-353.750000
 20
37.000000
 40
5.500000
  0
CIRCLE
  8
0
 10
-353.750000
 20
37.000000
 40
3.300000
  0
CIRCLE
  8
0
 10
-353.750000
 20
91.000000
 40
5.500000
  0
CIRCLE
  8
0
 10
-353.750000
 20
91.000000
 40
3.300000
  0
ARC
  8
0
 10
-324.516968
 20
135.000061
 40
0.800010
 50
184.999420
 51
270.000000
  0
ARC
  8
0
 10
-352.983032
 20
135.000061
 40
0.800003
 50
270.000000
 51
355.000580
  0
ARC
  8
0
 10
-326.769531
 20
137.800049
 40
1.200001
 50
4.999846
 51
90.000000
  0
ARC
  8
0
 10
-350.730469
 20
137.800049
 40
1.199997
 50
90.000000
 51
175.000153
  0
ARC
  8
0
 10
-363.196899
 20
138.500061
 40
0.500000
 50
90.000000
 51
174.999969
  0
ARC
  8
0
 10
-314.303101
 20
138.500061
 40
0.500011
 50
5.000035
 51
90.000000
  0
ARC
  8
0
 10
-319.750000
 20
130.799988
 40
8.000004
 50
57.910065
 51
122.089935
  0
ARC
  8
0
 10
-323.433350
 20
136.674042
 40
1.066663
 50
122.089050
 51
180.000000
  0
ARC
  8
0
 10
-316.066650
 20
136.674011
 40
1.066681
 50
0.000000
 51
57.909561
  0
ARC
  8
0
 10
-357.750000
 20
130.799988
 40
8.000004
 50
57.910065
 51
122.089935
  0
ARC
  8
0
 10
-361.433350
 20
136.674042
 40
1.066663
 50
122.089050
 51
180.000000
  0
ARC
  8
0
 10
-354.066650
 20
136.674011
 40
1.066681
 50
0.000000
 51
57.909561
  0
ARC
  8
0
 10
-361.433350
 20
-8.674042
 40
1.066681
 50
180.000046
 51
237.910812
  0
ARC
  8
0
 10
-357.750000
 20
-2.800018
 40
8.000005
 50
237.910065
 51
302.089966
  0
ARC
  8
0
 10
-354.066650
 20
-8.674042
 40
1.066674
 50
302.090607
 51
0.000051
  0
ARC
  8
0
 10
-316.066650
 20
-8.674042
 40
1.066674
 50
302.090607
 51
0.000051
  0
ARC
  8
0
 10
-323.433350
 20
-8.674042
 40
1.066681
 50
180.000046
 51
237.910812
  0
ARC
  8
0
 10
-324.516968
 20
-7.000000
 40
0.800000
 50
90.000000
 51
175.000076
  0
ARC
  8
0
 10
-352.983032
 20
-7.000000
 40
0.800011
 50
4.999930
 51
90.000000
  0
ARC
  8
0
 10
-326.769531
 20
-9.800018
 40
1.200000
 50
270.000000
 51
355.000214
  0
ARC
  8
0
 10
-350.730469
 20
-9.800018
 40
1.200001
 50
184.999893
 51
270.000000
  0
ARC
  8
0
 10
-363.196899
 20
-10.500000
 40
0.500011
 50
185.000137
 51
270.000000
  0
ARC
  8
0
 10
-314.303101
 20
-10.500000
 40
0.500000
 50
270.000000
 51
355.000061
  0
ARC
  8
0
 10
-319.750000
 20
-2.800018
 40
8.000005
 50
237.910065
 51
302.089966
  0
ARC
  8
0
 10
-333.120850
 20
140.677490
 40
3.322579
 50
55.616180
 51
124.383820
  0
ARC
  8
0
 10
-338.750000
 20
131.580505
 40
12.419527
 50
72.412163
 51
107.587814
  0
ARC
  8
0
 10
-344.379150
 20
140.677490
 40
3.322579
 50
55.616180
 51
124.383820
  0
ARC
  8
0
 10
-333.120850
 20
142.322601
 40
3.322579
 50
235.616180
 51
304.383820
  0
ARC
  8
0
 10
-338.750000
 20
151.419586
 40
12.419541
 50
252.412186
 51
287.587830
  0
ARC
  8
0
 10
-344.379150
 20
142.322601
 40
3.322579
 50
235.616180
 51
304.383820
  0
ARC
  8
0
 10
-333.120850
 20
-12.677429
 40
3.322581
 50
235.616196
 51
304.383881
  0
ARC
  8
0
 10
-344.379150
 20
-12.677429
 40
3.322577
 50
235.616150
 51
304.383820
  0
ARC
  8
0
 10
-338.750000
 20
-3.580475
 40
12.419535
 50
252.412186
 51
287.587830
  0
ARC
  8
0
 10
-333.120850
 20
-14.322601
 40
3.322575
 50
55.616135
 51
124.383804
  0
ARC
  8
0
 10
-344.379150
 20
-14.322601
 40
3.322579
 50
55.616180
 51
124.383850
  0
ARC
  8
0
 10
-338.750000
 20
-23.419525
 40
12.419529
 50
72.412170
 51
107.587822
  0
ARC
  8
0
 62
     4
 10
-388.893921
 20
72.227234
 40
4.856049
 50
145.615601
 51
214.384399
  0
ARC
  8
0
 62
     4
 10
-390.606018
 20
72.227234
 40
4.856049
 50
325.615601
 51
34.384331
  0
ARC
  8
0
 62
     4
 10
-403.901367
 20
64.000000
 40
18.151396
 50
342.411957
 51
17.587997
  0
ARC
  8
0
 62
     4
 10
-390.606018
 20
55.772766
 40
4.856046
 50
325.615631
 51
34.384403
  0
ARC
  8
0
 62
     4
 10
-375.598633
 20
64.000000
 40
18.151396
 50
162.411957
 51
197.588013
  0
ARC
  8
0
 62
     4
 10
-388.893921
 20
55.772766
 40
4.856050
 50
145.615555
 51
214.384323
  0
CIRCLE
  8
0
 62
     2
 10
-306.250000
 20
64.000000
 40
5.000000
  0
CIRCLE
  8
0
 10
-306.250000
 20
64.000000
 40
4.250000
  0
ARC
  8
0
 62
     4
 10
-339.500000
 20
23.937500
 40
0.812500
 50
22.619865
 51
157.380142
  0
ARC
  8
0
 62
     4
 10
-338.000000
 20
23.937500
 40
0.812500
 50
22.619865
 51
157.380142
  0
ARC
  8
0
 62
     4
 10
-339.500000
 20
24.562500
 40
0.812500
 50
202.619858
 51
337.380127
  0
ARC
  8
0
 62
     4
 10
-339.500000
 20
103.437500
 40
0.812500
 50
22.619865
 51
157.380142
  0
ARC
  8
0
 62
     4
 10
-338.000000
 20
104.062500
 40
0.812500
 50
202.619858
 51
337.380127
  0
ARC
  8
0
 62
     4
 10
-339.500000
 20
104.062500
 40
0.812500
 50
202.619858
 51
337.380127
  0
CIRCLE
  8
0
 62
     4
 10
-329.750000
 20
120.000000
 40
2.800000
  0
ARC
  8
0
 62
     4
 10
-278.250000
 20
89.985504
 40
3.000009
 50
49.262375
 51
130.737625
  0
ARC
  8
0
 62
     4
 10
-275.250000
 20
89.500000
 40
0.500000
 50
180.000000
 51
270.000000
  0
CIRCLE
  8
0
 62
     4
 10
-329.750000
 20
8.000000
 40
2.800000
  0
ARC
  8
0
 62
     4
 10
-244.949997
 20
29.814507
 40
0.799999
 50
270.000000
 51
0.000000
  0
ARC
  8
0
 62
     4
 10
-248.549988
 20
29.814507
 40
0.800003
 50
180.000137
 51
270.000000
  0
ARC
  8
0
 62
     4
 10
-239.250000
 20
38.014496
 40
2.999999
 50
229.262604
 51
310.737732
  0
ARC
  8
0
 62
     4
 10
-242.250000
 20
38.500000
 40
0.500000
 50
0.000000
 51
90.000000
  0
ARC
  8
0
 62
     4
 10
-251.250000
 20
38.500000
 40
0.500000
 50
90.000000
 51
180.000000
  0
ARC
  8
0
 62
     4
 10
-265.045776
 20
38.964508
 40
0.899999
 50
289.188354
 51
70.811737
  0
ARC
  8
0
 62
     4
 10
-264.454193
 20
38.964508
 40
0.899999
 50
109.188339
 51
250.811737
  0
ARC
  8
0
 62
     4
 10
-266.250000
 20
89.500000
 40
0.500000
 50
270.000000
 51
0.000000
  0
ARC
  8
0
 62
     4
 10
-272.200012
 20
93.785492
 40
0.999989
 50
143.129745
 51
236.633636
  0
ARC
  8
0
 62
     4
 10
-269.299988
 20
93.785492
 40
0.999995
 50
303.366364
 51
36.870247
  0
ARC
  8
0
 62
     4
 10
-252.454208
 20
89.035492
 40
0.899999
 50
109.188339
 51
250.811661
  0
ARC
  8
0
 62
     4
 10
-264.454193
 20
40.664505
 40
0.899999
 50
109.188339
 51
250.811661
  0
ARC
  8
0
 62
     4
 10
-272.549988
 20
98.185493
 40
0.800003
 50
90.000000
 51
180.000000
  0
ARC
  8
0
 62
     4
 10
-253.045807
 20
87.335495
 40
0.899999
 50
289.188354
 51
70.811661
  0
ARC
  8
0
 62
     4
 10
-253.045807
 20
89.035492
 40
0.899999
 50
289.188354
 51
70.811661
  0
ARC
  8
0
 62
     4
 10
-268.950012
 20
98.185493
 40
0.799988
 50
0.000000
 51
90.000000
  0
ARC
  8
0
 10
-516.397095
 20
137.800049
 40
1.199997
 50
90.000000
 51
175.000153
  0
ARC
  8
0
 10
-490.436157
 20
137.800049
 40
1.200002
 50
5.000572
 51
90.000000
  0
ARC
  8
0
 10
-528.863525
 20
138.500061
 40
0.500000
 50
90.000000
 51
174.999969
  0
ARC
  8
0
 10
-477.969727
 20
138.500061
 40
0.500011
 50
5.000035
 51
90.000000
  0
ARC
  8
0
 10
-518.649658
 20
135.000061
 40
0.800003
 50
270.000000
 51
355.000397
  0
ARC
  8
0
 10
-488.183594
 20
135.000061
 40
0.800010
 50
184.999420
 51
270.000000
  0
ARC
  8
0
 10
-523.416626
 20
130.799988
 40
8.000004
 50
57.910065
 51
122.089935
  0
ARC
  8
0
 10
-519.733276
 20
136.674042
 40
1.066650
 50
0.000000
 51
57.910950
  0
ARC
  8
0
 10
-527.099976
 20
136.674011
 40
1.066663
 50
122.089050
 51
180.000000
  0
ARC
  8
0
 10
-483.416626
 20
130.799988
 40
8.000004
 50
57.910065
 51
122.089935
  0
ARC
  8
0
 10
-479.733276
 20
136.674042
 40
1.066681
 50
0.000000
 51
57.909561
  0
ARC
  8
0
 10
-487.099976
 20
136.674011
 40
1.066679
 50
122.090439
 51
180.000000
  0
ARC
  8
0
 10
-483.416626
 20
-2.800018
 40
7.999997
 50
237.910034
 51
302.089935
  0
ARC
  8
0
 10
-487.099976
 20
-8.674042
 40
1.066681
 50
179.999893
 51
237.909393
  0
ARC
  8
0
 10
-479.733276
 20
-8.674042
 40
1.066659
 50
302.089172
 51
359.999939
  0
ARC
  8
0
 10
-523.416626
 20
-2.800018
 40
7.999997
 50
237.910034
 51
302.089935
  0
ARC
  8
0
 10
-527.099976
 20
-8.674042
 40
1.066650
 50
179.999893
 51
237.910782
  0
ARC
  8
0
 10
-519.733276
 20
-8.674042
 40
1.066659
 50
302.089172
 51
359.999939
  0
ARC
  8
0
 10
-516.397095
 20
-9.800018
 40
1.200001
 50
184.999756
 51
270.000000
  0
ARC
  8
0
 10
-490.436157
 20
-9.800018
 40
1.200000
 50
270.000000
 51
354.999695
  0
ARC
  8
0
 10
-528.863525
 20
-10.500000
 40
0.500010
 50
184.999817
 51
270.000000
  0
ARC
  8
0
 10
-477.969727
 20
-10.500000
 40
0.500000
 50
270.000000
 51
354.999969
  0
ARC
  8
0
 10
-518.649658
 20
-7.000000
 40
0.799980
 50
5.000052
 51
90.000000
  0
ARC
  8
0
 10
-488.183594
 20
-7.000000
 40
0.800000
 50
90.000000
 51
175.000031
  0
ARC
  8
0
 10
-492.166626
 20
-20.387238
 40
9.387235
 50
69.744026
 51
110.255974
  0
ARC
  8
0
 10
-485.666748
 20
-20.387238
 40
9.387231
 50
69.744019
 51
110.255966
  0
ARC
  8
0
 10
-492.166626
 20
-6.612793
 40
9.387232
 50
249.744019
 51
290.255981
  0
ARC
  8
0
 10
-485.666748
 20
-6.612793
 40
9.387235
 50
249.744034
 51
290.255981
  0
ARC
  8
0
 10
-485.666748
 20
134.612793
 40
9.387238
 50
69.744034
 51
110.255966
  0
ARC
  8
0
 10
-492.166626
 20
148.387268
 40
9.387238
 50
249.744034
 51
290.255951
  0
ARC
  8
0
 10
-485.666748
 20
148.387268
 40
9.387238
 50
249.744034
 51
290.255951
  0
ARC
  8
0
 10
-492.166626
 20
134.612793
 40
9.387238
 50
69.744034
 51
110.255966
  0
CIRCLE
  8
0
 62
     2
 10
-484.416748
 20
83.000031
 40
3.000000
  0
CIRCLE
  8
0
 62
     2
 10
-484.416626
 20
45.000000
 40
3.000000
  0
CIRCLE
  8
0
 62
     2
 10
-522.416626
 20
83.000000
 40
3.000000
  0
CIRCLE
  8
0
 62
     2
 10
-522.416626
 20
45.000000
 40
3.000000
  0
CIRCLE
  8
0
 10
-484.416748
 20
83.000031
 40
2.458500
  0
CIRCLE
  8
0
 10
-484.416626
 20
45.000000
 40
2.458500
  0
CIRCLE
  8
0
 10
-522.416626
 20
83.000000
 40
2.458500
  0
CIRCLE
  8
0
 10
-522.416626
 20
45.000000
 40
2.458500
  0
CIRCLE
  8
0
 10
-503.416626
 20
64.000000
 40
22.000000
  0
CIRCLE
  8
0
 10
-503.416626
 20
64.000000
 40
16.000000
  0
CIRCLE
  8
0
 10
-503.416626
 20
64.000000
 40
15.300000
  0
CIRCLE
  8
0
 62
     4
 10
-503.416626
 20
64.000000
 40
9.500000
  0
CIRCLE
  8
0
 62
     4
 10
-503.416626
 20
64.000000
 40
5.287500
  0
CIRCLE
  8
0
 62
     4
 10
-503.416626
 20
64.000000
 40
7.000000
  0
CIRCLE
  8
0
 62
     1
 10
-503.416626
 20
64.000000
 40
5.917511
  0
ARC
  8
0
 62
     4
 10
-473.216614
 20
120.000000
 40
5.000002
 50
330.507721
 51
29.492359
  0
ARC
  8
0
 62
     4
 10
-469.444794
 20
122.133331
 40
0.666674
 50
29.491623
 51
90.000000
  0
ARC
  8
0
 62
     4
 10
-469.444794
 20
117.866669
 40
0.666664
 50
270.000000
 51
330.508362
  0
ARC
  8
0
 62
     4
 10
-475.166626
 20
104.062500
 40
0.812500
 50
202.619858
 51
337.380127
  0
ARC
  8
0
 62
     4
 10
-473.666626
 20
104.062500
 40
0.812500
 50
202.619858
 51
337.380127
  0
ARC
  8
0
 62
     4
 10
-475.166626
 20
103.437500
 40
0.812500
 50
22.619865
 51
157.380142
  0
ARC
  8
0
 62
     4
 10
-475.166626
 20
24.562500
 40
0.812500
 50
202.619858
 51
337.380127
  0
ARC
  8
0
 62
     4
 10
-473.666626
 20
23.937500
 40
0.812500
 50
22.619865
 51
157.380142
  0
ARC
  8
0
 62
     4
 10
-475.166626
 20
23.937500
 40
0.812500
 50
22.619865
 51
157.380142
  0
ARC
  8
0
 62
     4
 10
-469.444794
 20
10.133331
 40
0.666676
 50
29.491838
 51
90.000000
  0
ARC
  8
0
 62
     4
 10
-469.444794
 20
5.866669
 40
0.666667
 50
270.000000
 51
330.508057
  0
ARC
  8
0
 62
     4
 10
-473.216614
 20
8.000000
 40
5.000007
 50
330.507629
 51
29.492273
  0
ARC
  8
0
 10
-97.102905
 20
137.799988
 40
1.200001
 50
4.999846
 51
90.000000
  0
ARC
  8
0
 10
-123.063782
 20
137.799988
 40
1.199997
 50
90.000000
 51
174.999435
  0
ARC
  8
0
 10
-84.636414
 20
138.500000
 40
0.500003
 50
5.000111
 51
90.000000
  0
ARC
  8
0
 10
-135.530273
 20
138.500000
 40
0.500000
 50
90.000000
 51
174.999817
  0
ARC
  8
0
 10
-94.850220
 20
135.000000
 40
0.800003
 50
184.999466
 51
270.000000
  0
ARC
  8
0
 10
-125.316406
 20
135.000000
 40
0.800003
 50
270.000000
 51
355.000519
  0
ARC
  8
0
 10
-90.083374
 20
130.799988
 40
8.000004
 50
57.910065
 51
122.089890
  0
ARC
  8
0
 10
-93.766663
 20
136.674011
 40
1.066671
 50
122.089745
 51
180.000000
  0
ARC
  8
0
 10
-86.400024
 20
136.674011
 40
1.066666
 50
0.000000
 51
57.910255
  0
ARC
  8
0
 10
-130.083374
 20
130.799988
 40
8.000004
 50
57.910065
 51
122.089844
  0
ARC
  8
0
 10
-133.766724
 20
136.674011
 40
1.066671
 50
122.089745
 51
180.000000
  0
ARC
  8
0
 10
-126.400024
 20
136.674011
 40
1.066666
 50
0.000000
 51
57.910255
  0
ARC
  8
0
 10
-130.083374
 20
-2.800018
 40
7.999996
 50
237.910156
 51
302.089966
  0
ARC
  8
0
 10
-126.400024
 20
-8.674042
 40
1.066666
 50
302.089905
 51
0.000051
  0
ARC
  8
0
 10
-133.766724
 20
-8.674042
 40
1.066666
 50
180.000046
 51
237.910126
  0
ARC
  8
0
 10
-90.083374
 20
-2.800018
 40
8.000000
 50
237.910110
 51
302.089966
  0
ARC
  8
0
 10
-86.400024
 20
-8.674042
 40
1.066666
 50
302.089905
 51
0.000051
  0
ARC
  8
0
 10
-93.766663
 20
-8.674042
 40
1.066666
 50
180.000046
 51
237.910126
  0
ARC
  8
0
 10
-97.102905
 20
-9.800018
 40
1.200000
 50
270.000000
 51
355.000214
  0
ARC
  8
0
 10
-123.063782
 20
-9.800018
 40
1.200001
 50
185.000259
 51
270.000000
  0
ARC
  8
0
 10
-84.636414
 20
-10.500000
 40
0.500000
 50
270.000000
 51
355.000000
  0
ARC
  8
0
 10
-135.530273
 20
-10.500000
 40
0.499995
 50
185.000183
 51
270.000000
  0
ARC
  8
0
 10
-94.850220
 20
-7.000000
 40
0.800000
 50
90.000000
 51
175.000061
  0
ARC
  8
0
 10
-125.316406
 20
-7.000000
 40
0.800003
 50
4.999978
 51
90.000000
  0
ARC
  8
0
 10
-121.333374
 20
-20.387238
 40
9.387234
 50
69.743973
 51
110.255928
  0
ARC
  8
0
 10
-127.833313
 20
-20.387238
 40
9.387235
 50
69.744026
 51
110.255974
  0
ARC
  8
0
 10
-121.333374
 20
-6.612793
 40
9.387235
 50
249.744034
 51
290.255981
  0
ARC
  8
0
 10
-127.833313
 20
-6.612793
 40
9.387238
 50
249.743927
 51
290.255920
  0
ARC
  8
0
 10
-127.833313
 20
134.612793
 40
9.387238
 50
69.744034
 51
110.255966
  0
ARC
  8
0
 10
-121.333374
 20
148.387207
 40
9.387238
 50
249.744034
 51
290.255951
  0
ARC
  8
0
 10
-127.833313
 20
148.387207
 40
9.387242
 50
249.743942
 51
290.255920
  0
ARC
  8
0
 10
-121.333374
 20
134.612793
 40
9.387240
 50
69.743988
 51
110.255920
  0
ARC
  8
0
 10
-110.083374
 20
64.000000
 40
32.000000
 50
41.409561
 51
87.761261
  0
ARC
  8
0
 10
-110.083374
 20
64.000000
 40
31.999998
 50
221.409622
 51
267.761230
  0
CIRCLE
  8
0
 10
-129.083313
 20
83.000000
 40
3.500000
  0
CIRCLE
  8
0
 10
-129.083313
 20
83.000000
 40
2.980385
  0
CIRCLE
  8
0
 10
-129.083313
 20
83.000000
 40
4.000000
  0
CIRCLE
  8
0
 10
-91.083374
 20
83.000000
 40
4.000000
  0
CIRCLE
  8
0
 10
-91.083374
 20
83.000000
 40
3.500000
  0
CIRCLE
  8
0
 10
-91.083374
 20
83.000000
 40
2.980385
  0
CIRCLE
  8
0
 10
-91.083374
 20
45.000000
 40
4.000000
  0
CIRCLE
  8
0
 10
-91.083374
 20
45.000000
 40
3.500000
  0
CIRCLE
  8
0
 10
-91.083374
 20
45.000000
 40
2.980385
  0
CIRCLE
  8
0
 10
-129.083313
 20
45.000000
 40
4.000000
  0
CIRCLE
  8
0
 10
-129.083313
 20
45.000000
 40
3.500000
  0
CIRCLE
  8
0
 10
-129.083313
 20
45.000000
 40
2.980385
  0
CIRCLE
  8
0
 10
-110.083374
 20
64.000000
 40
20.800001
  0
ARC
  8
0
 10
-110.083374
 20
64.000000
 40
19.799997
 50
326.251007
 51
33.748936
  0
ARC
  8
0
 10
-110.083374
 20
64.000000
 40
19.799997
 50
146.250961
 51
213.748962
  0
CIRCLE
  8
0
 62
     2
 10
-110.083374
 20
64.000000
 40
5.000000
  0
CIRCLE
  8
0
 10
-110.083374
 20
64.000000
 40
4.250000
  0
CIRCLE
  8
0
 62
     2
 10
-119.083313
 20
3.500000
 40
5.000000
  0
CIRCLE
  8
0
 10
-119.083313
 20
3.500000
 40
4.250000
  0
CIRCLE
  8
0
 62
     2
 10
-119.083313
 20
124.500000
 40
5.000000
  0
CIRCLE
  8
0
 10
-119.083313
 20
124.500000
 40
4.250000
  0
ARC
  8
0
 10
-110.083374
 20
64.000000
 40
32.000000
 50
92.238647
 51
94.480759
  0
ARC
  8
0
 10
-110.083374
 20
64.000000
 40
32.000000
 50
98.326553
 51
138.590347
  0
ARC
  8
0
 10
-110.083374
 20
64.000000
 40
32.000000
 50
272.238617
 51
274.480743
  0
ARC
  8
0
 10
-110.083374
 20
64.000000
 40
32.000000
 50
278.326538
 51
318.590393
  0
CIRCLE
  8
0
 62
     4
 10
-110.083374
 20
88.185501
 40
2.500000
  0
ARC
  8
0
 62
     4
 10
-108.283401
 20
29.814514
 40
0.799999
 50
270.000000
 51
0.000000
  0
ARC
  8
0
 62
     4
 10
-111.883408
 20
29.814514
 40
0.800003
 50
180.000000
 51
270.000000
  0
ARC
  8
0
 62
     4
 10
-106.083405
 20
39.000015
 40
0.150000
 50
124.041664
 51
180.000000
  0
ARC
  8
0
 62
     4
 10
-114.083405
 20
39.000015
 40
0.150002
 50
0.000000
 51
55.955921
  0
ARC
  8
0
 62
     4
 10
-106.083389
 20
39.000000
 40
0.150001
 50
128.473206
 51
180.000000
  0
ARC
  8
0
 62
     4
 10
-114.083389
 20
39.000000
 40
0.150002
 50
0.000000
 51
51.526791
  0
ARC
  8
0
 62
     4
 10
-106.083374
 20
39.000000
 40
0.149999
 50
133.437805
 51
180.000000
  0
ARC
  8
0
 62
     4
 10
-114.083374
 20
39.000000
 40
0.150002
 50
0.000000
 51
46.562187
  0
ARC
  8
0
 62
     4
 10
-106.083374
 20
39.000000
 40
0.150003
 50
138.248245
 51
180.000000
  0
CIRCLE
  8
0
 62
     4
 10
-110.083374
 20
88.185501
 40
1.699997
  0
ARC
  8
0
 62
     4
 10
-106.583344
 20
93.499985
 40
0.500000
 50
0.000000
 51
90.000000
  0
ARC
  8
0
 62
     4
 10
-107.483337
 20
93.199982
 40
0.800003
 50
90.000000
 51
180.000000
  0
ARC
  8
0
 62
     4
 10
-112.683350
 20
93.199982
 40
0.800003
 50
0.000000
 51
90.000000
  0
ARC
  8
0
 62
     4
 10
-114.883347
 20
93.799988
 40
1.200003
 50
99.593895
 51
180.000000
  0
ARC
  8
0
 62
     4
 10
-106.283340
 20
93.799988
 40
1.199997
 50
0.000000
 51
90.000000
  0
ARC
  8
0
 62
     4
 10
-110.083344
 20
80.185486
 40
5.000000
 50
64.158051
 51
115.841949
  0
ARC
  8
0
 62
     4
 10
-110.083344
 20
89.985489
 40
2.999999
 50
49.262596
 51
130.737396
  0
ARC
  8
0
 62
     4
 10
-111.883347
 20
98.185486
 40
0.800003
 50
90.000000
 51
180.000000
  0
ARC
  8
0
 62
     4
 10
-108.283340
 20
98.185486
 40
0.800003
 50
0.000000
 51
90.000000
  0
ARC
  8
0
 62
     4
 10
-114.083374
 20
39.000000
 40
0.150002
 50
0.000000
 51
41.751759
  0
ARC
  8
0
 62
     4
 10
-106.084442
 20
38.999756
 40
0.149998
 50
144.360016
 51
179.997086
  0
ARC
  8
0
 62
     4
 10
-106.083374
 20
39.000000
 40
0.150000
 50
150.048355
 51
180.000000
  0
ARC
  8
0
 62
     4
 10
-114.083374
 20
39.000000
 40
0.150002
 50
0.000000
 51
29.951639
  0
ARC
  8
0
 62
     4
 10
-110.083374
 20
64.000000
 40
20.949999
 50
309.605347
 51
230.394516
  0
ARC
  8
0
 62
     4
 10
-144.055206
 20
10.133377
 40
0.666667
 50
90.000000
 51
150.507446
  0
ARC
  8
0
 62
     4
 10
-140.283371
 20
8.000046
 40
5.000005
 50
150.507660
 51
209.492310
  0
ARC
  8
0
 62
     4
 10
-144.055206
 20
5.866714
 40
0.666663
 50
209.492523
 51
270.000000
  0
ARC
  8
0
 62
     4
 10
-139.833374
 20
23.937546
 40
0.812500
 50
22.619865
 51
157.380142
  0
ARC
  8
0
 62
     4
 10
-138.333374
 20
23.937546
 40
0.812500
 50
22.619865
 51
157.380142
  0
ARC
  8
0
 62
     4
 10
-139.833374
 20
24.562546
 40
0.812500
 50
202.619858
 51
337.380127
  0
ARC
  8
0
 62
     4
 10
-139.833374
 20
103.437454
 40
0.812500
 50
22.619865
 51
157.380142
  0
ARC
  8
0
 62
     4
 10
-138.333374
 20
104.062454
 40
0.812500
 50
202.619858
 51
337.380127
  0
ARC
  8
0
 62
     4
 10
-139.833374
 20
104.062454
 40
0.812500
 50
202.619858
 51
337.380127
  0
ARC
  8
0
 62
     4
 10
-144.055206
 20
122.133286
 40
0.666664
 50
90.000000
 51
150.507736
  0
ARC
  8
0
 62
     4
 10
-144.055206
 20
117.866623
 40
0.666661
 50
209.492264
 51
270.000000
  0
ARC
  8
0
 62
     4
 10
-140.283371
 20
119.999954
 40
5.000002
 50
150.507721
 51
209.492355
  0
ARC
  8
0
 62
     4
 10
-110.083405
 20
38.014511
 40
2.999999
 50
229.262604
 51
310.737396
  0
ARC
  8
0
 62
     4
 10
-110.083405
 20
47.814514
 40
5.000000
 50
244.157959
 51
295.841858
  0
ARC
  8
0
 62
     4
 10
-114.083344
 20
88.999985
 40
0.150001
 50
304.044891
 51
0.000000
  0
ARC
  8
0
 62
     4
 10
-106.083344
 20
88.999985
 40
0.150002
 50
180.000000
 51
235.955109
  0
ARC
  8
0
 62
     4
 10
-113.883408
 20
34.200012
 40
1.199997
 50
180.000000
 51
270.000000
  0
ARC
  8
0
 62
     4
 10
-105.283401
 20
34.200012
 40
1.200000
 50
279.593933
 51
0.000000
  0
ARC
  8
0
 62
     4
 10
-114.083359
 20
89.000000
 40
0.149998
 50
308.474121
 51
0.000000
  0
ARC
  8
0
 62
     4
 10
-106.083359
 20
89.000000
 40
0.150002
 50
180.000000
 51
231.525879
  0
ARC
  8
0
 62
     4
 10
-114.083374
 20
89.000000
 40
0.149999
 50
313.437805
 51
0.000000
  0
ARC
  8
0
 62
     4
 10
-106.083374
 20
89.000000
 40
0.150002
 50
180.000000
 51
226.562195
  0
ARC
  8
0
 62
     4
 10
-107.483398
 20
34.800018
 40
0.800003
 50
180.000000
 51
270.000000
  0
ARC
  8
0
 62
     4
 10
-114.083374
 20
89.000000
 40
0.150006
 50
318.247162
 51
0.000000
  0
ARC
  8
0
 62
     4
 10
-106.083374
 20
89.000000
 40
0.150002
 50
180.000000
 51
221.750671
  0
ARC
  8
0
 62
     4
 10
-114.082306
 20
89.000244
 40
0.149998
 50
324.360016
 51
359.997101
  0
ARC
  8
0
 62
     4
 10
-114.083374
 20
89.000000
 40
0.150000
 50
330.048370
 51
0.000000
  0
ARC
  8
0
 62
     4
 10
-106.083374
 20
89.000000
 40
0.150002
 50
180.000000
 51
209.951645
  0
ARC
  8
0
 62
     4
 10
-113.583344
 20
94.499985
 40
0.500000
 50
90.000000
 51
180.000000
  0
ARC
  8
0
 62
     4
 10
-113.883347
 20
94.799988
 40
1.199997
 50
90.000000
 51
180.000000
  0
ARC
  8
0
 62
     4
 10
-106.583405
 20
33.500015
 40
0.500000
 50
270.000000
 51
0.000000
  0
ARC
  8
0
 62
     4
 10
-106.283401
 20
33.200012
 40
1.200001
 50
270.000000
 51
0.000000
  0
ARC
  8
0
 62
     4
 10
-113.583405
 20
34.500015
 40
0.500000
 50
180.000000
 51
270.000000
  0
ARC
  8
0
 62
     4
 10
-112.683411
 20
34.800018
 40
0.799999
 50
270.000000
 51
0.000000
  0
ARC
  8
0
 10
-315.750000
 20
-137.666672
 40
3.000000
 50
0.000000
 51
90.000000
  0
ARC
  8
0
 10
-361.750000
 20
-137.666672
 40
3.000000
 50
90.000000
 51
180.000000
  0
ARC
  8
0
 10
-361.750000
 20
-185.666687
 40
3.000000
 50
180.000000
 51
270.000000
  0
ARC
  8
0
 10
-315.750000
 20
-185.666687
 40
3.000000
 50
270.000000
 51
0.000000
  0
CIRCLE
  8
0
 10
-319.750000
 20
-141.666672
 40
4.750000
  0
CIRCLE
  8
0
 10
-357.750000
 20
-141.666672
 40
4.750000
  0
CIRCLE
  8
0
 10
-319.750000
 20
-181.666672
 40
4.750000
  0
CIRCLE
  8
0
 10
-357.750000
 20
-181.666672
 40
4.750000
  0
ARC
  8
0
 10
-319.750000
 20
-141.666672
 40
5.500000
 50
180.000000
 51
270.000000
  0
ARC
  8
0
 10
-357.750000
 20
-141.666672
 40
5.500000
 50
270.000000
 51
0.000000
  0
ARC
  8
0
 10
-357.750000
 20
-181.666672
 40
5.500000
 50
0.000000
 51
90.000000
  0
ARC
  8
0
 10
-319.750000
 20
-181.666672
 40
5.500000
 50
90.000000
 51
180.000000
  0
ARC
  8
0
 10
-315.750000
 20
-137.666672
 40
2.500000
 50
0.000000
 51
90.000000
  0
ARC
  8
0
 10
-315.750000
 20
-185.666687
 40
2.500000
 50
270.000000
 51
0.000000
  0
ARC
  8
0
 10
-361.750000
 20
-185.666687
 40
2.500000
 50
180.000000
 51
270.000000
  0
ARC
  8
0
 10
-361.750000
 20
-137.666672
 40
2.500000
 50
90.000000
 51
180.000000
  0
ARC
  8
0
 10
-363.750000
 20
-147.666672
 40
0.500000
 50
90.000000
 51
180.000000
  0
ARC
  8
0
 10
-351.750000
 20
-187.666672
 40
0.500000
 50
180.000000
 51
270.000000
  0
ARC
  8
0
 10
-351.750000
 20
-135.666656
 40
0.500000
 50
90.000000
 51
180.000000
  0
ARC
  8
0
 10
-363.750000
 20
-175.666687
 40
0.500000
 50
180.000000
 51
270.000000
  0
ARC
  8
0
 10
-325.750000
 20
-187.666672
 40
0.500000
 50
270.000000
 51
0.000000
  0
ARC
  8
0
 10
-313.750000
 20
-175.666687
 40
0.500000
 50
270.000000
 51
0.000000
  0
CIRCLE
  8
0
 10
-338.750000
 20
-147.166687
 40
6.500000
  0
CIRCLE
  8
0
 62
     2
 10
-338.750000
 20
-147.166687
 40
4.000000
  0
CIRCLE
  8
0
 10
-338.750000
 20
-147.166687
 40
3.323501
  0
ARC
  8
0
 62
     4
 10
-399.469604
 20
-166.416656
 40
13.719604
 50
339.743713
 51
20.256220
  0
ARC
  8
0
 62
     4
 10
-380.030396
 20
-166.416656
 40
13.719604
 50
159.743713
 51
200.256287
  0
ARC
  8
0
 62
     4
 10
-399.469604
 20
-156.916656
 40
13.719600
 50
339.743774
 51
20.256281
  0
ARC
  8
0
 62
     4
 10
-380.030396
 20
-156.916656
 40
13.719604
 50
159.743713
 51
200.256287
  0
ARC
  8
0
 10
-325.750000
 20
-135.666672
 40
0.500000
 50
0.000000
 51
90.000000
  0
ARC
  8
0
 10
-313.750000
 20
-147.666656
 40
0.500000
 50
0.000000
 51
90.000000
  0
ARC
  8
0
 62
     4
 10
-264.454193
 20
-160.816681
 40
0.900007
 50
109.188187
 51
250.811813
  0
ARC
  8
0
 62
     4
 10
-264.454193
 20
-162.516678
 40
0.900007
 50
109.188187
 51
250.811813
  0
CIRCLE
  8
0
 62
     4
 10
-239.250000
 20
-161.666672
 40
2.000000
  0
ARC
  8
0
 62
     4
 10
-249.250000
 20
-166.166672
 40
1.000002
 50
299.999939
 51
150.000076
  0
ARC
  8
0
 62
     4
 10
-244.250000
 20
-166.166672
 40
1.000002
 50
29.999931
 51
240.000076
  0
ARC
  8
0
 62
     4
 10
-251.250000
 20
-165.166672
 40
0.500000
 50
180.000000
 51
270.000000
  0
ARC
  8
0
 62
     4
 10
-242.250000
 20
-165.166672
 40
0.500000
 50
270.000000
 51
0.000000
  0
ARC
  8
0
 62
     4
 10
-251.250000
 20
-157.166672
 40
0.500000
 50
90.000000
 51
180.000000
  0
ARC
  8
0
 62
     4
 10
-242.250000
 20
-157.166672
 40
0.500000
 50
0.000000
 51
90.000000
  0
ARC
  8
0
 62
     4
 10
-265.045807
 20
-160.816681
 40
0.900007
 50
289.188171
 51
70.811813
  0
CIRCLE
  8
0
 62
     4
 10
-246.750000
 20
-161.666672
 40
2.600006
  0
CIRCLE
  8
0
 62
     4
 10
-338.750000
 20
-132.666656
 40
1.499996
  0
ARC
  8
0
 62
     4
 10
-327.616669
 20
-127.694824
 40
0.666656
 50
0.000000
 51
60.506912
  0
ARC
  8
0
 62
     4
 10
-331.883331
 20
-127.694824
 40
0.666675
 50
119.493088
 51
180.000000
  0
ARC
  8
0
 62
     4
 10
-329.750000
 20
-131.466660
 40
5.000003
 50
60.507523
 51
119.492477
  0
ARC
  8
0
 62
     4
 10
-436.916565
 20
-299.574524
 40
1.000000
 50
0.000000
 51
90.000000
  0
ARC
  8
0
 62
     4
 10
-436.916565
 20
-310.574524
 40
1.000000
 50
270.000000
 51
0.000000
  0
ARC
  8
0
 62
     4
 10
-447.916626
 20
-299.574524
 40
1.000000
 50
90.000000
 51
180.000000
  0
ARC
  8
0
 62
     4
 10
-447.916626
 20
-310.574524
 40
1.000000
 50
180.000000
 51
270.000000
  0
ARC
  8
0
 62
     4
 10
-442.416626
 20
-305.074524
 40
7.499990
 50
119.926308
 51
150.073486
  0
ARC
  8
0
 62
     4
 10
-442.416626
 20
-305.074524
 40
7.499990
 50
29.926308
 51
60.073490
  0
ARC
  8
0
 62
     4
 10
-442.416626
 20
-305.074524
 40
7.500006
 50
299.926514
 51
330.073486
  0
ARC
  8
0
 62
     4
 10
-442.416626
 20
-305.074524
 40
7.500006
 50
209.926514
 51
240.073486
  0
CIRCLE
  8
0
 62
     1
 10
-442.416626
 20
-305.074524
 40
3.000000
  0
CIRCLE
  8
0
 62
     4
 10
-442.416626
 20
-305.074524
 40
2.458500
  0
CIRCLE
  8
0
 10
273.750000
 20
37.000000
 40
3.300000
  0
CIRCLE
  8
0
 10
273.750000
 20
37.000000
 40
5.500000
  0
CIRCLE
  8
0
 10
273.750000
 20
91.000000
 40
5.500000
  0
CIRCLE
  8
0
 10
273.750000
 20
91.000000
 40
3.300000
  0
CIRCLE
  8
0
 10
243.750000
 20
37.000000
 40
5.500000
  0
CIRCLE
  8
0
 10
243.750000
 20
37.000000
 40
3.300000
  0
CIRCLE
  8
0
 10
243.750000
 20
91.000000
 40
5.500000
  0
CIRCLE
  8
0
 10
243.750000
 20
91.000000
 40
3.300000
  0
ARC
  8
0
 10
272.983032
 20
135.000061
 40
0.800010
 50
184.999420
 51
270.000000
  0
ARC
  8
0
 10
244.516968
 20
135.000061
 40
0.800003
 50
270.000000
 51
355.000488
  0
ARC
  8
0
 10
270.730469
 20
137.800049
 40
1.200001
 50
4.999846
 51
90.000000
  0
ARC
  8
0
 10
246.769531
 20
137.800049
 40
1.199997
 50
90.000000
 51
175.000153
  0
ARC
  8
0
 10
234.303101
 20
138.500061
 40
0.500000
 50
90.000000
 51
174.999817
  0
ARC
  8
0
 10
283.196899
 20
138.500061
 40
0.500011
 50
5.000035
 51
90.000000
  0
ARC
  8
0
 10
277.750000
 20
130.799988
 40
8.000004
 50
57.910065
 51
122.089935
  0
ARC
  8
0
 10
274.066650
 20
136.674042
 40
1.066663
 50
122.089050
 51
180.000000
  0
ARC
  8
0
 10
281.433350
 20
136.674011
 40
1.066681
 50
0.000000
 51
57.909561
  0
ARC
  8
0
 10
239.750000
 20
130.799988
 40
8.000004
 50
57.910065
 51
122.089844
  0
ARC
  8
0
 10
236.066650
 20
136.674042
 40
1.066671
 50
122.089745
 51
180.000000
  0
ARC
  8
0
 10
243.433350
 20
136.674011
 40
1.066666
 50
0.000000
 51
57.910255
  0
ARC
  8
0
 10
236.066650
 20
-8.674042
 40
1.066666
 50
180.000046
 51
237.910126
  0
ARC
  8
0
 10
239.750000
 20
-2.800018
 40
7.999996
 50
237.910156
 51
302.089966
  0
ARC
  8
0
 10
243.433350
 20
-8.674042
 40
1.066666
 50
302.089905
 51
0.000051
  0
ARC
  8
0
 10
281.433350
 20
-8.674042
 40
1.066674
 50
302.090607
 51
0.000051
  0
ARC
  8
0
 10
274.066650
 20
-8.674042
 40
1.066681
 50
180.000046
 51
237.910812
  0
ARC
  8
0
 10
272.983032
 20
-7.000000
 40
0.800000
 50
90.000000
 51
175.000076
  0
ARC
  8
0
 10
244.516968
 20
-7.000000
 40
0.799996
 50
5.000025
 51
90.000000
  0
ARC
  8
0
 10
270.730469
 20
-9.800018
 40
1.200000
 50
270.000000
 51
355.000214
  0
ARC
  8
0
 10
246.769531
 20
-9.800018
 40
1.200001
 50
184.999893
 51
270.000000
  0
ARC
  8
0
 10
234.303101
 20
-10.500000
 40
0.499995
 50
185.000290
 51
270.000000
  0
ARC
  8
0
 10
283.196899
 20
-10.500000
 40
0.500000
 50
270.000000
 51
355.000061
  0
ARC
  8
0
 10
277.750000
 20
-2.800018
 40
8.000005
 50
237.910065
 51
302.089966
  0
ARC
  8
0
 10
264.379150
 20
140.677490
 40
3.322579
 50
55.616180
 51
124.383820
  0
ARC
  8
0
 10
258.750000
 20
131.580505
 40
12.419527
 50
72.412163
 51
107.587746
  0
ARC
  8
0
 10
253.120850
 20
140.677490
 40
3.322588
 50
55.615963
 51
124.384033
  0
ARC
  8
0
 10
264.379150
 20
142.322601
 40
3.322579
 50
235.616180
 51
304.383820
  0
ARC
  8
0
 10
258.750000
 20
151.419586
 40
12.419537
 50
252.412262
 51
287.587830
  0
ARC
  8
0
 10
253.120850
 20
142.322601
 40
3.322588
 50
235.615967
 51
304.384033
  0
ARC
  8
0
 10
264.379150
 20
-12.677429
 40
3.322581
 50
235.616196
 51
304.383881
  0
ARC
  8
0
 10
253.120850
 20
-12.677429
 40
3.322585
 50
235.615936
 51
304.384033
  0
ARC
  8
0
 10
258.750000
 20
-3.580475
 40
12.419530
 50
252.412247
 51
287.587830
  0
ARC
  8
0
 10
264.379150
 20
-14.322601
 40
3.322575
 50
55.616135
 51
124.383804
  0
ARC
  8
0
 10
253.120850
 20
-14.322601
 40
3.322588
 50
55.615963
 51
124.384064
  0
ARC
  8
0
 10
258.750000
 20
-23.419525
 40
12.419529
 50
72.412170
 51
107.587753
  0
ARC
  8
0
 62
     4
 10
208.606079
 20
72.227234
 40
4.856049
 50
145.615601
 51
214.384399
  0
ARC
  8
0
 62
     4
 10
206.893982
 20
72.227234
 40
4.856049
 50
325.615601
 51
34.384331
  0
ARC
  8
0
 62
     4
 10
193.598633
 20
64.000000
 40
18.151396
 50
342.411957
 51
17.587997
  0
ARC
  8
0
 62
     4
 10
206.893982
 20
55.772766
 40
4.856046
 50
325.615631
 51
34.384403
  0
ARC
  8
0
 62
     4
 10
221.901367
 20
64.000000
 40
18.151396
 50
162.411957
 51
197.588013
  0
ARC
  8
0
 62
     4
 10
208.606079
 20
55.772766
 40
4.856050
 50
145.615555
 51
214.384323
  0
CIRCLE
  8
0
 62
     2
 10
291.250000
 20
64.000000
 40
5.000000
  0
CIRCLE
  8
0
 10
291.250000
 20
64.000000
 40
4.250000
  0
ARC
  8
0
 62
     4
 10
328.549988
 20
98.185493
 40
0.799988
 50
0.000000
 51
90.000000
  0
ARC
  8
0
 62
     4
 10
344.454193
 20
89.035492
 40
0.899999
 50
289.188354
 51
70.811661
  0
ARC
  8
0
 62
     4
 10
344.454193
 20
87.335495
 40
0.899999
 50
289.188354
 51
70.811661
  0
ARC
  8
0
 62
     4
 10
324.950012
 20
98.185493
 40
0.800003
 50
90.000000
 51
180.000000
  0
ARC
  8
0
 62
     4
 10
333.045807
 20
40.664505
 40
0.899999
 50
109.188339
 51
250.811661
  0
ARC
  8
0
 62
     4
 10
345.045807
 20
89.035492
 40
0.899999
 50
109.188339
 51
250.811661
  0
ARC
  8
0
 62
     4
 10
328.200012
 20
93.785492
 40
0.999995
 50
303.366364
 51
36.870247
  0
ARC
  8
0
 62
     4
 10
325.299988
 20
93.785492
 40
0.999989
 50
143.129745
 51
236.633636
  0
ARC
  8
0
 62
     4
 10
331.250000
 20
89.500000
 40
0.500000
 50
270.000000
 51
0.000000
  0
ARC
  8
0
 62
     4
 10
333.045807
 20
38.964508
 40
0.899999
 50
109.188339
 51
250.811737
  0
ARC
  8
0
 62
     4
 10
332.454224
 20
38.964508
 40
0.899999
 50
289.188354
 51
70.811737
  0
ARC
  8
0
 62
     4
 10
346.250000
 20
38.500000
 40
0.500000
 50
90.000000
 51
180.000000
  0
ARC
  8
0
 62
     4
 10
355.250000
 20
38.500000
 40
0.500000
 50
0.000000
 51
90.000000
  0
ARC
  8
0
 62
     4
 10
358.250000
 20
38.014496
 40
3.000009
 50
229.262375
 51
310.737732
  0
ARC
  8
0
 62
     4
 10
348.950012
 20
29.814507
 40
0.799988
 50
180.000137
 51
270.000000
  0
ARC
  8
0
 62
     4
 10
352.550018
 20
29.814507
 40
0.799999
 50
270.000000
 51
0.000000
  0
CIRCLE
  8
0
 62
     4
 10
267.750000
 20
8.000000
 40
2.800000
  0
ARC
  8
0
 62
     4
 10
322.250000
 20
89.500000
 40
0.500000
 50
180.000000
 51
270.000000
  0
ARC
  8
0
 62
     4
 10
319.250000
 20
89.985504
 40
3.000009
 50
49.262375
 51
130.737625
  0
CIRCLE
  8
0
 62
     4
 10
267.750000
 20
120.000000
 40
2.800000
  0
ARC
  8
0
 62
     4
 10
258.000000
 20
104.062500
 40
0.812500
 50
202.619858
 51
337.380127
  0
ARC
  8
0
 62
     4
 10
259.500000
 20
104.062500
 40
0.812500
 50
202.619858
 51
337.380127
  0
ARC
  8
0
 62
     4
 10
258.000000
 20
103.437500
 40
0.812500
 50
22.619865
 51
157.380142
  0
ARC
  8
0
 62
     4
 10
258.000000
 20
24.562500
 40
0.812500
 50
202.619858
 51
337.380127
  0
ARC
  8
0
 62
     4
 10
259.500000
 20
23.937500
 40
0.812500
 50
22.619865
 51
157.380142
  0
ARC
  8
0
 62
     4
 10
258.000000
 20
23.937500
 40
0.812500
 50
22.619865
 51
157.380142
  0
ARC
  8
0
 10
61.102905
 20
137.800049
 40
1.199997
 50
90.000000
 51
175.000153
  0
ARC
  8
0
 10
87.063843
 20
137.800049
 40
1.200002
 50
5.000572
 51
90.000000
  0
ARC
  8
0
 10
48.636475
 20
138.500061
 40
0.500000
 50
90.000000
 51
174.999847
  0
ARC
  8
0
 10
99.530273
 20
138.500061
 40
0.500003
 50
5.000111
 51
90.000000
  0
ARC
  8
0
 10
58.850342
 20
135.000061
 40
0.800003
 50
270.000000
 51
355.000519
  0
ARC
  8
0
 10
89.316406
 20
135.000061
 40
0.800003
 50
184.999466
 51
270.000000
  0
ARC
  8
0
 10
54.083374
 20
130.799988
 40
8.000002
 50
57.910088
 51
122.089912
  0
ARC
  8
0
 10
57.766724
 20
136.674042
 40
1.066666
 50
0.000000
 51
57.910255
  0
ARC
  8
0
 10
50.400024
 20
136.674011
 40
1.066671
 50
122.089745
 51
180.000000
  0
ARC
  8
0
 10
94.083374
 20
130.799988
 40
8.000000
 50
57.910110
 51
122.089935
  0
ARC
  8
0
 10
97.766724
 20
136.674042
 40
1.066666
 50
0.000000
 51
57.910255
  0
ARC
  8
0
 10
90.400024
 20
136.674011
 40
1.066671
 50
122.089745
 51
180.000000
  0
ARC
  8
0
 10
94.083374
 20
-2.800018
 40
8.000001
 50
237.909988
 51
302.089874
  0
ARC
  8
0
 10
90.400024
 20
-8.674042
 40
1.066666
 50
179.999893
 51
237.910095
  0
ARC
  8
0
 10
97.766724
 20
-8.674042
 40
1.066667
 50
302.089874
 51
359.999939
  0
ARC
  8
0
 10
54.083374
 20
-2.800018
 40
7.999999
 50
237.910019
 51
302.089844
  0
ARC
  8
0
 10
50.400024
 20
-8.674042
 40
1.066666
 50
179.999893
 51
237.910095
  0
ARC
  8
0
 10
57.766724
 20
-8.674042
 40
1.066667
 50
302.089874
 51
359.999939
  0
ARC
  8
0
 10
61.102905
 20
-9.800018
 40
1.200001
 50
184.999756
 51
270.000000
  0
ARC
  8
0
 10
87.063843
 20
-9.800018
 40
1.200000
 50
270.000000
 51
354.999695
  0
ARC
  8
0
 10
48.636475
 20
-10.500000
 40
0.499999
 50
184.999939
 51
270.000000
  0
ARC
  8
0
 10
99.530273
 20
-10.500000
 40
0.500000
 50
270.000000
 51
354.999878
  0
ARC
  8
0
 10
58.850342
 20
-7.000000
 40
0.799999
 50
4.999934
 51
90.000000
  0
ARC
  8
0
 10
89.316406
 20
-7.000000
 40
0.800000
 50
90.000000
 51
174.999985
  0
ARC
  8
0
 10
85.333374
 20
-20.387238
 40
9.387235
 50
69.744026
 51
110.255974
  0
ARC
  8
0
 10
91.833252
 20
-20.387238
 40
9.387234
 50
69.743973
 51
110.255928
  0
ARC
  8
0
 10
85.333374
 20
-6.612793
 40
9.387235
 50
249.743973
 51
290.255920
  0
ARC
  8
0
 10
91.833252
 20
-6.612793
 40
9.387235
 50
249.744034
 51
290.255981
  0
ARC
  8
0
 10
91.833252
 20
134.612793
 40
9.387240
 50
69.743988
 51
110.255920
  0
ARC
  8
0
 10
85.333374
 20
148.387268
 40
9.387240
 50
249.743988
 51
290.255920
  0
ARC
  8
0
 10
91.833252
 20
148.387268
 40
9.387238
 50
249.744034
 51
290.255951
  0
ARC
  8
0
 10
85.333374
 20
134.612793
 40
9.387238
 50
69.744034
 51
110.255966
  0
CIRCLE
  8
0
 62
     4
 10
74.083374
 20
64.000000
 40
9.500000
  0
CIRCLE
  8
0
 62
     4
 10
74.083374
 20
64.000000
 40
5.287500
  0
CIRCLE
  8
0
 62
     4
 10
74.083374
 20
64.000000
 40
7.000000
  0
CIRCLE
  8
0
 62
     1
 10
74.083374
 20
64.000000
 40
5.917511
  0
CIRCLE
  8
0
 10
74.083374
 20
64.000000
 40
16.000000
  0
CIRCLE
  8
0
 10
109.083374
 20
84.000000
 40
3.250000
  0
CIRCLE
  8
0
 10
109.083374
 20
44.000000
 40
3.250000
  0
CIRCLE
  8
0
 10
39.083374
 20
84.000000
 40
3.250000
  0
CIRCLE
  8
0
 10
39.083374
 20
44.000000
 40
3.250000
  0
CIRCLE
  8
0
 10
74.083374
 20
64.000000
 40
15.300000
  0
ARC
  8
0
 62
     4
 10
104.283386
 20
120.000000
 40
4.999995
 50
330.507660
 51
29.492401
  0
ARC
  8
0
 62
     4
 10
108.055206
 20
122.133331
 40
0.666668
 50
29.491947
 51
90.000000
  0
ARC
  8
0
 62
     4
 10
108.055206
 20
117.866669
 40
0.666664
 50
270.000000
 51
330.508057
  0
ARC
  8
0
 62
     4
 10
102.333374
 20
104.062500
 40
0.812500
 50
202.619858
 51
337.380127
  0
ARC
  8
0
 62
     4
 10
103.833374
 20
104.062500
 40
0.812500
 50
202.619858
 51
337.380127
  0
ARC
  8
0
 62
     4
 10
102.333374
 20
103.437500
 40
0.812500
 50
22.619865
 51
157.380142
  0
ARC
  8
0
 62
     4
 10
102.333374
 20
24.562500
 40
0.812500
 50
202.619858
 51
337.380127
  0
ARC
  8
0
 62
     4
 10
103.833374
 20
23.937500
 40
0.812500
 50
22.619865
 51
157.380142
  0
ARC
  8
0
 62
     4
 10
102.333374
 20
23.937500
 40
0.812500
 50
22.619865
 51
157.380142
  0
ARC
  8
0
 62
     4
 10
108.055206
 20
10.133331
 40
0.666669
 50
29.492161
 51
90.000000
  0
ARC
  8
0
 62
     4
 10
108.055206
 20
5.866669
 40
0.666667
 50
270.000000
 51
330.507721
  0
ARC
  8
0
 62
     4
 10
104.283386
 20
8.000000
 40
5.000000
 50
330.507599
 51
29.492273
  0
ARC
  8
0
 10
480.397095
 20
137.799988
 40
1.200001
 50
4.999846
 51
90.000000
  0
ARC
  8
0
 10
454.436218
 20
137.799988
 40
1.199997
 50
90.000000
 51
174.999435
  0
ARC
  8
0
 10
492.863586
 20
138.500000
 40
0.500011
 50
5.000035
 51
90.000000
  0
ARC
  8
0
 10
441.969727
 20
138.500000
 40
0.500000
 50
90.000000
 51
174.999969
  0
ARC
  8
0
 10
482.649780
 20
135.000000
 40
0.800010
 50
184.999420
 51
270.000000
  0
ARC
  8
0
 10
452.183594
 20
135.000000
 40
0.800003
 50
270.000000
 51
355.000580
  0
ARC
  8
0
 10
487.416626
 20
130.799988
 40
8.000004
 50
57.910065
 51
122.089935
  0
ARC
  8
0
 10
483.733337
 20
136.674011
 40
1.066663
 50
122.089050
 51
180.000000
  0
ARC
  8
0
 10
491.099976
 20
136.674011
 40
1.066681
 50
0.000000
 51
57.909561
  0
ARC
  8
0
 10
447.416626
 20
130.799988
 40
8.000004
 50
57.910065
 51
122.089935
  0
ARC
  8
0
 10
443.733276
 20
136.674011
 40
1.066663
 50
122.089050
 51
180.000000
  0
ARC
  8
0
 10
451.099976
 20
136.674011
 40
1.066681
 50
0.000000
 51
57.909561
  0
ARC
  8
0
 10
447.416626
 20
-2.800018
 40
8.000005
 50
237.910065
 51
302.089966
  0
ARC
  8
0
 10
451.099976
 20
-8.674042
 40
1.066674
 50
302.090607
 51
0.000051
  0
ARC
  8
0
 10
443.733276
 20
-8.674042
 40
1.066681
 50
180.000046
 51
237.910812
  0
ARC
  8
0
 10
487.416626
 20
-2.800018
 40
8.000005
 50
237.910065
 51
302.089966
  0
ARC
  8
0
 10
491.099976
 20
-8.674042
 40
1.066674
 50
302.090607
 51
0.000051
  0
ARC
  8
0
 10
483.733337
 20
-8.674042
 40
1.066681
 50
180.000046
 51
237.910812
  0
ARC
  8
0
 10
480.397095
 20
-9.800018
 40
1.200000
 50
270.000000
 51
355.000214
  0
ARC
  8
0
 10
454.436218
 20
-9.800018
 40
1.200001
 50
185.000259
 51
270.000000
  0
ARC
  8
0
 10
492.863586
 20
-10.500000
 40
0.500000
 50
270.000000
 51
355.000061
  0
ARC
  8
0
 10
441.969727
 20
-10.500000
 40
0.500011
 50
185.000031
 51
270.000000
  0
ARC
  8
0
 10
482.649780
 20
-7.000000
 40
0.800000
 50
90.000000
 51
175.000107
  0
ARC
  8
0
 10
452.183594
 20
-7.000000
 40
0.800011
 50
4.999930
 51
90.000000
  0
ARC
  8
0
 10
456.166626
 20
-20.387238
 40
9.387231
 50
69.744019
 51
110.255966
  0
ARC
  8
0
 10
449.666687
 20
-20.387238
 40
9.387235
 50
69.744026
 51
110.255974
  0
ARC
  8
0
 10
456.166626
 20
-6.612793
 40
9.387235
 50
249.744034
 51
290.255981
  0
ARC
  8
0
 10
449.666687
 20
-6.612793
 40
9.387232
 50
249.744019
 51
290.255981
  0
ARC
  8
0
 10
449.666687
 20
134.612793
 40
9.387238
 50
69.744034
 51
110.255966
  0
ARC
  8
0
 10
456.166626
 20
148.387207
 40
9.387238
 50
249.744034
 51
290.255951
  0
ARC
  8
0
 10
449.666687
 20
148.387207
 40
9.387238
 50
249.744034
 51
290.255951
  0
ARC
  8
0
 10
456.166626
 20
134.612793
 40
9.387238
 50
69.744034
 51
110.255966
  0
ARC
  8
0
 10
467.416626
 20
64.000000
 40
32.000008
 50
41.409554
 51
87.761261
  0
ARC
  8
0
 10
467.416626
 20
64.000000
 40
31.999998
 50
221.409622
 51
267.761261
  0
CIRCLE
  8
0
 10
448.416687
 20
83.000000
 40
3.500000
  0
CIRCLE
  8
0
 10
448.416687
 20
83.000000
 40
2.980385
  0
CIRCLE
  8
0
 10
448.416687
 20
83.000000
 40
4.000000
  0
CIRCLE
  8
0
 10
486.416626
 20
83.000000
 40
4.000000
  0
CIRCLE
  8
0
 10
486.416626
 20
83.000000
 40
3.500000
  0
CIRCLE
  8
0
 10
486.416626
 20
83.000000
 40
2.980385
  0
CIRCLE
  8
0
 10
486.416626
 20
45.000000
 40
4.000000
  0
CIRCLE
  8
0
 10
486.416626
 20
45.000000
 40
3.500000
  0
CIRCLE
  8
0
 10
486.416626
 20
45.000000
 40
2.980385
  0
CIRCLE
  8
0
 10
448.416687
 20
45.000000
 40
4.000000
  0
CIRCLE
  8
0
 10
448.416687
 20
45.000000
 40
3.500000
  0
CIRCLE
  8
0
 10
448.416687
 20
45.000000
 40
2.980385
  0
CIRCLE
  8
0
 10
467.416626
 20
64.000000
 40
20.800001
  0
ARC
  8
0
 10
467.416626
 20
64.000000
 40
19.799997
 50
326.251007
 51
33.748959
  0
ARC
  8
0
 10
467.416626
 20
64.000000
 40
19.800005
 50
146.250961
 51
213.748978
  0
CIRCLE
  8
0
 62
     2
 10
467.416626
 20
64.000000
 40
5.000000
  0
CIRCLE
  8
0
 10
467.416626
 20
64.000000
 40
4.250000
  0
CIRCLE
  8
0
 62
     2
 10
458.416687
 20
3.500000
 40
5.000000
  0
CIRCLE
  8
0
 10
458.416687
 20
3.500000
 40
4.250000
  0
CIRCLE
  8
0
 62
     2
 10
458.416687
 20
124.500000
 40
5.000000
  0
CIRCLE
  8
0
 10
458.416687
 20
124.500000
 40
4.250000
  0
CIRCLE
  8
0
 10
502.416626
 20
84.000000
 40
3.250000
  0
ARC
  8
0
 62
     4
 10
437.216614
 20
119.999954
 40
5.000002
 50
150.507721
 51
209.492355
  0
ARC
  8
0
 62
     4
 10
433.444794
 20
117.866623
 40
0.666674
 50
209.491623
 51
270.000000
  0
ARC
  8
0
 62
     4
 10
433.444794
 20
122.133286
 40
0.666664
 50
90.000000
 51
150.508377
  0
ARC
  8
0
 62
     4
 10
437.666626
 20
104.062454
 40
0.812500
 50
202.619858
 51
337.380127
  0
ARC
  8
0
 62
     4
 10
439.166626
 20
104.062454
 40
0.812500
 50
202.619858
 51
337.380127
  0
ARC
  8
0
 62
     4
 10
437.666626
 20
103.437454
 40
0.812500
 50
22.619865
 51
157.380142
  0
ARC
  8
0
 62
     4
 10
437.666626
 20
24.562546
 40
0.812500
 50
202.619858
 51
337.380127
  0
ARC
  8
0
 62
     4
 10
439.166626
 20
23.937546
 40
0.812500
 50
22.619865
 51
157.380142
  0
ARC
  8
0
 62
     4
 10
437.666626
 20
23.937546
 40
0.812500
 50
22.619865
 51
157.380142
  0
ARC
  8
0
 62
     4
 10
433.444794
 20
5.866714
 40
0.666676
 50
209.491867
 51
270.000000
  0
ARC
  8
0
 62
     4
 10
437.216614
 20
8.000046
 40
5.000005
 50
150.507660
 51
209.492310
  0
ARC
  8
0
 62
     4
 10
433.444794
 20
10.133377
 40
0.666667
 50
90.000000
 51
150.508087
  0
ARC
  8
0
 62
     4
 10
467.416626
 20
64.000000
 40
20.949995
 50
309.605316
 51
230.394547
  0
ARC
  8
0
 62
     4
 10
463.416626
 20
39.000000
 40
0.149994
 50
0.000000
 51
29.950184
  0
ARC
  8
0
 62
     4
 10
471.416626
 20
39.000000
 40
0.150006
 50
150.049820
 51
180.000000
  0
ARC
  8
0
 62
     4
 10
471.415558
 20
38.999756
 40
0.150010
 50
144.363403
 51
179.997086
  0
ARC
  8
0
 62
     4
 10
463.416626
 20
39.000000
 40
0.149994
 50
0.000000
 51
41.751759
  0
ARC
  8
0
 62
     4
 10
471.416626
 20
39.000000
 40
0.150003
 50
138.248245
 51
180.000000
  0
ARC
  8
0
 62
     4
 10
463.416626
 20
39.000000
 40
0.149994
 50
0.000000
 51
46.557957
  0
ARC
  8
0
 62
     4
 10
471.416626
 20
39.000000
 40
0.150009
 50
133.442047
 51
180.000000
  0
ARC
  8
0
 62
     4
 10
463.416626
 20
39.000000
 40
0.149994
 50
0.000000
 51
51.526791
  0
ARC
  8
0
 62
     4
 10
471.416626
 20
39.000000
 40
0.150001
 50
128.473206
 51
180.000000
  0
ARC
  8
0
 62
     4
 10
463.416595
 20
39.000015
 40
0.149994
 50
0.000000
 51
55.953506
  0
ARC
  8
0
 62
     4
 10
471.416595
 20
39.000015
 40
0.150008
 50
124.046494
 51
180.000000
  0
ARC
  8
0
 62
     4
 10
465.616608
 20
29.814514
 40
0.799988
 50
180.000000
 51
270.000000
  0
ARC
  8
0
 62
     4
 10
469.216614
 20
29.814514
 40
0.799999
 50
270.000000
 51
0.000000
  0
ARC
  8
0
 62
     4
 10
467.416595
 20
38.014511
 40
3.000009
 50
229.262375
 51
310.737610
  0
ARC
  8
0
 62
     4
 10
467.416595
 20
47.814514
 40
4.999994
 50
244.158112
 51
295.841858
  0
ARC
  8
0
 62
     4
 10
463.616608
 20
34.200012
 40
1.200012
 50
180.000000
 51
270.000000
  0
ARC
  8
0
 62
     4
 10
472.216614
 20
34.200012
 40
1.200002
 50
279.594635
 51
0.000000
  0
ARC
  8
0
 62
     4
 10
470.016602
 20
34.800018
 40
0.799988
 50
180.000000
 51
270.000000
  0
ARC
  8
0
 62
     4
 10
464.816589
 20
34.800018
 40
0.799999
 50
270.000000
 51
0.000000
  0
ARC
  8
0
 62
     4
 10
463.916595
 20
34.500015
 40
0.500000
 50
180.000000
 51
270.000000
  0
ARC
  8
0
 62
     4
 10
471.216614
 20
33.200012
 40
1.200001
 50
270.000000
 51
0.000000
  0
ARC
  8
0
 62
     4
 10
470.916595
 20
33.500015
 40
0.500000
 50
270.000000
 51
0.000000
  0
ARC
  8
0
 62
     4
 10
463.616638
 20
94.799988
 40
1.199997
 50
90.000000
 51
180.000000
  0
ARC
  8
0
 62
     4
 10
463.916656
 20
94.499985
 40
0.500000
 50
90.000000
 51
180.000000
  0
ARC
  8
0
 62
     4
 10
471.416626
 20
89.000000
 40
0.149994
 50
180.000000
 51
209.950180
  0
ARC
  8
0
 62
     4
 10
463.416626
 20
89.000000
 40
0.150006
 50
330.049805
 51
0.000000
  0
ARC
  8
0
 62
     4
 10
463.417694
 20
89.000244
 40
0.150010
 50
324.363403
 51
359.997101
  0
ARC
  8
0
 62
     4
 10
471.416626
 20
89.000000
 40
0.149994
 50
180.000000
 51
221.750671
  0
ARC
  8
0
 62
     4
 10
463.416626
 20
89.000000
 40
0.150006
 50
318.247162
 51
0.000000
  0
ARC
  8
0
 62
     4
 10
471.416626
 20
89.000000
 40
0.149994
 50
180.000000
 51
226.557953
  0
ARC
  8
0
 62
     4
 10
463.416626
 20
89.000000
 40
0.150009
 50
313.442047
 51
0.000000
  0
ARC
  8
0
 62
     4
 10
471.416626
 20
89.000000
 40
0.149994
 50
180.000000
 51
231.525879
  0
ARC
  8
0
 62
     4
 10
463.416626
 20
89.000000
 40
0.149998
 50
308.474121
 51
0.000000
  0
ARC
  8
0
 62
     4
 10
471.416656
 20
88.999985
 40
0.149994
 50
180.000000
 51
235.952698
  0
ARC
  8
0
 62
     4
 10
463.416656
 20
88.999985
 40
0.150005
 50
304.047302
 51
0.000000
  0
ARC
  8
0
 62
     4
 10
469.216675
 20
98.185486
 40
0.799988
 50
0.000000
 51
90.000000
  0
ARC
  8
0
 62
     4
 10
465.616638
 20
98.185486
 40
0.800003
 50
90.000000
 51
180.000000
  0
ARC
  8
0
 62
     4
 10
467.416656
 20
89.985489
 40
3.000009
 50
49.262375
 51
130.737625
  0
ARC
  8
0
 62
     4
 10
467.416656
 20
80.185486
 40
4.999997
 50
64.158127
 51
115.841873
  0
ARC
  8
0
 62
     4
 10
471.216675
 20
93.799988
 40
1.200012
 50
0.000000
 51
90.000000
  0
ARC
  8
0
 62
     4
 10
462.616638
 20
93.799988
 40
1.200006
 50
99.594612
 51
180.000000
  0
ARC
  8
0
 62
     4
 10
464.816650
 20
93.199982
 40
0.799988
 50
0.000000
 51
90.000000
  0
ARC
  8
0
 62
     4
 10
470.016663
 20
93.199982
 40
0.800003
 50
90.000000
 51
180.000000
  0
ARC
  8
0
 62
     4
 10
470.916656
 20
93.499985
 40
0.500000
 50
0.000000
 51
90.000000
  0
CIRCLE
  8
0
 62
     4
 10
467.416626
 20
88.185501
 40
1.699997
  0
CIRCLE
  8
0
 62
     4
 10
467.416626
 20
88.185501
 40
2.500000
  0
ARC
  8
0
 10
467.416626
 20
64.000000
 40
32.000000
 50
272.238617
 51
274.480743
  0
ARC
  8
0
 10
467.416626
 20
64.000000
 40
32.000000
 50
278.326538
 51
318.590393
  0
ARC
  8
0
 10
467.416626
 20
64.000000
 40
32.000000
 50
98.326538
 51
138.590363
  0
ARC
  8
0
 10
467.416626
 20
64.000000
 40
32.000000
 50
92.238632
 51
94.480743
  0
CIRCLE
  8
0
 10
502.416626
 20
84.000000
 40
5.500000
  0
CIRCLE
  8
0
 10
432.416626
 20
84.000000
 40
3.250000
  0
CIRCLE
  8
0
 10
432.416626
 20
84.000000
 40
5.500000
  0
CIRCLE
  8
0
 10
502.416626
 20
44.000000
 40
3.250000
  0
CIRCLE
  8
0
 10
502.416626
 20
44.000000
 40
5.500000
  0
CIRCLE
  8
0
 10
432.416626
 20
44.000000
 40
3.250000
  0
CIRCLE
  8
0
 10
432.416626
 20
44.000000
 40
5.500000
  0
ARC
  8
0
 10
281.750000
 20
-137.666672
 40
3.000000
 50
0.000000
 51
90.000000
  0
ARC
  8
0
 10
235.750000
 20
-137.666672
 40
3.000000
 50
90.000000
 51
180.000000
  0
ARC
  8
0
 10
235.750000
 20
-185.666687
 40
3.000000
 50
180.000000
 51
270.000000
  0
ARC
  8
0
 10
281.750000
 20
-185.666687
 40
3.000000
 50
270.000000
 51
0.000000
  0
CIRCLE
  8
0
 10
277.750000
 20
-141.666672
 40
4.750000
  0
CIRCLE
  8
0
 10
239.750000
 20
-141.666672
 40
4.750000
  0
CIRCLE
  8
0
 10
277.750000
 20
-181.666672
 40
4.750000
  0
CIRCLE
  8
0
 10
239.750000
 20
-181.666672
 40
4.750000
  0
ARC
  8
0
 10
277.750000
 20
-141.666672
 40
5.500000
 50
180.000000
 51
270.000000
  0
ARC
  8
0
 10
239.750000
 20
-141.666672
 40
5.500000
 50
270.000000
 51
0.000000
  0
ARC
  8
0
 10
239.750000
 20
-181.666672
 40
5.500000
 50
0.000000
 51
90.000000
  0
ARC
  8
0
 10
277.750000
 20
-181.666672
 40
5.500000
 50
90.000000
 51
180.000000
  0
ARC
  8
0
 10
281.750000
 20
-137.666672
 40
2.500000
 50
0.000000
 51
90.000000
  0
ARC
  8
0
 10
281.750000
 20
-185.666687
 40
2.500000
 50
270.000000
 51
0.000000
  0
ARC
  8
0
 10
235.750000
 20
-185.666687
 40
2.500000
 50
180.000000
 51
270.000000
  0
ARC
  8
0
 10
235.750000
 20
-137.666672
 40
2.500000
 50
90.000000
 51
180.000000
  0
ARC
  8
0
 10
233.750000
 20
-147.666672
 40
0.500000
 50
90.000000
 51
180.000000
  0
ARC
  8
0
 10
245.750000
 20
-187.666672
 40
0.500000
 50
180.000000
 51
270.000000
  0
ARC
  8
0
 10
245.750000
 20
-135.666656
 40
0.500000
 50
90.000000
 51
180.000000
  0
ARC
  8
0
 10
233.750000
 20
-175.666687
 40
0.500000
 50
180.000000
 51
270.000000
  0
ARC
  8
0
 10
271.750000
 20
-187.666672
 40
0.500000
 50
270.000000
 51
0.000000
  0
ARC
  8
0
 10
283.750000
 20
-175.666687
 40
0.500000
 50
270.000000
 51
0.000000
  0
CIRCLE
  8
0
 10
258.750000
 20
-147.166687
 40
6.500000
  0
CIRCLE
  8
0
 62
     2
 10
258.750000
 20
-147.166687
 40
4.000000
  0
CIRCLE
  8
0
 10
258.750000
 20
-147.166687
 40
3.323501
  0
ARC
  8
0
 62
     4
 10
198.030396
 20
-166.416656
 40
13.719604
 50
339.743713
 51
20.256199
  0
ARC
  8
0
 62
     4
 10
217.469604
 20
-166.416656
 40
13.719604
 50
159.743713
 51
200.256287
  0
ARC
  8
0
 62
     4
 10
198.030396
 20
-156.916656
 40
13.719614
 50
339.743805
 51
20.256281
  0
ARC
  8
0
 62
     4
 10
217.469604
 20
-156.916656
 40
13.719604
 50
159.743713
 51
200.256287
  0
ARC
  8
0
 10
271.750000
 20
-135.666672
 40
0.500000
 50
0.000000
 51
90.000000
  0
ARC
  8
0
 10
283.750000
 20
-147.666656
 40
0.500000
 50
0.000000
 51
90.000000
  0
ARC
  8
0
 62
     4
 10
267.750000
 20
-131.466660
 40
5.000003
 50
60.507523
 51
119.492477
  0
ARC
  8
0
 62
     4
 10
265.616669
 20
-127.694824
 40
0.666675
 50
119.493088
 51
180.000000
  0
ARC
  8
0
 62
     4
 10
269.883331
 20
-127.694824
 40
0.666656
 50
0.000000
 51
60.506912
  0
CIRCLE
  8
0
 62
     4
 10
258.750000
 20
-132.666656
 40
1.499996
  0
CIRCLE
  8
0
 62
     4
 10
350.750000
 20
-161.666672
 40
2.600006
  0
ARC
  8
0
 62
     4
 10
332.454193
 20
-160.816681
 40
0.900007
 50
289.188171
 51
70.811813
  0
ARC
  8
0
 62
     4
 10
355.250000
 20
-157.166672
 40
0.500000
 50
0.000000
 51
90.000000
  0
ARC
  8
0
 62
     4
 10
346.250000
 20
-157.166672
 40
0.500000
 50
90.000000
 51
180.000000
  0
ARC
  8
0
 62
     4
 10
355.250000
 20
-165.166672
 40
0.500000
 50
270.000000
 51
0.000000
  0
ARC
  8
0
 62
     4
 10
346.250000
 20
-165.166672
 40
0.500000
 50
180.000000
 51
270.000000
  0
ARC
  8
0
 62
     4
 10
353.250000
 20
-166.166672
 40
1.000002
 50
29.999931
 51
240.000076
  0
ARC
  8
0
 62
     4
 10
348.250000
 20
-166.166672
 40
1.000002
 50
299.999939
 51
150.000076
  0
CIRCLE
  8
0
 62
     4
 10
358.250000
 20
-161.666672
 40
2.000000
  0
ARC
  8
0
 62
     4
 10
333.045807
 20
-162.516678
 40
0.900007
 50
109.188187
 51
250.811813
  0
ARC
  8
0
 62
     4
 10
333.045807
 20
-160.816681
 40
0.900007
 50
109.188187
 51
250.811813
  0
ARC
  8
0
 62
     4
 10
160.083435
 20
-299.574524
 40
1.000000
 50
0.000000
 51
90.000000
  0
ARC
  8
0
 62
     4
 10
160.083435
 20
-310.574524
 40
1.000000
 50
270.000000
 51
0.000000
  0
ARC
  8
0
 62
     4
 10
149.083374
 20
-299.574524
 40
1.000000
 50
90.000000
 51
180.000000
  0
ARC
  8
0
 62
     4
 10
149.083374
 20
-310.574524
 40
1.000000
 50
180.000000
 51
270.000000
  0
ARC
  8
0
 62
     4
 10
154.583374
 20
-305.074524
 40
7.499998
 50
119.926407
 51
150.073486
  0
ARC
  8
0
 62
     4
 10
154.583374
 20
-305.074524
 40
7.499990
 50
29.926308
 51
60.073593
  0
ARC
  8
0
 62
     4
 10
154.583374
 20
-305.074524
 40
7.499998
 50
299.926422
 51
330.073486
  0
ARC
  8
0
 62
     4
 10
154.583374
 20
-305.074524
 40
7.500006
 50
209.926514
 51
240.073593
  0
CIRCLE
  8
0
 62
     1
 10
154.583374
 20
-305.074524
 40
3.000000
  0
CIRCLE
  8
0
 62
     4
 10
154.583374
 20
-305.074524
 40
2.458500
  0
TEXT
  8
0
 10
-507.285156
 20
375.250000
 40
12.500000
  1
SWING CYL
 50
0.000000
 41
1.052632
 51
0.000000
  7
STANDARD
  0
TEXT
  8
0
 10
-542.285156
 20
330.250000
 40
12.500000
  1
MODEL:SDA40*25-135(180)
 50
0.000000
 41
1.052632
 51
0.000000
  7
STANDARD
  0
TEXT
  8
0
 10
364.214844
 20
375.250000
 40
12.500000
  1
DATE: JUL ,1993
 50
0.000000
 41
1.052632
 51
0.000000
  7
STANDARD
  0
TEXT
  8
0
 10
345.179352
 20
-400.700012
 40
18.000000
  1
KOGANEI CORP.
 50
0.000000
 41
1.052632
 51
0.000000
  7
STANDARD
  0
TEXT
  8
0
 10
27.214844
 20
330.250000
 40
12.500000
  1
MODEL:SDA40*25-135(180)-3
 50
0.000000
 41
1.052632
 51
0.000000
  7
STANDARD
  0
TEXT
  8
0
 10
-533.285156
 20
290.250000
 40
12.500000
  1
STROKE:15,25,50,75,100
 50
0.000000
 41
1.052632
 51
0.000000
  7
STANDARD
  0
TEXT
  8
0
 10
-533.285156
 20
310.250000
 40
12.500000
  1
(WITH SENSOR SWITCH)
 50
0.000000
 41
1.052632
 51
0.000000
  7
STANDARD
  0
TEXT
  8
0
 10
36.214844
 20
290.250000
 40
12.500000
  1
STROKE:15,25,50,75,100
 50
0.000000
 41
1.052632
 51
0.000000
  7
STANDARD
  0
TEXT
  8
0
 10
36.214844
 20
310.250000
 40
12.500000
  1
(WITH SENSOR SWITCH)
 50
0.000000
 41
1.052632
 51
0.000000
  7
STANDARD
  0
TEXT
  8
0
 10
195.357574
 20
-364.793915
 40
9.000000
  1
N
 50
0.000000
 41
1.052632
 51
0.000000
  7
STANDARD
  0
TEXT
  8
0
 10
-374.142426
 20
-364.793915
 40
9.000000
  1
N
 50
0.000000
 41
1.052632
 51
0.000000
  7
STANDARD
  0
TEXT
  8
0
 62
     2
 10
307.714294
 20
152.010040
 40
9.000000
  1
68+ST
 50
0.000000
 41
1.052631
 51
0.000000
  7
STANDARD
  0
LINE
  8
0
 62
     2
 10
377.750000
 20
151.010040
 11
284.750000
 21
151.010040
  0
LINE
  8
0
 62
     2
 10
377.750000
 20
151.010040
 11
374.852234
 21
150.233582
  0
LINE
  8
0
 62
     2
 10
377.750000
 20
151.010040
 11
374.852234
 21
151.786499
  0
LINE
  8
0
 62
     2
 10
284.750000
 20
151.010040
 11
287.647766
 21
151.786499
  0
LINE
  8
0
 62
     2
 10
284.750000
 20
151.010040
 11
287.647766
 21
150.233582
  0
LINE
  8
0
 62
     2
 10
377.750000
 20
75.000000
 11
377.750000
 21
152.510040
  0
LINE
  8
0
 62
     2
 10
284.750000
 20
131.000046
 11
284.750000
 21
152.510040
  0
TEXT
  8
0
 62
     2
 10
260.214294
 20
172.010040
 40
9.000000
  1
154+ST
 50
0.000000
 41
1.052631
 51
0.000000
  7
STANDARD
  0
LINE
  8
0
 62
     2
 10
377.750000
 20
171.010040
 11
198.750000
 21
171.010040
  0
LINE
  8
0
 62
     2
 10
377.750000
 20
171.010040
 11
374.852234
 21
170.233582
  0
LINE
  8
0
 62
     2
 10
377.750000
 20
171.010040
 11
374.852234
 21
171.786499
  0
LINE
  8
0
 62
     2
 10
198.750000
 20
171.010040
 11
201.647781
 21
171.786499
  0
LINE
  8
0
 62
     2
 10
198.750000
 20
171.010040
 11
201.647781
 21
170.233582
  0
LINE
  8
0
 62
     2
 10
377.750000
 20
75.000000
 11
377.750000
 21
172.510040
  0
LINE
  8
0
 62
     2
 10
198.750000
 20
69.287567
 11
198.750000
 21
172.510040
  0
TEXT
  8
0
 62
     2
 10
-289.785706
 20
152.010040
 40
9.000000
  1
68+ST
 50
0.000000
 41
1.052631
 51
0.000000
  7
STANDARD
  0
LINE
  8
0
 62
     2
 10
-219.750000
 20
151.010040
 11
-312.750000
 21
151.010040
  0
LINE
  8
0
 62
     2
 10
-219.750000
 20
151.010040
 11
-222.647781
 21
150.233582
  0
LINE
  8
0
 62
     2
 10
-219.750000
 20
151.010040
 11
-222.647781
 21
151.786499
  0
LINE
  8
0
 62
     2
 10
-312.750000
 20
151.010040
 11
-309.852234
 21
151.786499
  0
LINE
  8
0
 62
     2
 10
-312.750000
 20
151.010040
 11
-309.852234
 21
150.233582
  0
LINE
  8
0
 62
     2
 10
-219.750000
 20
75.000000
 11
-219.750000
 21
152.510040
  0
LINE
  8
0
 62
     2
 10
-312.750000
 20
131.000046
 11
-312.750000
 21
152.510040
  0
TEXT
  8
0
 62
     2
 10
-337.285706
 20
172.010040
 40
9.000000
  1
154+ST
 50
0.000000
 41
1.052631
 51
0.000000
  7
STANDARD
  0
LINE
  8
0
 62
     2
 10
-219.750000
 20
171.010040
 11
-398.750000
 21
171.010040
  0
LINE
  8
0
 62
     2
 10
-219.750000
 20
171.010040
 11
-222.647781
 21
170.233582
  0
LINE
  8
0
 62
     2
 10
-219.750000
 20
171.010040
 11
-222.647781
 21
171.786499
  0
LINE
  8
0
 62
     2
 10
-398.750000
 20
171.010040
 11
-395.852234
 21
171.786499
  0
LINE
  8
0
 62
     2
 10
-398.750000
 20
171.010040
 11
-395.852234
 21
170.233582
  0
LINE
  8
0
 62
     2
 10
-219.750000
 20
75.000000
 11
-219.750000
 21
172.510040
  0
LINE
  8
0
 62
     2
 10
-398.750000
 20
69.287567
 11
-398.750000
 21
172.510040
  0
ENDSEC
  0
EOF
