  0
SECTION
  2
HEADER
  0
ENDSEC
  0
SECTION
  2
TABLES
  0
TABLE
  2
LTYPE
 70
     4
  0
LTYPE
  2
CONTINUOUS
 70
    64
  3
Solid line
 72
    65
 73
     0
 40
0.000000
  0
LTYPE
  2
DASHED
 70
    64
  3
__ __ __ __ __ __ __ __ __ __ __ __ __ __ __
 72
    65
 73
     2
 40
3.500000
 49
2.000000
 49
-1.500000
  0
LTYPE
  2
CENTER
 70
    64
  3
____ _ ____ _ ____ _ ____ _ ____ _ ____ _ ____
 72
    65
 73
     4
 40
17.500000
 49
13.000000
 49
-1.500000
 49
1.500000
 49
-1.500000
  0
LTYPE
  2
PHANTOM
 70
    64
  3
_____ _ _ _____ _ _ _____ _ _ _____ _ _ ____  
 72
    65
 73
     6
 40
15.500000
 49
8.000000
 49
-1.500000
 49
1.500000
 49
-1.500000
 49
1.500000
 49
-1.500000
  0
LTYPE
  2
DASHED1
 70
    64
  3
__ __ __ __ __ __ __ __ __ __ __ __ __ __ __
 72
    65
 73
     2
 40
1.500000
 49
1.000000
 49
-0.500000
  0
LTYPE
  2
DASHED2
 70
    64
  3
__ __ __ __ __ __ __ __ __ __ __ __ __ __ __
 72
    65
 73
     2
 40
3.500000
 49
2.500000
 49
-1.000000
  0
LTYPE
  2
DASHED3
 70
    64
  3
__ __ __ __ __ __ __ __ __ __ __ __ __ __ __
 72
    65
 73
     2
 40
6.000000
 49
4.000000
 49
-2.000000
  0
LTYPE
  2
DASHED4
 70
    64
  3
__ __ __ __ __ __ __ __ __ __ __ __ __ __ __
 72
    65
 73
     2
 40
12.000000
 49
10.000000
 49
-2.000000
  0
LTYPE
  2
DASHED5
 70
    64
  3
__ __ __ __ __ __ __ __ __ __ __ __ __ __ __
 72
    65
 73
     2
 40
17.000000
 49
15.000000
 49
-2.000000
  0
LTYPE
  2
DASHED6
 70
    64
  3
__ __ __ __ __ __ __ __ __ __ __ __ __ __ __
 72
    65
 73
     2
 40
29.000000
 49
27.000000
 49
-2.000000
  0
LTYPE
  2
PHANTOM1
 70
    64
  3
_____ _ _ _____ _ _ _____ _ _ _____ _ _ ____  
 72
    65
 73
     6
 40
31.000000
 49
25.000000
 49
-1.500000
 49
1.000000
 49
-1.000000
 49
1.000000
 49
-1.500000
  0
LTYPE
  2
PHANTOM2
 70
    64
  3
_____ _ _ _____ _ _ _____ _ _ _____ _ _ ____  
 72
    65
 73
     6
 40
36.000000
 49
27.000000
 49
-1.500000
 49
2.500000
 49
-1.000000
 49
2.500000
 49
-1.500000
  0
LTYPE
  2
PHANTOM3
 70
    64
  3
_____ _ _ _____ _ _ _____ _ _ _____ _ _ ____  
 72
    65
 73
     6
 40
78.000000
 49
64.000000
 49
-2.000000
 49
4.000000
 49
-2.000000
 49
4.000000
 49
-2.000000
  0
LTYPE
  2
CENTER1
 70
    64
  3
____ _ ____ _ ____ _ ____ _ ____ _ ____ _ ____
 72
    65
 73
     4
 40
19.000000
 49
14.000000
 49
-1.000000
 49
3.000000
 49
-1.000000
  0
LTYPE
  2
CENTER2
 70
    64
  3
____ _ ____ _ ____ _ ____ _ ____ _ ____ _ ____
 72
    65
 73
     4
 40
28.500000
 49
25.000000
 49
-1.000000
 49
1.500000
 49
-1.000000
  0
LTYPE
  2
CENTER3
 70
    64
  3
____ _ ____ _ ____ _ ____ _ ____ _ ____ _ ____
 72
    65
 73
     4
 40
31.500000
 49
27.000000
 49
-1.000000
 49
2.500000
 49
-1.000000
  0
LTYPE
  2
CENTER4
 70
    64
  3
____ _ ____ _ ____ _ ____ _ ____ _ ____ _ ____
 72
    65
 73
     4
 40
50.000000
 49
45.000000
 49
-1.000000
 49
3.000000
 49
-1.000000
  0
LTYPE
  2
CENTER5
 70
    64
  3
____ _ ____ _ ____ _ ____ _ ____ _ ____ _ ____
 72
    65
 73
     4
 40
100.000000
 49
92.000000
 49
-2.000000
 49
4.000000
 49
-2.000000
  0
LTYPE
  2
SBK1
 70
    64
  3
______ _ _ _ ______ _ _ _ ______ _ _ _ _____  
 72
    65
 73
     8
 40
60.500000
 49
45.000000
 49
-2.000000
 49
2.500000
 49
-2.000000
 49
2.500000
 49
-2.000000
 49
2.500000
 49
-2.000000
  0
LTYPE
  2
SBK2
 70
    64
  3
______ _ _ _ ______ _ _ _ ______ _ _ _ _____  
 72
    65
 73
     8
 40
84.000000
 49
64.000000
 49
-2.000000
 49
4.000000
 49
-2.000000
 49
4.000000
 49
-2.000000
 49
4.000000
 49
-2.000000
  0
LTYPE
  2
STCH
 70
    64
  3
__ __ __ __ __ __ __ __ __ __ __ __ __ __ __
 72
    65
 73
     2
 40
3.000000
 49
1.000000
 49
-2.000000
  0
LTYPE
  2
MTCH
 70
    64
  3
_____ _ _ _____ _ _ _____ _ _ _____ _ _ ____  
 72
    65
 73
     6
 40
80.000000
 49
66.000000
 49
-2.000000
 49
4.000000
 49
-2.000000
 49
4.000000
 49
-2.000000
  0
ENDTAB
  0
TABLE
  2
LAYER
 70
     1
  0
LAYER
  2
0
 70
     0
 62
     7
  6
CONTINUOUS
  0
ENDTAB
  0
TABLE
  2
STYLE
 70
     1
  0
STYLE
  2
STANDARD
 70
     0
 40
0.000000
 41
1.000000
 50
0.000000
 71
     0
 42
0.200000
  3
txt
  4
BIGFONT
  0
ENDTAB
  0
TABLE
  2
VIEW
 70
     0
  0
ENDTAB
  0
ENDSEC
  0
SECTION
  2
BLOCKS
  0
ENDSEC
  0
SECTION
  2
ENTITIES
  0
LINE
  8
0
 10
399.799988
 20
276.250000
 11
399.799988
 21
-276.750000
  0
LINE
  8
0
 10
-399.250000
 20
276.250000
 11
-399.250000
 21
-276.750000
  0
LINE
  8
0
 10
-399.250000
 20
276.250000
 11
399.799988
 21
276.250000
  0
LINE
  8
0
 10
-399.250000
 20
-276.750000
 11
399.799988
 21
-276.750000
  0
LINE
  8
0
 10
239.799988
 20
-251.750000
 11
399.799988
 21
-251.750000
  0
LINE
  8
0
 10
239.799988
 20
251.250000
 11
399.799988
 21
251.250000
  0
LINE
  8
0
 10
-399.250000
 20
251.250000
 11
-239.250000
 21
251.250000
  0
LINE
  8
0
 10
239.799988
 20
-251.750000
 11
239.799988
 21
-276.750000
  0
LINE
  8
0
 10
239.799988
 20
251.250000
 11
239.799988
 21
276.250000
  0
LINE
  8
0
 10
-239.250000
 20
276.250000
 11
-239.250000
 21
251.250000
  0
LINE
  8
0
 10
-158.000000
 20
-115.750000
 11
-158.000000
 21
-144.250000
  0
LINE
  8
0
  6
CENTER
 62
     2
 10
-162.500000
 20
-130.000000
 11
364.500000
 21
-130.000000
  0
LINE
  8
0
 10
-157.250000
 20
-115.000000
 11
-105.000000
 21
-115.000000
  0
LINE
  8
0
 10
-157.250000
 20
-145.000000
 11
-105.000000
 21
-145.000000
  0
LINE
  8
0
 10
-108.000000
 20
-115.000000
 11
-108.000000
 21
-145.000000
  0
LINE
  8
0
 10
-105.000000
 20
-115.000000
 11
-105.000000
 21
-145.000000
  0
LINE
  8
0
 10
-104.999931
 20
-144.999908
 11
-99.803772
 21
-147.999908
  0
LINE
  8
0
 10
-104.999977
 20
-115.000000
 11
-99.803833
 21
-111.999992
  0
LINE
  8
0
 10
-99.803848
 20
-112.000000
 11
-86.000000
 21
-112.000000
  0
LINE
  8
0
 10
-99.803848
 20
-148.000000
 11
-86.000000
 21
-148.000000
  0
LINE
  8
0
 10
-99.803848
 20
-121.753784
 11
-93.000000
 21
-121.753784
  0
LINE
  8
0
 10
-99.803848
 20
-138.246216
 11
-93.000000
 21
-138.246216
  0
LINE
  8
0
 10
-93.000000
 20
-121.753784
 11
-93.000000
 21
-138.246216
  0
LINE
  8
0
 10
-99.803848
 20
-112.000000
 11
-99.803848
 21
-121.753784
  0
LINE
  8
0
 10
-99.803848
 20
-138.246216
 11
-99.803848
 21
-148.000000
  0
LINE
  8
0
 62
     2
 10
-93.000168
 20
-121.753746
 11
-99.804016
 21
-138.246170
  0
LINE
  8
0
 62
     2
 10
-99.803833
 20
-121.753761
 11
-92.999977
 21
-138.246170
  0
LINE
  8
0
 10
-86.000000
 20
-102.000000
 11
-86.000000
 21
-158.000000
  0
LINE
  8
0
 10
-85.000000
 20
-101.000000
 11
-85.000000
 21
-159.000000
  0
LINE
  8
0
 10
-86.000061
 20
-102.000008
 11
-85.000053
 21
-101.000008
  0
LINE
  8
0
 10
-85.999878
 20
-157.999863
 11
-84.999870
 21
-158.999863
  0
LINE
  8
0
 10
-48.000000
 20
-57.500000
 11
-48.000000
 21
-202.500000
  0
LINE
  8
0
 10
-53.200012
 20
-86.000000
 11
-53.200012
 21
-174.000000
  0
LINE
  8
0
 10
-52.200012
 20
-85.201706
 11
-52.200012
 21
-174.798294
  0
LINE
  8
0
 10
-53.199917
 20
-85.999992
 11
-52.401691
 21
-85.201744
  0
LINE
  8
0
 10
-61.200012
 20
-97.783501
 11
-61.200012
 21
-109.183502
  0
LINE
  8
0
 10
-61.200012
 20
-150.816498
 11
-61.200012
 21
-162.216507
  0
LINE
  8
0
 10
-85.000000
 20
-101.000008
 11
-61.200020
 21
-100.048019
  0
LINE
  8
0
 10
-85.000015
 20
-159.000076
 11
-61.200024
 21
-159.952072
  0
LINE
  8
0
 10
-60.000000
 20
-93.500000
 11
-60.000000
 21
-96.983498
  0
LINE
  8
0
 10
-13.000000
 20
-57.500000
 11
-13.000000
 21
-202.500000
  0
LINE
  8
0
 10
-48.000000
 20
-57.500000
 11
-13.000000
 21
-57.500000
  0
LINE
  8
0
 10
-48.000000
 20
-202.500000
 11
-13.000000
 21
-202.500000
  0
LINE
  8
0
  6
CENTER
 62
     2
 10
-78.334427
 20
-72.500000
 11
181.700012
 21
-72.500000
  0
LINE
  8
0
 10
163.517517
 20
-200.201523
 11
153.500000
 21
-200.201523
  0
LINE
  8
0
 10
163.517517
 20
-193.850845
 11
153.500000
 21
-193.850845
  0
LINE
  8
0
 10
163.517517
 20
-181.149139
 11
153.500000
 21
-181.149139
  0
LINE
  8
0
 10
163.517517
 20
-174.798294
 11
153.500000
 21
-174.798294
  0
LINE
  8
0
 10
153.500000
 20
-200.201706
 11
153.500000
 21
-174.798294
  0
LINE
  8
0
 10
164.500000
 20
-198.500000
 11
164.500000
 21
-176.500000
  0
LINE
  8
0
 10
164.500183
 20
-198.500183
 11
163.517639
 21
-200.201874
  0
LINE
  8
0
 10
164.499695
 20
-176.500137
 11
163.517227
 21
-174.798462
  0
LINE
  8
0
 10
177.000000
 20
-193.500366
 11
177.000000
 21
-181.500366
  0
LINE
  8
0
 10
176.000000
 20
-194.500366
 11
176.000000
 21
-180.500366
  0
LINE
  8
0
 10
176.000000
 20
-194.500000
 11
164.500000
 21
-194.500000
  0
LINE
  8
0
 10
176.000000
 20
-180.500000
 11
164.500000
 21
-180.500000
  0
LINE
  8
0
 10
176.999802
 20
-193.500290
 11
175.999802
 21
-194.500290
  0
LINE
  8
0
 10
176.999573
 20
-181.500717
 11
175.999573
 21
-180.500717
  0
LINE
  8
0
  6
CENTER
 62
     2
 10
-80.500000
 20
-187.500000
 11
181.799988
 21
-187.500000
  0
LINE
  8
0
 10
-74.000000
 20
-194.500000
 11
-62.500000
 21
-194.500000
  0
LINE
  8
0
 10
-74.999992
 20
-181.499969
 11
-74.000015
 21
-180.499985
  0
LINE
  8
0
 10
-74.999962
 20
-193.499954
 11
-73.999962
 21
-194.499954
  0
LINE
  8
0
 10
-61.517517
 20
-174.798294
 11
-51.500000
 21
-174.798294
  0
LINE
  8
0
 10
-61.517517
 20
-181.149155
 11
-51.500000
 21
-181.149155
  0
LINE
  8
0
 10
-61.517517
 20
-193.850861
 11
-51.500000
 21
-193.850861
  0
LINE
  8
0
 10
-61.517517
 20
-200.201706
 11
-51.500000
 21
-200.201706
  0
LINE
  8
0
 10
-51.500000
 20
-174.798294
 11
-51.500000
 21
-200.201706
  0
LINE
  8
0
 10
-62.500000
 20
-176.500000
 11
-62.500000
 21
-198.500000
  0
LINE
  8
0
 10
-62.499989
 20
-176.499969
 11
-61.517513
 21
-174.798294
  0
LINE
  8
0
 10
-62.500076
 20
-198.500046
 11
-61.517590
 21
-200.201752
  0
LINE
  8
0
 10
-75.000000
 20
-181.500000
 11
-75.000000
 21
-193.500000
  0
LINE
  8
0
 10
-74.000000
 20
-180.500000
 11
-74.000000
 21
-194.500000
  0
LINE
  8
0
 10
-74.000000
 20
-180.500000
 11
-62.500000
 21
-180.500000
  0
LINE
  8
0
 10
-53.199986
 20
-173.999985
 11
-52.401680
 21
-174.798264
  0
LINE
  8
0
  6
CENTER
 62
     2
 10
-32.000000
 20
-53.404572
 11
-32.000000
 21
-141.300003
  0
LINE
  8
0
  6
DASHED
 62
     2
 10
128.904907
 20
-129.250000
 11
139.095093
 21
-129.250000
  0
LINE
  8
0
  6
DASHED
 62
     2
 10
128.904907
 20
-130.750000
 11
139.095093
 21
-130.750000
  0
LINE
  8
0
 10
-13.000000
 20
-65.500000
 11
-6.000000
 21
-65.500000
  0
LINE
  8
0
 10
-13.000000
 20
-194.500000
 11
80.000000
 21
-194.500000
  0
LINE
  8
0
 10
-13.000000
 20
-79.500000
 11
-6.000000
 21
-79.500000
  0
LINE
  8
0
 10
-13.000000
 20
-180.500000
 11
80.000000
 21
-180.500000
  0
LINE
  8
0
  6
CENTER
 62
     2
 10
134.000000
 20
-53.547623
 11
134.000000
 21
-143.000000
  0
LINE
  8
0
 10
150.000000
 20
-57.500000
 11
150.000000
 21
-202.500000
  0
LINE
  8
0
 10
115.000000
 20
-57.500000
 11
115.000000
 21
-202.500000
  0
LINE
  8
0
 10
115.000000
 20
-57.500000
 11
150.000000
 21
-57.500000
  0
LINE
  8
0
 10
115.000000
 20
-202.500000
 11
150.000000
 21
-202.500000
  0
LINE
  8
0
 10
-37.095097
 20
-129.250000
 11
-26.904903
 21
-129.250000
  0
LINE
  8
0
 10
-37.095097
 20
-130.750000
 11
-26.904903
 21
-130.750000
  0
LINE
  8
0
 10
-74.999977
 20
-78.500023
 11
-73.999985
 21
-79.500031
  0
LINE
  8
0
 10
-74.999985
 20
-66.500053
 11
-73.999969
 21
-65.500061
  0
LINE
  8
0
 10
-74.000000
 20
-79.500000
 11
-62.500000
 21
-79.500000
  0
LINE
  8
0
 10
-61.517517
 20
-59.798294
 11
-51.500000
 21
-59.798294
  0
LINE
  8
0
 10
-61.517517
 20
-66.149155
 11
-51.500000
 21
-66.149155
  0
LINE
  8
0
 10
-61.517517
 20
-78.850861
 11
-51.500000
 21
-78.850861
  0
LINE
  8
0
 10
-61.517517
 20
-85.201706
 11
-51.500000
 21
-85.201706
  0
LINE
  8
0
 10
-51.500000
 20
-59.798294
 11
-51.500000
 21
-85.201706
  0
LINE
  8
0
 10
-62.500000
 20
-61.500000
 11
-62.500000
 21
-83.500000
  0
LINE
  8
0
 10
-62.500034
 20
-61.499947
 11
-61.517548
 21
-59.798237
  0
LINE
  8
0
 10
-62.500004
 20
-83.500008
 11
-61.517521
 21
-85.201714
  0
LINE
  8
0
 10
-75.000000
 20
-66.500000
 11
-75.000000
 21
-78.500000
  0
LINE
  8
0
 10
-74.000000
 20
-65.500000
 11
-74.000000
 21
-79.500000
  0
LINE
  8
0
 10
-74.000000
 20
-65.500000
 11
-62.500000
 21
-65.500000
  0
LINE
  8
0
 10
176.999741
 20
-66.500542
 11
175.999741
 21
-65.500542
  0
LINE
  8
0
 10
176.999619
 20
-78.500031
 11
175.999649
 21
-79.500015
  0
LINE
  8
0
 10
176.000000
 20
-65.500000
 11
164.500000
 21
-65.500000
  0
LINE
  8
0
 10
163.517517
 20
-85.201523
 11
153.500000
 21
-85.201523
  0
LINE
  8
0
 10
163.517517
 20
-78.850845
 11
153.500000
 21
-78.850845
  0
LINE
  8
0
 10
163.517517
 20
-66.149139
 11
153.500000
 21
-66.149139
  0
LINE
  8
0
 10
163.517517
 20
-59.798294
 11
153.500000
 21
-59.798294
  0
LINE
  8
0
 10
153.500000
 20
-85.201706
 11
153.500000
 21
-59.798294
  0
LINE
  8
0
 10
164.500000
 20
-83.500008
 11
164.500000
 21
-61.500000
  0
LINE
  8
0
 10
164.500381
 20
-83.500252
 11
163.517807
 21
-85.201981
  0
LINE
  8
0
 10
164.500031
 20
-61.500050
 11
163.517548
 21
-59.798340
  0
LINE
  8
0
 10
177.000000
 20
-78.500374
 11
177.000000
 21
-66.500374
  0
LINE
  8
0
 10
176.000000
 20
-79.500374
 11
176.000000
 21
-65.500374
  0
LINE
  8
0
 10
176.000000
 20
-79.500000
 11
164.500000
 21
-79.500000
  0
LINE
  8
0
 10
-59.000000
 20
-92.500000
 11
-53.200012
 21
-92.500000
  0
LINE
  8
0
 10
-59.000000
 20
-167.500000
 11
-53.200012
 21
-167.500000
  0
LINE
  8
0
 10
-60.000000
 20
-109.983490
 11
-60.000000
 21
-150.016510
  0
LINE
  8
0
 10
-60.000000
 20
-163.016510
 11
-60.000000
 21
-166.500000
  0
LINE
  8
0
 10
-60.400009
 20
-163.016510
 11
-53.200012
 21
-163.016510
  0
LINE
  8
0
 10
-60.400009
 20
-150.016510
 11
-53.200012
 21
-150.016510
  0
LINE
  8
0
 10
-60.400009
 20
-96.983498
 11
-53.200012
 21
-96.983498
  0
LINE
  8
0
 10
-60.400009
 20
-109.983490
 11
-53.200012
 21
-109.983490
  0
LINE
  8
0
 10
-61.200047
 20
-97.783493
 11
-60.400040
 21
-96.983490
  0
LINE
  8
0
 10
-61.199997
 20
-109.183456
 11
-60.399990
 21
-109.983467
  0
LINE
  8
0
 10
-60.400021
 20
-150.016510
 11
-61.200024
 21
-150.816513
  0
LINE
  8
0
 10
-61.200062
 20
-162.216537
 11
-60.400059
 21
-163.016541
  0
LINE
  8
0
 10
-60.400032
 20
-96.983498
 11
-60.400032
 21
-109.983490
  0
LINE
  8
0
 10
-60.400017
 20
-150.016510
 11
-60.400017
 21
-163.016510
  0
LINE
  8
0
 10
150.000000
 20
-175.500000
 11
153.500000
 21
-175.500000
  0
LINE
  8
0
 10
150.000000
 20
-199.500000
 11
153.500000
 21
-199.500000
  0
LINE
  8
0
 10
-51.500000
 20
-175.500000
 11
-48.000000
 21
-175.500000
  0
LINE
  8
0
 10
-51.500000
 20
-199.500000
 11
-48.000000
 21
-199.500000
  0
LINE
  8
0
 10
-51.500000
 20
-60.500000
 11
-48.000000
 21
-60.500000
  0
LINE
  8
0
 10
-51.500000
 20
-84.500000
 11
-48.000000
 21
-84.500000
  0
LINE
  8
0
 10
150.000000
 20
-60.500000
 11
153.500000
 21
-60.500000
  0
LINE
  8
0
 10
150.000000
 20
-84.500000
 11
153.500000
 21
-84.500000
  0
LINE
  8
0
 10
-51.500000
 20
-175.000000
 11
-48.000000
 21
-175.000000
  0
LINE
  8
0
 10
-51.500000
 20
-85.000000
 11
-48.000000
 21
-85.000000
  0
LINE
  8
0
  6
DASHED
 62
     2
 10
-42.500031
 20
-57.500031
 11
-41.000038
 21
-59.000023
  0
LINE
  8
0
  6
DASHED
 62
     2
 10
-41.000038
 20
-59.000046
 11
-23.000000
 21
-59.000046
  0
LINE
  8
0
  6
DASHED
 62
     2
 10
-21.499989
 20
-57.499973
 11
-22.999990
 21
-58.999985
  0
LINE
  8
0
  6
DASHED
 62
     2
 10
-21.500017
 20
-57.499989
 11
-21.899694
 21
-68.946449
  0
LINE
  8
0
  6
DASHED
 62
     2
 10
-23.000000
 20
-68.850006
 11
-23.000000
 21
-59.000000
  0
LINE
  8
0
  6
DASHED
 62
     2
 10
-40.999462
 20
-59.000015
 11
-40.999462
 21
-67.650009
  0
LINE
  8
0
  6
DASHED
 62
     2
 10
-42.500034
 20
-57.500000
 11
-42.124802
 21
-68.243835
  0
LINE
  8
0
  6
DASHED
 62
     2
 10
123.500130
 20
-57.500057
 11
124.999901
 21
-59.000088
  0
LINE
  8
0
  6
DASHED
 62
     2
 10
125.000000
 20
-59.000473
 11
143.000214
 21
-59.000473
  0
LINE
  8
0
  6
DASHED
 62
     2
 10
143.000031
 20
-58.999775
 11
144.500015
 21
-57.499775
  0
LINE
  8
0
  6
DASHED
 62
     2
 10
144.500366
 20
-57.499962
 11
144.100647
 21
-68.946472
  0
LINE
  8
0
  6
DASHED
 62
     2
 10
143.000015
 20
-68.850014
 11
143.000229
 21
-58.999928
  0
LINE
  8
0
  6
DASHED
 62
     2
 10
125.000000
 20
-59.000000
 11
125.000000
 21
-67.650009
  0
LINE
  8
0
  6
DASHED
 62
     2
 10
123.875710
 20
-68.243797
 11
123.500465
 21
-57.499928
  0
LINE
  8
0
 62
     2
 10
-75.000000
 20
-78.099998
 11
-62.500000
 21
-78.099998
  0
LINE
  8
0
 62
     2
 10
-75.000000
 20
-66.900002
 11
-62.500000
 21
-66.900002
  0
LINE
  8
0
 62
     2
 10
164.500000
 20
-66.900002
 11
177.000000
 21
-66.900002
  0
LINE
  8
0
 62
     2
 10
164.500000
 20
-78.099998
 11
177.000000
 21
-78.099998
  0
LINE
  8
0
 62
     2
 10
-75.000000
 20
-181.899994
 11
-62.500000
 21
-181.899994
  0
LINE
  8
0
 62
     2
 10
-75.000000
 20
-193.100006
 11
-62.500000
 21
-193.100006
  0
LINE
  8
0
 62
     2
 10
177.000000
 20
-181.899994
 11
164.500000
 21
-181.899994
  0
LINE
  8
0
 62
     2
 10
177.000000
 20
-193.100006
 11
164.500000
 21
-193.100006
  0
LINE
  8
0
 10
360.000000
 20
-115.750000
 11
360.000000
 21
-144.250000
  0
LINE
  8
0
 10
153.500000
 20
-85.000000
 11
150.000000
 21
-85.000000
  0
LINE
  8
0
 10
359.250000
 20
-115.000000
 11
307.000000
 21
-115.000000
  0
LINE
  8
0
 10
359.250000
 20
-145.000000
 11
307.000000
 21
-145.000000
  0
LINE
  8
0
 10
310.000000
 20
-115.000000
 11
310.000000
 21
-145.000000
  0
LINE
  8
0
 10
307.000000
 20
-115.000000
 11
307.000000
 21
-145.000000
  0
LINE
  8
0
 10
306.999939
 20
-145.000137
 11
301.803833
 21
-148.000107
  0
LINE
  8
0
 10
307.000244
 20
-114.999596
 11
301.804047
 21
-111.999573
  0
LINE
  8
0
 10
301.803833
 20
-121.753784
 11
295.000000
 21
-121.753784
  0
LINE
  8
0
 10
301.803833
 20
-138.246216
 11
295.000000
 21
-138.246216
  0
LINE
  8
0
 10
295.000000
 20
-121.753784
 11
295.000000
 21
-138.246216
  0
LINE
  8
0
 10
301.803833
 20
-112.000000
 11
301.803833
 21
-121.753784
  0
LINE
  8
0
 10
301.803833
 20
-138.246216
 11
301.803833
 21
-148.000000
  0
LINE
  8
0
 62
     2
 10
295.000153
 20
-121.753662
 11
301.803986
 21
-138.246094
  0
LINE
  8
0
 62
     2
 10
301.803558
 20
-121.753693
 11
294.999725
 21
-138.246109
  0
LINE
  8
0
 10
188.000000
 20
-102.000000
 11
188.000000
 21
-158.000000
  0
LINE
  8
0
 10
187.000000
 20
-101.000000
 11
187.000000
 21
-159.000000
  0
LINE
  8
0
 10
187.999908
 20
-102.000069
 11
186.999908
 21
-101.000069
  0
LINE
  8
0
 10
187.999634
 20
-157.999603
 11
186.999634
 21
-158.999603
  0
LINE
  8
0
 10
155.200012
 20
-86.000000
 11
155.200012
 21
-174.000000
  0
LINE
  8
0
 10
154.200012
 20
-85.201706
 11
154.200012
 21
-174.798294
  0
LINE
  8
0
 10
155.200058
 20
-85.999855
 11
154.401855
 21
-85.201630
  0
LINE
  8
0
 10
163.200012
 20
-97.783501
 11
163.200012
 21
-109.183502
  0
LINE
  8
0
 10
163.200012
 20
-150.816498
 11
163.200012
 21
-162.216507
  0
LINE
  8
0
 10
187.000046
 20
-100.999977
 11
163.200058
 21
-100.047981
  0
LINE
  8
0
 10
187.000015
 20
-159.000076
 11
163.200012
 21
-159.952072
  0
LINE
  8
0
 10
162.000000
 20
-93.500000
 11
162.000000
 21
-96.983498
  0
LINE
  8
0
 10
155.200485
 20
-174.000488
 11
154.402176
 21
-174.798782
  0
LINE
  8
0
 10
161.000000
 20
-92.500000
 11
155.200012
 21
-92.500000
  0
LINE
  8
0
 10
161.000000
 20
-167.500000
 11
155.200012
 21
-167.500000
  0
LINE
  8
0
 10
162.000000
 20
-109.983490
 11
162.000000
 21
-150.016510
  0
LINE
  8
0
 10
162.000000
 20
-163.016510
 11
162.000000
 21
-166.500000
  0
LINE
  8
0
 10
162.400024
 20
-163.016510
 11
155.200012
 21
-163.016510
  0
LINE
  8
0
 10
162.400024
 20
-150.016510
 11
155.200012
 21
-150.016510
  0
LINE
  8
0
 10
162.400024
 20
-96.983498
 11
155.200012
 21
-96.983498
  0
LINE
  8
0
 10
162.400024
 20
-109.983490
 11
155.200012
 21
-109.983490
  0
LINE
  8
0
 10
163.199615
 20
-97.783813
 11
162.399628
 21
-96.983803
  0
LINE
  8
0
 10
163.200134
 20
-109.183632
 11
162.400131
 21
-109.983643
  0
LINE
  8
0
 10
162.399948
 20
-150.016586
 11
163.199921
 21
-150.816574
  0
LINE
  8
0
 10
163.199936
 20
-162.216370
 11
162.399948
 21
-163.016357
  0
LINE
  8
0
 10
162.400024
 20
-96.983498
 11
162.400024
 21
-109.983490
  0
LINE
  8
0
 10
162.400024
 20
-150.016510
 11
162.400024
 21
-163.016510
  0
LINE
  8
0
 10
153.500000
 20
-175.000000
 11
150.000000
 21
-175.000000
  0
LINE
  8
0
 10
301.803833
 20
-112.000000
 11
188.000000
 21
-112.000000
  0
LINE
  8
0
 10
301.803833
 20
-148.000000
 11
188.000000
 21
-148.000000
  0
LINE
  8
0
 10
-13.000000
 20
-197.500000
 11
80.000000
 21
-197.500000
  0
LINE
  8
0
 10
-13.000000
 20
-62.500000
 11
-6.000000
 21
-62.500000
  0
LINE
  8
0
 62
     2
 10
-158.000000
 20
-144.250000
 11
-108.000000
 21
-144.250000
  0
LINE
  8
0
 62
     2
 10
-158.000000
 20
-115.750000
 11
-108.000000
 21
-115.750000
  0
LINE
  8
0
 10
-157.999954
 20
-115.750046
 11
-157.249954
 21
-115.000046
  0
LINE
  8
0
 10
-157.250000
 20
-115.000000
 11
-157.250000
 21
-145.000000
  0
LINE
  8
0
 10
-158.000183
 20
-144.250183
 11
-157.250183
 21
-145.000183
  0
LINE
  8
0
 62
     2
 10
-108.000008
 20
-115.750008
 11
-106.700966
 21
-115.000008
  0
LINE
  8
0
 62
     2
 10
-108.000061
 20
-144.250107
 11
-106.701019
 21
-145.000107
  0
LINE
  8
0
 10
359.250000
 20
-115.000000
 11
359.250000
 21
-145.000000
  0
LINE
  8
0
 10
360.000336
 20
-144.250381
 11
359.250397
 21
-145.000336
  0
LINE
  8
0
 62
     2
 10
310.000061
 20
-144.250000
 11
308.701019
 21
-145.000000
  0
LINE
  8
0
 62
     2
 10
310.000031
 20
-115.749939
 11
308.701019
 21
-114.999954
  0
LINE
  8
0
 62
     2
 10
360.000000
 20
-144.250000
 11
310.000000
 21
-144.250000
  0
LINE
  8
0
 62
     2
 10
360.000000
 20
-115.750000
 11
310.000000
 21
-115.750000
  0
LINE
  8
0
 10
360.000122
 20
-115.749939
 11
359.250122
 21
-114.999947
  0
LINE
  8
0
 10
22.000000
 20
-62.500000
 11
115.000000
 21
-62.500000
  0
LINE
  8
0
 10
22.000000
 20
-65.500000
 11
115.000000
 21
-65.500000
  0
LINE
  8
0
 10
22.000000
 20
-79.500000
 11
115.000000
 21
-79.500000
  0
LINE
  8
0
 10
108.000000
 20
-180.500000
 11
115.000000
 21
-180.500000
  0
LINE
  8
0
 10
108.000000
 20
-194.500000
 11
115.000000
 21
-194.500000
  0
LINE
  8
0
 10
108.000000
 20
-197.500000
 11
115.000000
 21
-197.500000
  0
LINE
  8
0
 62
     4
 10
-6.000000
 20
-54.199989
 11
-6.000000
 21
-99.206215
  0
LINE
  8
0
 62
     4
 10
22.000000
 20
-54.199989
 11
22.000000
 21
-97.280952
  0
LINE
  8
0
 62
     4
 10
22.000000
 20
-97.033928
 11
22.000000
 21
-97.033928
  0
LINE
  8
0
 62
     4
 10
-6.000000
 20
-54.199989
 11
22.000000
 21
-54.199989
  0
LINE
  8
0
 62
     4
 10
-6.000000
 20
-75.959412
 11
22.000000
 21
-75.959412
  0
LINE
  8
0
 62
     4
 10
-6.000000
 20
-98.887856
 11
5.211273
 21
-98.887856
  0
LINE
  8
0
 62
     4
 10
3.850006
 20
-95.963112
 11
3.850006
 21
-97.442719
  0
LINE
  8
0
 62
     4
 10
12.149994
 20
-95.963112
 11
12.149994
 21
-97.442719
  0
LINE
  8
0
 62
     4
 10
10.786377
 20
-98.887856
 11
22.000000
 21
-98.887856
  0
LINE
  8
0
 62
     4
 10
-6.000000
 20
-99.206215
 11
22.000000
 21
-99.206215
  0
LINE
  8
0
 62
     4
 10
-7.499993
 20
-94.302803
 11
-5.999989
 21
-93.436775
  0
LINE
  8
0
 62
     4
 10
-7.499998
 20
-98.021851
 11
-6.000007
 21
-98.887871
  0
LINE
  8
0
 62
     4
 10
-7.500006
 20
-97.423492
 11
-5.999998
 21
-97.554726
  0
LINE
  8
0
 62
     4
 10
17.500000
 20
-97.662285
 11
55.624039
 21
-97.662285
  0
LINE
  8
0
 62
     4
 10
22.000000
 20
-94.662285
 11
53.891983
 21
-94.662285
  0
LINE
  8
0
 62
     4
 10
6.238060
 20
-98.611015
 11
9.761945
 21
-97.666794
  0
LINE
  8
0
 62
     4
 10
6.238046
 20
-97.666809
 11
9.761961
 21
-98.611038
  0
LINE
  8
0
 62
     4
 10
17.500000
 20
-97.280952
 11
17.500000
 21
-98.887856
  0
LINE
  8
0
 62
     4
 10
22.000000
 20
-97.662285
 11
22.000000
 21
-99.206215
  0
LINE
  8
0
 62
     4
 10
-6.000000
 20
-92.311989
 11
22.000000
 21
-92.311989
  0
LINE
  8
0
 62
     4
 10
-7.500000
 20
-94.302750
 11
-7.500000
 21
-98.021828
  0
LINE
  8
0
 62
     4
 10
53.891994
 20
-94.662285
 11
55.624050
 21
-97.662292
  0
LINE
  8
0
 62
     4
 10
-6.000000
 20
-97.280952
 11
3.864311
 21
-97.280952
  0
LINE
  8
0
 62
     4
 10
-6.000000
 20
-97.554695
 11
3.856926
 21
-97.554695
  0
LINE
  8
0
 62
     4
 10
12.135536
 20
-97.280952
 11
22.000000
 21
-97.280952
  0
LINE
  8
0
 62
     4
 10
12.143261
 20
-97.554695
 11
17.500000
 21
-97.554695
  0
LINE
  8
0
 62
     4
 10
108.000000
 20
-205.800018
 11
108.000000
 21
-160.793793
  0
LINE
  8
0
 62
     4
 10
80.000000
 20
-205.800018
 11
80.000000
 21
-163.081863
  0
LINE
  8
0
 62
     4
 10
108.000000
 20
-205.800018
 11
80.000000
 21
-205.800018
  0
LINE
  8
0
 62
     4
 10
108.000000
 20
-184.040604
 11
80.000000
 21
-184.040604
  0
LINE
  8
0
 62
     4
 10
108.000000
 20
-161.112152
 11
96.788727
 21
-161.112152
  0
LINE
  8
0
 62
     4
 10
108.000000
 20
-163.081863
 11
98.149994
 21
-163.081863
  0
LINE
  8
0
 62
     4
 10
98.149994
 20
-164.036896
 11
98.149994
 21
-162.557297
  0
LINE
  8
0
 62
     4
 10
89.850006
 20
-164.036896
 11
89.850006
 21
-162.557297
  0
LINE
  8
0
 62
     4
 10
89.850006
 20
-163.081863
 11
80.000000
 21
-163.081863
  0
LINE
  8
0
 62
     4
 10
91.213623
 20
-161.112152
 11
80.000000
 21
-161.112152
  0
LINE
  8
0
 62
     4
 10
108.000000
 20
-160.793793
 11
95.771042
 21
-160.793793
  0
LINE
  8
0
 62
     4
 10
109.500008
 20
-165.697311
 11
108.000008
 21
-166.563339
  0
LINE
  8
0
 62
     4
 10
109.499977
 20
-161.978226
 11
107.999985
 21
-161.112213
  0
LINE
  8
0
 62
     4
 10
109.500023
 20
-163.213196
 11
108.000015
 21
-163.081955
  0
LINE
  8
0
 62
     4
 10
84.500000
 20
-162.337723
 11
46.375961
 21
-162.337723
  0
LINE
  8
0
 62
     4
 10
80.000000
 20
-165.337723
 11
48.108017
 21
-165.337723
  0
LINE
  8
0
 62
     4
 10
95.761932
 20
-161.388931
 11
92.238045
 21
-162.333160
  0
LINE
  8
0
 62
     4
 10
95.761978
 20
-162.333084
 11
92.238068
 21
-161.388855
  0
LINE
  8
0
 62
     4
 10
84.500000
 20
-163.081863
 11
84.500000
 21
-161.112152
  0
LINE
  8
0
 62
     4
 10
80.000000
 20
-162.337723
 11
80.000000
 21
-160.793793
  0
LINE
  8
0
 62
     4
 10
108.000000
 20
-167.688019
 11
80.000000
 21
-167.688019
  0
LINE
  8
0
 62
     4
 10
109.500000
 20
-165.697250
 11
109.500000
 21
-161.978180
  0
LINE
  8
0
 62
     4
 10
48.107998
 20
-165.337753
 11
46.375950
 21
-162.337753
  0
LINE
  8
0
 62
     4
 10
14.135002
 20
-59.585251
 11
15.864998
 21
-59.585251
  0
LINE
  8
0
 62
     4
 10
14.135002
 20
-62.171906
 11
15.864998
 21
-62.171906
  0
LINE
  8
0
 62
     4
 10
14.135001
 20
-59.585255
 11
13.267951
 21
-60.878578
  0
LINE
  8
0
 62
     4
 10
13.267944
 20
-60.878582
 11
14.134995
 21
-62.171906
  0
LINE
  8
0
 62
     4
 10
15.864993
 20
-62.171875
 11
16.732044
 21
-60.878555
  0
LINE
  8
0
 62
     4
 10
16.732048
 20
-60.878574
 11
15.864997
 21
-59.585251
  0
LINE
  8
0
 62
     4
 10
0.135002
 20
-59.585251
 11
1.864998
 21
-59.585251
  0
LINE
  8
0
 62
     4
 10
0.135002
 20
-62.171906
 11
1.864998
 21
-62.171906
  0
LINE
  8
0
 62
     4
 10
0.135011
 20
-59.585247
 11
-0.732038
 21
-60.878571
  0
LINE
  8
0
 62
     4
 10
-0.732050
 20
-60.878582
 11
0.135000
 21
-62.171906
  0
LINE
  8
0
 62
     4
 10
1.864986
 20
-62.171890
 11
2.732037
 21
-60.878571
  0
LINE
  8
0
 62
     4
 10
2.732061
 20
-60.878567
 11
1.865010
 21
-59.585247
  0
LINE
  8
0
 62
     4
 10
100.135010
 20
-201.000839
 11
101.864990
 21
-201.000839
  0
LINE
  8
0
 62
     4
 10
100.135010
 20
-198.414200
 11
101.864990
 21
-198.414200
  0
LINE
  8
0
 62
     4
 10
100.134987
 20
-201.000824
 11
99.267929
 21
-199.707504
  0
LINE
  8
0
 62
     4
 10
99.267944
 20
-199.707474
 11
100.134995
 21
-198.414169
  0
LINE
  8
0
 62
     4
 10
101.864990
 20
-198.414185
 11
102.732040
 21
-199.707520
  0
LINE
  8
0
 62
     4
 10
102.732048
 20
-199.707504
 11
101.864998
 21
-201.000824
  0
LINE
  8
0
 62
     4
 10
86.135010
 20
-201.000839
 11
87.864990
 21
-201.000839
  0
LINE
  8
0
 62
     4
 10
86.135010
 20
-198.414200
 11
87.864990
 21
-198.414200
  0
LINE
  8
0
 62
     4
 10
86.134995
 20
-201.000839
 11
85.267937
 21
-199.707520
  0
LINE
  8
0
 62
     4
 10
85.267937
 20
-199.707535
 11
86.134987
 21
-198.414215
  0
LINE
  8
0
 62
     4
 10
87.865005
 20
-198.414200
 11
88.732056
 21
-199.707520
  0
LINE
  8
0
 62
     4
 10
88.732063
 20
-199.707520
 11
87.865013
 21
-201.000839
  0
LINE
  8
0
 62
     4
 10
92.228745
 20
-160.793793
 11
80.000000
 21
-160.793793
  0
LINE
  8
0
 10
-264.000000
 20
-121.753784
 11
-264.000000
 21
-138.246216
  0
LINE
  8
0
 10
-296.000000
 20
-121.753784
 11
-296.000000
 21
-138.246216
  0
LINE
  8
0
  6
CENTER
 62
     2
 10
-356.500000
 20
-130.000000
 11
-202.250000
 21
-130.000000
  0
LINE
  8
0
  6
CENTER
 62
     2
 10
-280.000000
 20
-53.500000
 11
-280.000000
 21
-206.250000
  0
LINE
  8
0
 10
-207.500000
 20
-57.500000
 11
-207.500000
 21
-202.500000
  0
LINE
  8
0
 10
-352.500000
 20
-57.500000
 11
-352.500000
 21
-202.500000
  0
LINE
  8
0
 10
-352.500000
 20
-57.500000
 11
-207.500000
 21
-57.500000
  0
LINE
  8
0
 10
-352.500000
 20
-202.500000
 11
-207.500000
 21
-202.500000
  0
LINE
  8
0
  6
CENTER
 62
     2
 10
-222.500000
 20
-58.000000
 11
-222.500000
 21
-87.000000
  0
LINE
  8
0
  6
CENTER
 62
     2
 10
-337.500000
 20
-57.500000
 11
-337.500000
 21
-86.000000
  0
LINE
  8
0
  6
CENTER
 62
     2
 10
-350.750000
 20
-72.500000
 11
-323.750000
 21
-72.500000
  0
LINE
  8
0
  6
CENTER
 62
     2
 10
-351.000000
 20
-187.500000
 11
-324.000000
 21
-187.500000
  0
LINE
  8
0
 10
-326.500000
 20
-181.149155
 11
-326.500000
 21
-193.850861
  0
LINE
  8
0
 10
-348.500000
 20
-181.149155
 11
-348.500000
 21
-193.850861
  0
LINE
  8
0
 10
-348.499817
 20
-181.149368
 11
-337.499786
 21
-174.798523
  0
LINE
  8
0
 10
-337.499756
 20
-200.202026
 11
-326.499695
 21
-193.851135
  0
LINE
  8
0
 10
-337.499756
 20
-174.797943
 11
-326.499817
 21
-181.148773
  0
LINE
  8
0
 10
-348.499939
 20
-193.850739
 11
-337.499969
 21
-200.201553
  0
LINE
  8
0
  6
CENTER
 62
     2
 10
-337.500000
 20
-172.500000
 11
-337.500000
 21
-202.250000
  0
LINE
  8
0
  6
CENTER
 62
     2
 10
-234.750000
 20
-187.500000
 11
-208.500000
 21
-187.500000
  0
LINE
  8
0
  6
CENTER
 62
     2
 10
-222.500000
 20
-171.750000
 11
-222.500000
 21
-201.000000
  0
LINE
  8
0
  6
CENTER
 62
     2
 10
-235.750000
 20
-72.500000
 11
-209.500000
 21
-72.500000
  0
LINE
  8
0
 10
-307.413147
 20
-153.170593
 11
-304.067078
 21
-154.067169
  0
LINE
  8
0
 10
-308.966064
 20
-158.966095
 11
-305.619995
 21
-159.862671
  0
LINE
  8
0
 10
-309.862518
 20
-155.619888
 11
-308.965942
 21
-158.965973
  0
LINE
  8
0
 10
-304.066803
 20
-154.067017
 11
-303.170258
 21
-157.413040
  0
LINE
  8
0
 10
-305.619843
 20
-159.862671
 11
-303.170349
 21
-157.413208
  0
LINE
  8
0
 10
-309.862549
 20
-155.619965
 11
-307.413025
 21
-153.170471
  0
LINE
  8
0
 10
-305.619812
 20
-100.137367
 11
-303.170319
 21
-102.586868
  0
LINE
  8
0
 10
-303.170654
 20
-102.586845
 11
-304.067230
 21
-105.932915
  0
LINE
  8
0
 10
-308.966156
 20
-101.034012
 11
-309.862701
 21
-104.380051
  0
LINE
  8
0
 10
-305.619873
 20
-100.137421
 11
-308.965973
 21
-101.033997
  0
LINE
  8
0
 10
-304.067017
 20
-105.932938
 11
-307.412994
 21
-106.829491
  0
LINE
  8
0
 10
-309.862457
 20
-104.379967
 11
-307.412964
 21
-106.829437
  0
LINE
  8
0
 10
-252.586777
 20
-153.170319
 11
-250.137283
 21
-155.619812
  0
LINE
  8
0
 10
-250.137512
 20
-155.619873
 11
-251.034088
 21
-158.965958
  0
LINE
  8
0
 10
-255.933105
 20
-154.067001
 11
-256.829681
 21
-157.413055
  0
LINE
  8
0
 10
-252.586884
 20
-153.170425
 11
-255.932953
 21
-154.067001
  0
LINE
  8
0
 10
-251.034012
 20
-158.965973
 11
-254.380020
 21
-159.862534
  0
LINE
  8
0
 10
-256.829468
 20
-157.412994
 11
-254.380005
 21
-159.862457
  0
LINE
  8
0
 10
-256.829468
 20
-102.586967
 11
-254.379974
 21
-100.137474
  0
LINE
  8
0
 10
-254.380081
 20
-100.137512
 11
-251.034042
 21
-101.034088
  0
LINE
  8
0
 10
-255.933014
 20
-105.933083
 11
-252.586960
 21
-106.829659
  0
LINE
  8
0
 10
-256.829376
 20
-102.586838
 11
-255.932816
 21
-105.932907
  0
LINE
  8
0
 10
-251.033905
 20
-101.034012
 11
-250.137344
 21
-104.380020
  0
LINE
  8
0
 10
-252.586853
 20
-106.829636
 11
-250.137375
 21
-104.380157
  0
LINE
  8
0
 10
-211.500000
 20
-181.149155
 11
-211.500000
 21
-193.850861
  0
LINE
  8
0
 10
-233.500000
 20
-181.149155
 11
-233.500000
 21
-193.850861
  0
LINE
  8
0
 10
-233.499832
 20
-181.149185
 11
-222.499832
 21
-174.798370
  0
LINE
  8
0
 10
-222.499908
 20
-200.201797
 11
-211.499863
 21
-193.850922
  0
LINE
  8
0
 10
-222.499802
 20
-174.798035
 11
-211.499893
 21
-181.148849
  0
LINE
  8
0
 10
-233.499939
 20
-193.850845
 11
-222.499969
 21
-200.201660
  0
LINE
  8
0
 10
-211.500000
 20
-66.149155
 11
-211.500000
 21
-78.850861
  0
LINE
  8
0
 10
-233.500000
 20
-66.149155
 11
-233.500000
 21
-78.850861
  0
LINE
  8
0
 10
-233.499741
 20
-66.149414
 11
-222.499756
 21
-59.798592
  0
LINE
  8
0
 10
-222.499756
 20
-85.202087
 11
-211.499741
 21
-78.851219
  0
LINE
  8
0
 10
-222.499924
 20
-59.798210
 11
-211.499969
 21
-66.149055
  0
LINE
  8
0
 10
-233.499969
 20
-78.850822
 11
-222.499939
 21
-85.201675
  0
LINE
  8
0
 10
-326.500000
 20
-66.149155
 11
-326.500000
 21
-78.850861
  0
LINE
  8
0
 10
-348.500000
 20
-66.149155
 11
-348.500000
 21
-78.850861
  0
LINE
  8
0
 10
-348.499695
 20
-66.149559
 11
-337.499664
 21
-59.798717
  0
LINE
  8
0
 10
-337.499573
 20
-85.202286
 11
-326.499542
 21
-78.851418
  0
LINE
  8
0
 10
-337.499817
 20
-59.798145
 11
-326.499908
 21
-66.148956
  0
LINE
  8
0
 10
-348.500000
 20
-78.850800
 11
-337.499969
 21
-85.201653
  0
LINE
  8
0
  6
DASHED
 62
     1
 10
-234.304291
 20
-64.801987
 11
-224.935135
 21
-81.331322
  0
LINE
  8
0
  6
DASHED
 62
     1
 10
-211.885635
 20
-73.934563
 11
-224.935104
 21
-81.331268
  0
LINE
  8
0
  6
DASHED
 62
     1
 10
-238.219131
 20
-67.020966
 11
-219.973907
 21
-99.209679
  0
LINE
  8
0
  6
DASHED
 62
     1
 10
-207.794342
 20
-92.306046
 11
-215.450027
 21
-96.645454
  0
LINE
  8
0
 62
     4
 10
-221.254822
 20
-57.405254
 11
-221.201111
 21
-57.500008
  0
LINE
  8
0
  6
DASHED
 62
     1
 10
-207.500061
 20
-91.241287
 11
-207.794434
 21
-92.306038
  0
LINE
  8
0
  6
DASHED
 62
     1
 10
-234.304260
 20
-64.801926
 11
-238.219101
 21
-67.020943
  0
LINE
  8
0
  6
DASHED
 62
     1
 10
-220.977798
 20
-95.410698
 11
-219.005341
 21
-98.890556
  0
LINE
  8
0
  6
DASHED
 62
     1
 10
-217.323914
 20
-93.339592
 11
-220.977753
 21
-95.410675
  0
LINE
  8
0
  6
DASHED
 62
     1
 10
-219.103882
 20
-98.716530
 11
-219.973846
 21
-99.209641
  0
LINE
  8
0
  6
DASHED
 62
     1
 10
-238.219131
 20
-67.020966
 11
-219.973907
 21
-99.209679
  0
LINE
  8
0
  6
DASHED
 62
     1
 10
-209.348709
 20
-93.416985
 11
-219.005325
 21
-98.890549
  0
LINE
  8
0
  6
DASHED
 62
     1
 10
-217.323929
 20
-93.339630
 11
-215.450089
 21
-96.645500
  0
LINE
  8
0
  6
CENTER
 62
     1
 10
-211.645630
 20
-60.004860
 11
-224.528198
 21
-67.306969
  0
LINE
  8
0
  6
DASHED
 62
     1
 10
-222.046219
 20
-65.900146
 11
-217.956985
 21
-67.030701
  0
LINE
  8
0
  6
DASHED
 62
     1
 10
-220.915787
 20
-61.810921
 11
-222.046326
 21
-65.900146
  0
LINE
  8
0
  6
DASHED
 62
     1
 10
-218.986481
 20
-61.407055
 11
-221.141815
 21
-62.628746
  0
LINE
  8
0
  6
DASHED
 62
     1
 10
-216.619507
 20
-65.582916
 11
-218.774857
 21
-66.804619
  0
LINE
  8
0
  6
DASHED
 62
     1
 10
-213.729523
 20
-57.500008
 11
-207.500031
 21
-68.490242
  0
LINE
  8
0
  6
DASHED
 62
     1
 10
-219.282333
 20
-60.885101
 11
-220.915680
 21
-61.810925
  0
LINE
  8
0
  6
DASHED
 62
     1
 10
-216.323624
 20
-66.104904
 11
-217.956985
 21
-67.030731
  0
LINE
  8
0
  6
DASHED
 62
     1
 10
-220.296234
 20
-95.599129
 11
-218.816895
 21
-98.209023
  0
LINE
  8
0
  6
DASHED
 62
     1
 10
-217.686356
 20
-94.119797
 11
-216.207016
 21
-96.729691
  0
LINE
  8
0
  6
DASHED
 62
     1
 10
-216.206985
 20
-96.729645
 11
-218.816879
 21
-98.208984
  0
LINE
  8
0
  6
DASHED
 62
     1
 10
-217.686325
 20
-94.119766
 11
-220.296219
 21
-95.599106
  0
LINE
  8
0
  6
DASHED
 62
     1
 10
-220.296204
 20
-95.599106
 11
-220.977753
 21
-95.410675
  0
LINE
  8
0
  6
DASHED
 62
     1
 10
-218.816803
 20
-98.209000
 11
-219.005234
 21
-98.890541
  0
LINE
  8
0
  6
DASHED
 62
     1
 10
-217.497818
 20
-93.438225
 11
-217.686249
 21
-94.119759
  0
LINE
  8
0
  6
DASHED
 62
     1
 10
-208.300400
 20
-95.466591
 11
-215.262329
 21
-99.412750
  0
LINE
  8
0
  6
DASHED
 62
     1
 10
-216.206985
 20
-96.729652
 11
-215.525436
 21
-96.918076
  0
LINE
  8
0
  6
DASHED
 62
     1
 10
-217.497940
 20
-93.438255
 11
-215.525482
 21
-96.918106
  0
LINE
  8
0
  6
DASHED
 62
     1
 10
-216.482422
 20
-97.460518
 11
-216.186554
 21
-97.982506
  0
LINE
  8
0
  6
DASHED
 62
     1
 10
-209.348724
 20
-93.416985
 11
-209.052856
 21
-93.938972
  0
LINE
  8
0
  6
DASHED
 62
     1
 10
-209.052841
 20
-93.938950
 11
-216.186523
 21
-97.982475
  0
LINE
  8
0
  6
DASHED
 62
     1
 10
-216.230087
 20
-98.007225
 11
-215.262405
 21
-99.412827
  0
LINE
  8
0
  6
DASHED
 62
     1
 10
-209.009415
 20
-93.914345
 11
-208.300522
 21
-95.466629
  0
LINE
  8
0
 62
     4
 10
-215.600021
 20
-54.199978
 11
-221.254791
 21
-57.405220
  0
LINE
  8
0
 62
     4
 10
-203.272186
 20
-75.949097
 11
-207.500061
 21
-91.241402
  0
LINE
  8
0
 62
     4
 10
-215.600037
 20
-54.200005
 11
-213.729523
 21
-57.500008
  0
LINE
  8
0
 62
     4
 10
-207.500031
 20
-68.490242
 11
-203.272186
 21
-75.949127
  0
LINE
  8
0
  6
DASHED
 62
     1
 10
-221.201111
 20
-57.500008
 11
-211.885651
 21
-73.934593
  0
LINE
  8
0
  6
DASHED
 62
     1
 10
-209.009369
 20
-166.085693
 11
-208.300461
 21
-164.533401
  0
LINE
  8
0
  6
DASHED
 62
     1
 10
-216.230026
 20
-161.992813
 11
-215.262329
 21
-160.587189
  0
LINE
  8
0
  6
DASHED
 62
     1
 10
-209.052780
 20
-166.060989
 11
-216.186478
 21
-162.017471
  0
LINE
  8
0
 62
     4
 10
-215.600006
 20
-205.800018
 11
-221.254776
 21
-202.594772
  0
LINE
  8
0
 62
     4
 10
-203.272156
 20
-184.050888
 11
-207.500031
 21
-168.758575
  0
LINE
  8
0
  6
DASHED
 62
     1
 10
-221.201050
 20
-202.499985
 11
-211.885590
 21
-186.065414
  0
LINE
  8
0
 62
     4
 10
-207.499954
 20
-191.509735
 11
-203.272125
 21
-184.050858
  0
LINE
  8
0
 62
     4
 10
-215.600067
 20
-205.800034
 11
-213.729553
 21
-202.500031
  0
LINE
  8
0
  6
DASHED
 62
     1
 10
-234.304291
 20
-195.198029
 11
-224.935135
 21
-178.668701
  0
LINE
  8
0
  6
DASHED
 62
     1
 10
-211.885620
 20
-186.065445
 11
-224.935089
 21
-178.668732
  0
LINE
  8
0
  6
DASHED
 62
     1
 10
-238.219116
 20
-192.979034
 11
-219.973892
 21
-160.790344
  0
LINE
  8
0
  6
DASHED
 62
     1
 10
-207.794418
 20
-167.693954
 11
-215.450104
 21
-163.354568
  0
LINE
  8
0
 62
     4
 10
-221.254791
 20
-202.594757
 11
-221.201111
 21
-202.500031
  0
LINE
  8
0
  6
DASHED
 62
     1
 10
-207.500031
 20
-168.758698
 11
-207.794403
 21
-167.693924
  0
LINE
  8
0
  6
DASHED
 62
     1
 10
-234.304321
 20
-195.198151
 11
-238.219162
 21
-192.979141
  0
LINE
  8
0
  6
DASHED
 62
     1
 10
-220.977768
 20
-164.589310
 11
-219.005310
 21
-161.109436
  0
LINE
  8
0
  6
DASHED
 62
     1
 10
-217.323883
 20
-166.660400
 11
-220.977722
 21
-164.589325
  0
LINE
  8
0
  6
DASHED
 62
     1
 10
-219.103867
 20
-161.283432
 11
-219.973831
 21
-160.790314
  0
LINE
  8
0
  6
DASHED
 62
     1
 10
-238.219116
 20
-192.979034
 11
-219.973892
 21
-160.790344
  0
LINE
  8
0
  6
DASHED
 62
     1
 10
-209.348694
 20
-166.583054
 11
-219.005310
 21
-161.109497
  0
LINE
  8
0
  6
DASHED
 62
     1
 10
-217.323914
 20
-166.660416
 11
-215.450073
 21
-163.354538
  0
LINE
  8
0
  6
CENTER
 62
     1
 10
-211.645584
 20
-199.995087
 11
-224.528152
 21
-192.692993
  0
LINE
  8
0
  6
DASHED
 62
     1
 10
-222.046204
 20
-194.099854
 11
-217.956955
 21
-192.969299
  0
LINE
  8
0
  6
DASHED
 62
     1
 10
-220.915756
 20
-198.189072
 11
-222.046295
 21
-194.099854
  0
LINE
  8
0
  6
DASHED
 62
     1
 10
-218.986420
 20
-198.592834
 11
-221.141739
 21
-197.371140
  0
LINE
  8
0
  6
DASHED
 62
     1
 10
-216.619461
 20
-194.417007
 11
-218.774796
 21
-193.195297
  0
LINE
  8
0
  6
DASHED
 62
     1
 10
-213.729553
 20
-202.500031
 11
-207.500031
 21
-191.509766
  0
LINE
  8
0
  6
DASHED
 62
     1
 10
-219.282333
 20
-199.114914
 11
-220.915665
 21
-198.189102
  0
LINE
  8
0
  6
DASHED
 62
     1
 10
-216.323624
 20
-193.895081
 11
-217.956985
 21
-192.969254
  0
LINE
  8
0
  6
DASHED
 62
     1
 10
-220.296204
 20
-164.400879
 11
-218.816864
 21
-161.790970
  0
LINE
  8
0
  6
DASHED
 62
     1
 10
-217.686340
 20
-165.880234
 11
-216.207001
 21
-163.270340
  0
LINE
  8
0
  6
DASHED
 62
     1
 10
-216.207001
 20
-163.270325
 11
-218.816895
 21
-161.790985
  0
LINE
  8
0
  6
DASHED
 62
     1
 10
-217.686340
 20
-165.880280
 11
-220.296234
 21
-164.400925
  0
LINE
  8
0
  6
DASHED
 62
     1
 10
-220.296234
 20
-164.400879
 11
-220.977753
 21
-164.589310
  0
LINE
  8
0
  6
DASHED
 62
     1
 10
-218.816910
 20
-161.791046
 11
-219.005325
 21
-161.109512
  0
LINE
  8
0
  6
DASHED
 62
     1
 10
-217.497818
 20
-166.561798
 11
-217.686249
 21
-165.880249
  0
LINE
  8
0
  6
DASHED
 62
     1
 10
-208.300415
 20
-164.533463
 11
-215.262344
 21
-160.587296
  0
LINE
  8
0
  6
DASHED
 62
     1
 10
-216.206955
 20
-163.270340
 11
-215.525436
 21
-163.081909
  0
LINE
  8
0
  6
DASHED
 62
     1
 10
-217.497910
 20
-166.561768
 11
-215.525452
 21
-163.081894
  0
LINE
  8
0
  6
DASHED
 62
     1
 10
-216.482407
 20
-162.539474
 11
-216.186539
 21
-162.017487
  0
LINE
  8
0
  6
DASHED
 62
     1
 10
-209.348724
 20
-166.583054
 11
-209.052856
 21
-166.061066
  0
LINE
  8
0
 10
-158.000000
 20
114.250000
 11
-158.000000
 21
85.750000
  0
LINE
  8
0
  6
CENTER
 62
     2
 10
-162.500000
 20
100.000000
 11
364.500000
 21
100.000000
  0
LINE
  8
0
 10
-157.250000
 20
115.000000
 11
-105.000000
 21
115.000000
  0
LINE
  8
0
 10
-157.250000
 20
85.000000
 11
-105.000000
 21
85.000000
  0
LINE
  8
0
 10
-108.000000
 20
115.000000
 11
-108.000000
 21
85.000000
  0
LINE
  8
0
 10
-105.000000
 20
115.000000
 11
-105.000000
 21
85.000000
  0
LINE
  8
0
 10
-104.999962
 20
85.000023
 11
-103.267845
 21
83.999985
  0
LINE
  8
0
 10
-104.999947
 20
114.999954
 11
-103.267899
 21
115.999954
  0
LINE
  8
0
 10
-92.000000
 20
118.000000
 11
-86.000000
 21
118.000000
  0
LINE
  8
0
 10
-92.000000
 20
82.000000
 11
-86.000000
 21
82.000000
  0
LINE
  8
0
 10
-99.803848
 20
116.000000
 11
-99.803848
 21
84.000000
  0
LINE
  8
0
 10
-86.000000
 20
128.000000
 11
-86.000000
 21
72.000000
  0
LINE
  8
0
 10
-85.000000
 20
129.000000
 11
-85.000000
 21
71.000000
  0
LINE
  8
0
 10
-86.000084
 20
128.000076
 11
-85.000084
 21
129.000076
  0
LINE
  8
0
 10
-85.999916
 20
72.000084
 11
-84.999916
 21
71.000084
  0
LINE
  8
0
 10
-48.000000
 20
172.500000
 11
-48.000000
 21
27.500000
  0
LINE
  8
0
 10
-53.200012
 20
144.000000
 11
-53.200012
 21
56.000000
  0
LINE
  8
0
 10
-52.200012
 20
144.798294
 11
-52.200012
 21
55.000000
  0
LINE
  8
0
 10
-53.199821
 20
143.999878
 11
-52.199928
 21
144.999786
  0
LINE
  8
0
 10
-61.200012
 20
132.216492
 11
-61.200012
 21
120.816498
  0
LINE
  8
0
 10
-61.200012
 20
79.183502
 11
-61.200012
 21
67.783493
  0
LINE
  8
0
 10
-85.000008
 20
128.999893
 11
-61.200024
 21
129.951889
  0
LINE
  8
0
 10
-85.000008
 20
70.999992
 11
-61.200012
 21
70.047997
  0
LINE
  8
0
 10
-60.000000
 20
136.500000
 11
-60.000000
 21
133.016510
  0
LINE
  8
0
 10
-13.000000
 20
172.500000
 11
-13.000000
 21
27.500000
  0
LINE
  8
0
 10
-48.000000
 20
172.500000
 11
-13.000000
 21
172.500000
  0
LINE
  8
0
 10
-48.000000
 20
27.500000
 11
-13.000000
 21
27.500000
  0
LINE
  8
0
  6
CENTER
 62
     2
 10
-79.834427
 20
157.500000
 11
180.200012
 21
157.500000
  0
LINE
  8
0
 10
177.000000
 20
36.499634
 11
177.000000
 21
48.499634
  0
LINE
  8
0
 10
176.000000
 20
35.499634
 11
176.000000
 21
49.499634
  0
LINE
  8
0
 10
176.000000
 20
35.500000
 11
164.500000
 21
35.500000
  0
LINE
  8
0
 10
176.000000
 20
49.500000
 11
164.500000
 21
49.500000
  0
LINE
  8
0
 10
176.999817
 20
36.499741
 11
175.999817
 21
35.499737
  0
LINE
  8
0
 10
176.999435
 20
48.499149
 11
175.999435
 21
49.499153
  0
LINE
  8
0
  6
CENTER
 62
     2
 10
-79.000000
 20
42.500000
 11
183.299988
 21
42.500000
  0
LINE
  8
0
 10
-74.000000
 20
35.500000
 11
-62.500000
 21
35.500000
  0
LINE
  8
0
 10
-74.999977
 20
48.499996
 11
-73.999992
 21
49.499973
  0
LINE
  8
0
 10
-74.999969
 20
36.500027
 11
-73.999969
 21
35.500027
  0
LINE
  8
0
 10
-75.000000
 20
48.500000
 11
-75.000000
 21
36.500000
  0
LINE
  8
0
 10
-74.000000
 20
49.500000
 11
-74.000000
 21
35.500000
  0
LINE
  8
0
 10
-74.000000
 20
49.500000
 11
-62.500000
 21
49.500000
  0
LINE
  8
0
 10
-53.199982
 20
56.000004
 11
-52.200005
 21
55.000042
  0
LINE
  8
0
  6
CENTER
 62
     2
 10
134.000000
 20
115.000000
 11
134.000000
 21
85.000000
  0
LINE
  8
0
 10
-13.000000
 20
164.500000
 11
115.000000
 21
164.500000
  0
LINE
  8
0
 10
-13.000000
 20
35.500000
 11
-6.000000
 21
35.500000
  0
LINE
  8
0
 10
-13.000000
 20
150.500000
 11
115.000000
 21
150.500000
  0
LINE
  8
0
 10
-13.000000
 20
49.500000
 11
115.000000
 21
49.500000
  0
LINE
  8
0
 10
150.000000
 20
172.500000
 11
150.000000
 21
27.500000
  0
LINE
  8
0
 10
115.000000
 20
172.500000
 11
115.000000
 21
27.500000
  0
LINE
  8
0
 10
115.000000
 20
172.500000
 11
150.000000
 21
172.500000
  0
LINE
  8
0
 10
115.000000
 20
27.500000
 11
150.000000
 21
27.500000
  0
LINE
  8
0
 10
-74.999962
 20
151.500015
 11
-73.999969
 21
150.500000
  0
LINE
  8
0
 10
-74.999962
 20
163.499939
 11
-73.999947
 21
164.499924
  0
LINE
  8
0
 10
-74.000000
 20
150.500000
 11
-62.500000
 21
150.500000
  0
LINE
  8
0
 10
-75.000000
 20
163.500000
 11
-75.000000
 21
151.500000
  0
LINE
  8
0
 10
-74.000000
 20
164.500000
 11
-74.000000
 21
150.500000
  0
LINE
  8
0
 10
-74.000000
 20
164.500000
 11
-62.500000
 21
164.500000
  0
LINE
  8
0
 10
176.999680
 20
163.499420
 11
175.999680
 21
164.499420
  0
LINE
  8
0
 10
176.999634
 20
151.499893
 11
175.999664
 21
150.499908
  0
LINE
  8
0
 10
176.000000
 20
164.500000
 11
164.500000
 21
164.500000
  0
LINE
  8
0
 10
177.000000
 20
151.499634
 11
177.000000
 21
163.499634
  0
LINE
  8
0
 10
176.000000
 20
150.499634
 11
176.000000
 21
164.499634
  0
LINE
  8
0
 10
176.000000
 20
150.500000
 11
164.500000
 21
150.500000
  0
LINE
  8
0
 10
-59.000000
 20
137.500000
 11
-53.200012
 21
137.500000
  0
LINE
  8
0
 10
-59.000000
 20
62.500000
 11
-53.200012
 21
62.500000
  0
LINE
  8
0
 10
-60.000000
 20
120.016510
 11
-60.000000
 21
79.983490
  0
LINE
  8
0
 10
-60.000000
 20
66.983490
 11
-60.000000
 21
63.500000
  0
LINE
  8
0
 10
-60.400009
 20
66.983490
 11
-53.200012
 21
66.983490
  0
LINE
  8
0
 10
-60.400009
 20
79.983490
 11
-53.200012
 21
79.983490
  0
LINE
  8
0
 10
-60.400009
 20
133.016510
 11
-53.200012
 21
133.016510
  0
LINE
  8
0
 10
-60.400009
 20
120.016510
 11
-53.200012
 21
120.016510
  0
LINE
  8
0
 10
-61.200096
 20
132.216568
 11
-60.400093
 21
133.016586
  0
LINE
  8
0
 10
-61.200027
 20
120.816505
 11
-60.400028
 21
120.016502
  0
LINE
  8
0
 10
-60.400005
 20
79.983467
 11
-61.200001
 21
79.183472
  0
LINE
  8
0
 10
-61.200035
 20
67.783508
 11
-60.400032
 21
66.983505
  0
LINE
  8
0
 10
-60.400032
 20
133.016510
 11
-60.400032
 21
120.016510
  0
LINE
  8
0
 10
-60.400017
 20
79.983490
 11
-60.400017
 21
66.983490
  0
LINE
  8
0
 10
150.000000
 20
54.500000
 11
153.500000
 21
54.500000
  0
LINE
  8
0
 10
150.000000
 20
30.500000
 11
153.500000
 21
30.500000
  0
LINE
  8
0
 10
-51.500000
 20
54.500000
 11
-48.000000
 21
54.500000
  0
LINE
  8
0
 10
-51.500000
 20
30.500000
 11
-48.000000
 21
30.500000
  0
LINE
  8
0
 10
-51.500000
 20
169.500000
 11
-48.000000
 21
169.500000
  0
LINE
  8
0
 10
-51.500000
 20
145.500000
 11
-48.000000
 21
145.500000
  0
LINE
  8
0
 10
150.000000
 20
169.500000
 11
153.500000
 21
169.500000
  0
LINE
  8
0
 10
150.000000
 20
145.500000
 11
153.500000
 21
145.500000
  0
LINE
  8
0
 10
-52.200012
 20
55.000000
 11
-48.000000
 21
55.000000
  0
LINE
  8
0
 10
-52.200012
 20
145.000000
 11
-48.000000
 21
145.000000
  0
LINE
  8
0
 62
     2
 10
-75.000000
 20
151.899994
 11
-62.500000
 21
151.899994
  0
LINE
  8
0
 62
     2
 10
-75.000000
 20
163.100006
 11
-62.500000
 21
163.100006
  0
LINE
  8
0
 62
     2
 10
164.500000
 20
163.100006
 11
177.000000
 21
163.100006
  0
LINE
  8
0
 62
     2
 10
164.500000
 20
151.899994
 11
177.000000
 21
151.899994
  0
LINE
  8
0
 62
     2
 10
-75.000000
 20
48.100006
 11
-62.500000
 21
48.100006
  0
LINE
  8
0
 62
     2
 10
-75.000000
 20
36.899994
 11
-62.500000
 21
36.899994
  0
LINE
  8
0
 62
     2
 10
177.000000
 20
48.100006
 11
164.500000
 21
48.100006
  0
LINE
  8
0
 62
     2
 10
177.000000
 20
36.899994
 11
164.500000
 21
36.899994
  0
LINE
  8
0
 10
360.000000
 20
114.250000
 11
360.000000
 21
85.750000
  0
LINE
  8
0
 10
154.200012
 20
145.000000
 11
150.000000
 21
145.000000
  0
LINE
  8
0
 10
359.250000
 20
115.000000
 11
307.000000
 21
115.000000
  0
LINE
  8
0
 10
359.250000
 20
85.000000
 11
307.000000
 21
85.000000
  0
LINE
  8
0
 10
310.000000
 20
115.000000
 11
310.000000
 21
85.000000
  0
LINE
  8
0
 10
306.999969
 20
84.999870
 11
305.268127
 21
83.999992
  0
LINE
  8
0
 10
307.000305
 20
115.000572
 11
305.268982
 21
116.000160
  0
LINE
  8
0
 10
188.000000
 20
128.000000
 11
188.000000
 21
72.000000
  0
LINE
  8
0
 10
187.000000
 20
129.000000
 11
187.000000
 21
71.000000
  0
LINE
  8
0
 10
187.999878
 20
127.999893
 11
186.999863
 21
128.999893
  0
LINE
  8
0
 10
187.999619
 20
72.000359
 11
186.999619
 21
71.000359
  0
LINE
  8
0
 10
155.200012
 20
144.000000
 11
155.200012
 21
56.000000
  0
LINE
  8
0
 10
154.200012
 20
145.000000
 11
154.200012
 21
55.000000
  0
LINE
  8
0
 10
155.200134
 20
144.000214
 11
154.200302
 21
145.000076
  0
LINE
  8
0
 10
163.200012
 20
132.216492
 11
163.200012
 21
120.816498
  0
LINE
  8
0
 10
163.200012
 20
79.183502
 11
163.200012
 21
67.783493
  0
LINE
  8
0
 10
187.000046
 20
129.000168
 11
163.200058
 21
129.952164
  0
LINE
  8
0
 10
187.000015
 20
71.000015
 11
163.200027
 21
70.048019
  0
LINE
  8
0
 10
162.000000
 20
136.500000
 11
162.000000
 21
133.016510
  0
LINE
  8
0
 10
155.200500
 20
55.999584
 11
154.200119
 21
54.999226
  0
LINE
  8
0
 10
161.000000
 20
137.500000
 11
155.200012
 21
137.500000
  0
LINE
  8
0
 10
161.000000
 20
62.500000
 11
155.200012
 21
62.500000
  0
LINE
  8
0
 10
162.000000
 20
120.016510
 11
162.000000
 21
79.983490
  0
LINE
  8
0
 10
162.000000
 20
66.983490
 11
162.000000
 21
63.500000
  0
LINE
  8
0
 10
162.400024
 20
66.983490
 11
155.200012
 21
66.983490
  0
LINE
  8
0
 10
162.400024
 20
79.983490
 11
155.200012
 21
79.983490
  0
LINE
  8
0
 10
162.400024
 20
133.016510
 11
155.200012
 21
133.016510
  0
LINE
  8
0
 10
162.400024
 20
120.016510
 11
155.200012
 21
120.016510
  0
LINE
  8
0
 10
163.199509
 20
132.216019
 11
162.399521
 21
133.016022
  0
LINE
  8
0
 10
163.200119
 20
120.816414
 11
162.400131
 21
120.016396
  0
LINE
  8
0
 10
162.399887
 20
79.983353
 11
163.199860
 21
79.183365
  0
LINE
  8
0
 10
163.199951
 20
67.783607
 11
162.399948
 21
66.983597
  0
LINE
  8
0
 10
162.400024
 20
133.016510
 11
162.400024
 21
120.016510
  0
LINE
  8
0
 10
162.400024
 20
79.983490
 11
162.400024
 21
66.983490
  0
LINE
  8
0
 10
154.200012
 20
55.000000
 11
150.000000
 21
55.000000
  0
LINE
  8
0
 10
294.000000
 20
118.000000
 11
188.000000
 21
118.000000
  0
LINE
  8
0
 10
294.000000
 20
82.000000
 11
188.000000
 21
82.000000
  0
LINE
  8
0
 10
-13.000000
 20
32.500000
 11
-6.000000
 21
32.500000
  0
LINE
  8
0
 10
-13.000000
 20
167.500000
 11
115.000000
 21
167.500000
  0
LINE
  8
0
 62
     2
 10
-158.000000
 20
85.750000
 11
-108.000000
 21
85.750000
  0
LINE
  8
0
 62
     2
 10
-158.000000
 20
114.250000
 11
-108.000000
 21
114.250000
  0
LINE
  8
0
 10
-157.999832
 20
114.249863
 11
-157.249832
 21
114.999863
  0
LINE
  8
0
 10
-157.250000
 20
115.000000
 11
-157.250000
 21
85.000000
  0
LINE
  8
0
 10
-158.000183
 20
85.749870
 11
-157.250198
 21
84.999886
  0
LINE
  8
0
 62
     2
 10
-108.000031
 20
114.250053
 11
-106.700989
 21
115.000053
  0
LINE
  8
0
 62
     2
 10
-108.000031
 20
85.749985
 11
-106.700989
 21
84.999985
  0
LINE
  8
0
 10
359.250000
 20
115.000000
 11
359.250000
 21
85.000000
  0
LINE
  8
0
 10
360.000427
 20
85.749626
 11
359.250458
 21
84.999664
  0
LINE
  8
0
 62
     2
 10
310.000031
 20
85.749985
 11
308.700989
 21
84.999992
  0
LINE
  8
0
 62
     2
 10
310.000061
 20
114.250183
 11
308.701050
 21
115.000160
  0
LINE
  8
0
 62
     2
 10
360.000000
 20
85.750000
 11
310.000000
 21
85.750000
  0
LINE
  8
0
 62
     2
 10
360.000000
 20
114.250000
 11
310.000000
 21
114.250000
  0
LINE
  8
0
 10
360.000214
 20
114.250198
 11
359.250183
 21
115.000191
  0
LINE
  8
0
 10
-103.267845
 20
84.000000
 11
-93.000000
 21
84.000000
  0
LINE
  8
0
 10
-103.267921
 20
116.000000
 11
-93.000000
 21
116.000000
  0
LINE
  8
0
 10
-92.999992
 20
116.000000
 11
-91.999992
 21
118.000000
  0
LINE
  8
0
 10
-92.999985
 20
84.000008
 11
-91.999985
 21
82.000008
  0
LINE
  8
0
 10
-62.500000
 20
168.500000
 11
-51.500000
 21
168.500000
  0
LINE
  8
0
 10
-61.517517
 20
157.500000
 11
-51.500000
 21
157.500000
  0
LINE
  8
0
 10
-62.500000
 20
168.500000
 11
-62.500000
 21
146.500000
  0
LINE
  8
0
 10
-62.500000
 20
146.500000
 11
-51.500000
 21
146.500000
  0
LINE
  8
0
 10
-51.500000
 20
169.500000
 11
-51.500000
 21
145.500000
  0
LINE
  8
0
 10
-62.500000
 20
31.500000
 11
-51.500000
 21
31.500000
  0
LINE
  8
0
 10
-61.517517
 20
42.500000
 11
-51.500000
 21
42.500000
  0
LINE
  8
0
 10
-62.500000
 20
31.500000
 11
-62.500000
 21
53.500000
  0
LINE
  8
0
 10
-62.500000
 20
53.500000
 11
-51.500000
 21
53.500000
  0
LINE
  8
0
 10
-51.500000
 20
30.500000
 11
-51.500000
 21
54.500000
  0
LINE
  8
0
 10
164.500000
 20
168.500000
 11
153.500000
 21
168.500000
  0
LINE
  8
0
 10
163.517517
 20
157.500000
 11
153.500000
 21
157.500000
  0
LINE
  8
0
 10
164.500000
 20
168.500000
 11
164.500000
 21
146.500000
  0
LINE
  8
0
 10
164.500000
 20
146.500000
 11
153.500000
 21
146.500000
  0
LINE
  8
0
 10
153.500000
 20
169.500000
 11
153.500000
 21
145.500000
  0
LINE
  8
0
 10
164.500000
 20
31.500000
 11
153.500000
 21
31.500000
  0
LINE
  8
0
 10
163.517517
 20
42.500000
 11
153.500000
 21
42.500000
  0
LINE
  8
0
 10
164.500000
 20
31.500000
 11
164.500000
 21
53.500000
  0
LINE
  8
0
 10
164.500000
 20
53.500000
 11
153.500000
 21
53.500000
  0
LINE
  8
0
 10
153.500000
 20
30.500000
 11
153.500000
 21
54.500000
  0
LINE
  8
0
 10
305.267914
 20
116.000000
 11
295.000000
 21
116.000000
  0
LINE
  8
0
 10
306.999847
 20
114.999878
 11
305.267822
 21
115.999870
  0
LINE
  8
0
 10
306.999969
 20
85.000031
 11
305.267853
 21
83.999985
  0
LINE
  8
0
 10
305.267853
 20
84.000000
 11
295.000000
 21
84.000000
  0
LINE
  8
0
 10
294.999969
 20
116.000000
 11
293.999969
 21
118.000008
  0
LINE
  8
0
 10
294.999939
 20
84.000031
 11
293.999939
 21
82.000023
  0
LINE
  8
0
 10
301.803833
 20
116.000000
 11
301.803833
 21
84.000000
  0
LINE
  8
0
 10
307.000000
 20
115.000000
 11
307.000000
 21
85.000000
  0
LINE
  8
0
 10
22.000000
 20
35.500000
 11
115.000000
 21
35.500000
  0
LINE
  8
0
 10
22.000000
 20
32.500000
 11
115.000000
 21
32.500000
  0
LINE
  8
0
 62
     4
 10
22.000000
 20
58.219109
 11
-6.000000
 21
58.219109
  0
LINE
  8
0
 62
     4
 10
22.000000
 20
41.254780
 11
-6.000000
 21
41.254780
  0
LINE
  8
0
 62
     4
 10
22.000000
 20
35.600067
 11
-6.000000
 21
35.600067
  0
LINE
  8
0
 62
     4
 10
22.000000
 20
23.272202
 11
-6.000000
 21
23.272202
  0
LINE
  8
0
 62
     4
 10
-6.000000
 20
23.272202
 11
-6.000000
 21
41.254780
  0
LINE
  8
0
 62
     4
 10
22.000000
 20
23.272202
 11
22.000000
 21
41.254780
  0
LINE
  8
0
 62
     4
 10
-6.000000
 20
49.500000
 11
-6.000000
 21
58.219109
  0
LINE
  8
0
 62
     4
 10
22.000000
 20
49.500000
 11
22.000000
 21
58.219109
  0
LINE
  8
0
 62
     4
 10
15.865997
 20
32.908035
 11
14.134003
 21
32.908035
  0
LINE
  8
0
 62
     4
 10
15.865997
 20
31.388550
 11
14.134003
 21
31.388550
  0
LINE
  8
0
 62
     4
 10
13.267950
 20
32.148300
 11
14.134001
 21
32.908035
  0
LINE
  8
0
 62
     4
 10
13.267921
 20
32.148270
 11
14.133972
 21
31.388519
  0
LINE
  8
0
 62
     4
 10
15.866003
 20
32.908051
 11
16.732056
 21
32.148315
  0
LINE
  8
0
 62
     4
 10
16.732054
 20
32.148285
 11
15.866003
 21
31.388535
  0
LINE
  8
0
 62
     4
 10
1.865997
 20
32.908035
 11
0.134003
 21
32.908035
  0
LINE
  8
0
 62
     4
 10
1.865997
 20
31.388550
 11
0.134003
 21
31.388550
  0
LINE
  8
0
 62
     4
 10
-0.732057
 20
32.148308
 11
0.133995
 21
32.908047
  0
LINE
  8
0
 62
     4
 10
-0.732072
 20
32.148273
 11
0.133978
 21
31.388525
  0
LINE
  8
0
 62
     4
 10
1.865999
 20
32.908043
 11
2.732052
 21
32.148308
  0
LINE
  8
0
 62
     4
 10
2.732065
 20
32.148277
 11
1.866015
 21
31.388529
  0
LINE
  8
0
 62
     4
 10
108.000000
 20
23.272141
 11
80.000000
 21
23.272141
  0
LINE
  8
0
 62
     4
 10
108.000000
 20
32.500000
 11
108.000000
 21
23.272141
  0
LINE
  8
0
 62
     4
 10
80.000000
 20
32.500000
 11
80.000000
 21
23.272141
  0
LINE
  8
0
 62
     4
 10
92.181358
 20
30.295391
 11
95.818665
 21
32.395390
  0
LINE
  8
0
 62
     4
 10
92.181351
 20
32.395409
 11
95.818657
 21
30.295412
  0
LINE
  8
0
 62
     4
 10
90.000000
 20
31.750504
 11
90.000000
 21
32.500000
  0
LINE
  8
0
 62
     4
 10
98.000000
 20
31.750504
 11
98.000000
 21
32.500000
  0
LINE
  8
0
  6
CENTER
 62
     2
 10
-32.000000
 20
115.000000
 11
-32.000000
 21
85.000000
  0
LINE
  8
0
 62
     4
 10
-6.000000
 20
54.304321
 11
22.000000
 21
54.304321
  0
LINE
  8
0
 62
     4
 10
80.000000
 20
27.794373
 11
108.000000
 21
27.794373
  0
ARC
  8
0
 10
-91.720901
 20
-130.000000
 40
11.547039
 50
134.427200
 51
225.572784
  0
ARC
  8
0
 10
-59.000000
 20
-93.500000
 40
1.000000
 50
90.000000
 51
180.000000
  0
ARC
  8
0
 10
-59.000000
 20
-166.500000
 40
1.000000
 50
180.000000
 51
270.000000
  0
CIRCLE
  8
0
 10
-32.000000
 20
-130.000000
 40
7.950000
  0
CIRCLE
  8
0
  6
DASHED
 62
     2
 10
134.000000
 20
-130.000000
 40
7.950000
  0
CIRCLE
  8
0
 10
-32.000000
 20
-130.000000
 40
5.150000
  0
CIRCLE
  8
0
  6
DASHED
 62
     2
 10
134.000000
 20
-130.000000
 40
5.150000
  0
ARC
  8
0
 10
161.000000
 20
-93.500000
 40
1.000000
 50
0.000000
 51
90.000000
  0
ARC
  8
0
 10
161.000000
 20
-166.500000
 40
1.000000
 50
270.000000
 51
0.000000
  0
ARC
  8
0
 10
293.720886
 20
-130.000000
 40
11.547039
 50
314.427155
 51
45.572807
  0
ARC
  8
0
 10
-310.720642
 20
-110.289764
 40
0.999999
 50
58.297192
 51
147.315308
  0
CIRCLE
  8
0
 10
-280.000000
 20
-130.000000
 40
15.000000
  0
CIRCLE
  8
0
 10
-280.000000
 20
-130.000000
 40
18.000000
  0
CIRCLE
  8
0
 10
-280.000000
 20
-130.000000
 40
30.000000
  0
ARC
  8
0
 10
-280.000000
 20
-130.000000
 40
37.500000
 50
0.000000
 51
32.684067
  0
ARC
  8
0
 10
-306.516510
 20
-156.516510
 40
7.000000
 50
0.000000
 51
121.703087
  0
ARC
  8
0
 10
-306.516510
 20
-103.483498
 40
7.000000
 50
0.000000
 51
31.702795
  0
ARC
  8
0
 10
-253.483490
 20
-103.483498
 40
7.000012
 50
148.297150
 51
301.702911
  0
ARC
  8
0
 10
-280.000000
 20
-130.000000
 40
37.499996
 50
57.315914
 51
122.684090
  0
ARC
  8
0
 10
-260.289764
 20
-99.279381
 40
1.000012
 50
328.297638
 51
57.315781
  0
ARC
  8
0
 10
-249.279358
 20
-110.289764
 40
1.000000
 50
32.684219
 51
121.702805
  0
ARC
  8
0
 10
-280.000000
 20
-130.000000
 40
37.499996
 50
327.315948
 51
0.000000
  0
ARC
  8
0
 10
-253.483490
 20
-156.516510
 40
7.000000
 50
58.297085
 51
211.702850
  0
ARC
  8
0
 10
-249.279358
 20
-149.710236
 40
0.999999
 50
238.297195
 51
327.315765
  0
ARC
  8
0
 10
-260.289764
 20
-160.720627
 40
1.000000
 50
302.684235
 51
31.703268
  0
ARC
  8
0
 10
-280.000000
 20
-130.000000
 40
37.499992
 50
237.315903
 51
302.684082
  0
ARC
  8
0
 10
-306.516510
 20
-156.516510
 40
6.999986
 50
328.297028
 51
0.000000
  0
ARC
  8
0
 10
-299.710236
 20
-160.720627
 40
1.000012
 50
148.297653
 51
237.315781
  0
ARC
  8
0
 10
-310.720642
 20
-149.710236
 40
1.000013
 50
212.683746
 51
301.702820
  0
ARC
  8
0
 10
-280.000000
 20
-130.000000
 40
37.499996
 50
147.315948
 51
212.684021
  0
ARC
  8
0
 10
-306.516510
 20
-103.483498
 40
7.000001
 50
238.296951
 51
0.000000
  0
ARC
  8
0
 10
-299.710236
 20
-99.279381
 40
1.000000
 50
122.684219
 51
211.703644
  0
CIRCLE
  8
0
 10
-280.000000
 20
-130.000000
 40
45.000000
  0
CIRCLE
  8
0
 10
-337.500000
 20
-187.500000
 40
7.000000
  0
CIRCLE
  8
0
 10
-306.516510
 20
-156.516510
 40
6.500000
  0
CIRCLE
  8
0
 10
-253.483490
 20
-156.516510
 40
6.500000
  0
CIRCLE
  8
0
 10
-253.483490
 20
-103.483498
 40
6.500000
  0
CIRCLE
  8
0
 10
-306.516510
 20
-103.483498
 40
6.500000
  0
CIRCLE
  8
0
 10
-337.500000
 20
-187.500000
 40
10.500000
  0
CIRCLE
  8
0
 10
-222.500000
 20
-187.500000
 40
7.000000
  0
CIRCLE
  8
0
 10
-222.500000
 20
-187.500000
 40
10.500000
  0
CIRCLE
  8
0
 10
-222.500000
 20
-72.500000
 40
7.000000
  0
CIRCLE
  8
0
 10
-222.500000
 20
-72.500000
 40
10.500000
  0
CIRCLE
  8
0
 10
-337.500000
 20
-72.500000
 40
7.000000
  0
CIRCLE
  8
0
 10
-337.500000
 20
-72.500000
 40
10.500000
  0
CIRCLE
  8
0
 62
     2
 10
-222.500000
 20
-72.500000
 40
5.600000
  0
CIRCLE
  8
0
 62
     2
 10
-337.500000
 20
-72.500000
 40
5.600000
  0
CIRCLE
  8
0
 62
     2
 10
-222.500000
 20
-187.500000
 40
5.600000
  0
CIRCLE
  8
0
 62
     2
 10
-337.500000
 20
-187.500000
 40
5.600000
  0
CIRCLE
  8
0
 62
     2
 10
-280.000000
 20
-130.000000
 40
14.250000
  0
ARC
  8
0
  6
DASHED
 62
     1
 10
-216.518387
 20
-89.082474
 40
10.406343
 50
276.932556
 51
299.545471
  0
ARC
  8
0
  6
DASHED
 62
     1
 10
-216.518387
 20
-89.082474
 40
10.406346
 50
299.545471
 51
322.158325
  0
ARC
  8
0
  6
DASHED
 62
     1
 10
-216.518387
 20
-170.917526
 40
10.406343
 50
37.841633
 51
60.454441
  0
ARC
  8
0
  6
DASHED
 62
     1
 10
-216.518387
 20
-170.917526
 40
10.406340
 50
60.454514
 51
83.067345
  0
CIRCLE
  8
0
  6
DASHED
 62
     1
 10
-218.251602
 20
-163.835617
 40
1.500000
  0
ARC
  8
0
 10
-59.000000
 20
136.500000
 40
1.000000
 50
90.000000
 51
180.000000
  0
ARC
  8
0
 10
-59.000000
 20
63.500000
 40
1.000000
 50
180.000000
 51
270.000000
  0
ARC
  8
0
 10
161.000000
 20
136.500000
 40
1.000000
 50
0.000000
 51
90.000000
  0
ARC
  8
0
 10
161.000000
 20
63.500000
 40
1.000000
 50
270.000000
 51
0.000000
  0
ARC
  8
0
 10
-46.614052
 20
163.000000
 40
15.885949
 50
159.743835
 51
200.256104
  0
ARC
  8
0
 10
-46.614052
 20
152.000000
 40
15.885951
 50
159.743790
 51
200.256042
  0
ARC
  8
0
 10
-46.614052
 20
48.000000
 40
15.885947
 50
159.743866
 51
200.256119
  0
ARC
  8
0
 10
-46.614052
 20
37.000000
 40
15.885948
 50
159.743805
 51
200.256058
  0
ARC
  8
0
 10
148.614044
 20
152.000000
 40
15.885948
 50
339.743896
 51
20.256153
  0
ARC
  8
0
 10
148.614044
 20
163.000000
 40
15.885953
 50
339.743835
 51
20.256102
  0
ARC
  8
0
 10
148.614044
 20
48.000000
 40
15.885953
 50
339.743835
 51
20.256102
  0
ARC
  8
0
 10
148.614044
 20
37.000000
 40
15.885948
 50
339.743896
 51
20.256153
  0
CIRCLE
  8
0
 62
     2
 10
134.000000
 20
100.000000
 40
10.477500
  0
CIRCLE
  8
0
 10
134.000000
 20
100.000000
 40
9.315500
  0
CIRCLE
  8
0
 62
     2
 10
-32.000000
 20
100.000000
 40
10.477500
  0
CIRCLE
  8
0
 10
-32.000000
 20
100.000000
 40
9.315500
  0
POLYLINE
  8
0
 66
     1
  0
VERTEX
  8
0
 10
-93.000000
 20
-121.753784
  0
VERTEX
  8
0
 10
-92.793823
 20
-122.653831
  0
VERTEX
  8
0
 10
-92.610596
 20
-123.559601
  0
VERTEX
  8
0
 10
-92.450684
 20
-124.470367
  0
VERTEX
  8
0
 10
-92.314415
 20
-125.385422
  0
VERTEX
  8
0
 10
-92.202148
 20
-126.304054
  0
VERTEX
  8
0
 10
-92.114227
 20
-127.225540
  0
VERTEX
  8
0
 10
-92.051003
 20
-128.149170
  0
VERTEX
  8
0
 10
-92.012810
 20
-129.074234
  0
VERTEX
  8
0
 10
-92.000000
 20
-130.000000
  0
VERTEX
  8
0
 10
-92.012810
 20
-130.925766
  0
VERTEX
  8
0
 10
-92.051003
 20
-131.850830
  0
VERTEX
  8
0
 10
-92.114227
 20
-132.774460
  0
VERTEX
  8
0
 10
-92.202148
 20
-133.695953
  0
VERTEX
  8
0
 10
-92.314415
 20
-134.614578
  0
VERTEX
  8
0
 10
-92.450684
 20
-135.529633
  0
VERTEX
  8
0
 10
-92.610596
 20
-136.440399
  0
VERTEX
  8
0
 10
-92.793823
 20
-137.346161
  0
VERTEX
  8
0
 10
-93.000000
 20
-138.246216
  0
SEQEND
  0
POLYLINE
  8
0
 66
     1
  0
VERTEX
  8
0
 10
163.517517
 20
-200.201721
  0
VERTEX
  8
0
 10
163.916992
 20
-199.465103
  0
VERTEX
  8
0
 10
164.227386
 20
-198.679413
  0
VERTEX
  8
0
 10
164.428482
 20
-197.861023
  0
VERTEX
  8
0
 10
164.500000
 20
-197.026276
  0
VERTEX
  8
0
 10
164.428482
 20
-196.191528
  0
VERTEX
  8
0
 10
164.227386
 20
-195.373138
  0
VERTEX
  8
0
 10
163.916992
 20
-194.587463
  0
VERTEX
  8
0
 10
163.517517
 20
-193.850845
  0
SEQEND
  0
POLYLINE
  8
0
 66
     1
  0
VERTEX
  8
0
 10
163.517517
 20
-193.850845
  0
VERTEX
  8
0
 10
163.771301
 20
-192.967636
  0
VERTEX
  8
0
 10
163.989182
 20
-192.073334
  0
VERTEX
  8
0
 10
164.170029
 20
-191.169769
  0
VERTEX
  8
0
 10
164.312668
 20
-190.258804
  0
VERTEX
  8
0
 10
164.415985
 20
-189.342285
  0
VERTEX
  8
0
 10
164.478806
 20
-188.422073
  0
VERTEX
  8
0
 10
164.500000
 20
-187.500000
  0
VERTEX
  8
0
 10
164.478806
 20
-186.577927
  0
VERTEX
  8
0
 10
164.415985
 20
-185.657715
  0
VERTEX
  8
0
 10
164.312668
 20
-184.741196
  0
VERTEX
  8
0
 10
164.170029
 20
-183.830215
  0
VERTEX
  8
0
 10
163.989197
 20
-182.926651
  0
VERTEX
  8
0
 10
163.771301
 20
-182.032349
  0
VERTEX
  8
0
 10
163.517517
 20
-181.149139
  0
SEQEND
  0
POLYLINE
  8
0
 66
     1
  0
VERTEX
  8
0
 10
163.517517
 20
-181.149139
  0
VERTEX
  8
0
 10
163.916992
 20
-180.412521
  0
VERTEX
  8
0
 10
164.227386
 20
-179.626846
  0
VERTEX
  8
0
 10
164.428482
 20
-178.808456
  0
VERTEX
  8
0
 10
164.500000
 20
-177.973724
  0
VERTEX
  8
0
 10
164.428482
 20
-177.138977
  0
VERTEX
  8
0
 10
164.227386
 20
-176.320587
  0
VERTEX
  8
0
 10
163.916992
 20
-175.534912
  0
VERTEX
  8
0
 10
163.517517
 20
-174.798294
  0
SEQEND
  0
POLYLINE
  8
0
 66
     1
  0
VERTEX
  8
0
 10
-61.517517
 20
-174.798294
  0
VERTEX
  8
0
 10
-61.916992
 20
-175.534912
  0
VERTEX
  8
0
 10
-62.227394
 20
-176.320587
  0
VERTEX
  8
0
 10
-62.428474
 20
-177.138977
  0
VERTEX
  8
0
 10
-62.500000
 20
-177.973724
  0
VERTEX
  8
0
 10
-62.428474
 20
-178.808472
  0
VERTEX
  8
0
 10
-62.227394
 20
-179.626862
  0
VERTEX
  8
0
 10
-61.916992
 20
-180.412537
  0
VERTEX
  8
0
 10
-61.517517
 20
-181.149155
  0
SEQEND
  0
POLYLINE
  8
0
 66
     1
  0
VERTEX
  8
0
 10
-61.517517
 20
-193.850861
  0
VERTEX
  8
0
 10
-61.916992
 20
-194.587479
  0
VERTEX
  8
0
 10
-62.227394
 20
-195.373154
  0
VERTEX
  8
0
 10
-62.428474
 20
-196.191544
  0
VERTEX
  8
0
 10
-62.500000
 20
-197.026276
  0
VERTEX
  8
0
 10
-62.428474
 20
-197.861023
  0
VERTEX
  8
0
 10
-62.227394
 20
-198.679413
  0
VERTEX
  8
0
 10
-61.916992
 20
-199.465088
  0
VERTEX
  8
0
 10
-61.517517
 20
-200.201706
  0
SEQEND
  0
POLYLINE
  8
0
 66
     1
  0
VERTEX
  8
0
 10
-61.517517
 20
-181.149155
  0
VERTEX
  8
0
 10
-61.771305
 20
-182.032364
  0
VERTEX
  8
0
 10
-61.989189
 20
-182.926666
  0
VERTEX
  8
0
 10
-62.170025
 20
-183.830231
  0
VERTEX
  8
0
 10
-62.312672
 20
-184.741196
  0
VERTEX
  8
0
 10
-62.415977
 20
-185.657715
  0
VERTEX
  8
0
 10
-62.478806
 20
-186.577927
  0
VERTEX
  8
0
 10
-62.500000
 20
-187.500000
  0
VERTEX
  8
0
 10
-62.478806
 20
-188.422073
  0
VERTEX
  8
0
 10
-62.415981
 20
-189.342285
  0
VERTEX
  8
0
 10
-62.312672
 20
-190.258804
  0
VERTEX
  8
0
 10
-62.170029
 20
-191.169785
  0
VERTEX
  8
0
 10
-61.989189
 20
-192.073349
  0
VERTEX
  8
0
 10
-61.771305
 20
-192.967651
  0
VERTEX
  8
0
 10
-61.517517
 20
-193.850861
  0
SEQEND
  0
POLYLINE
  8
0
 66
     1
  0
VERTEX
  8
0
 10
-61.517517
 20
-59.798294
  0
VERTEX
  8
0
 10
-61.916992
 20
-60.534912
  0
VERTEX
  8
0
 10
-62.227394
 20
-61.320595
  0
VERTEX
  8
0
 10
-62.428474
 20
-62.138981
  0
VERTEX
  8
0
 10
-62.500000
 20
-62.973724
  0
VERTEX
  8
0
 10
-62.428474
 20
-63.808468
  0
VERTEX
  8
0
 10
-62.227394
 20
-64.626854
  0
VERTEX
  8
0
 10
-61.916992
 20
-65.412537
  0
VERTEX
  8
0
 10
-61.517517
 20
-66.149155
  0
SEQEND
  0
POLYLINE
  8
0
 66
     1
  0
VERTEX
  8
0
 10
-61.517517
 20
-66.149155
  0
VERTEX
  8
0
 10
-61.771305
 20
-67.032356
  0
VERTEX
  8
0
 10
-61.989189
 20
-67.926666
  0
VERTEX
  8
0
 10
-62.170025
 20
-68.830231
  0
VERTEX
  8
0
 10
-62.312672
 20
-69.741196
  0
VERTEX
  8
0
 10
-62.415977
 20
-70.657715
  0
VERTEX
  8
0
 10
-62.478806
 20
-71.577927
  0
VERTEX
  8
0
 10
-62.500000
 20
-72.500000
  0
VERTEX
  8
0
 10
-62.478806
 20
-73.422073
  0
VERTEX
  8
0
 10
-62.415981
 20
-74.342293
  0
VERTEX
  8
0
 10
-62.312672
 20
-75.258812
  0
VERTEX
  8
0
 10
-62.170029
 20
-76.169777
  0
VERTEX
  8
0
 10
-61.989189
 20
-77.073341
  0
VERTEX
  8
0
 10
-61.771305
 20
-77.967651
  0
VERTEX
  8
0
 10
-61.517517
 20
-78.850861
  0
SEQEND
  0
POLYLINE
  8
0
 66
     1
  0
VERTEX
  8
0
 10
-61.517517
 20
-78.850861
  0
VERTEX
  8
0
 10
-61.916992
 20
-79.587479
  0
VERTEX
  8
0
 10
-62.227394
 20
-80.373154
  0
VERTEX
  8
0
 10
-62.428474
 20
-81.191544
  0
VERTEX
  8
0
 10
-62.500000
 20
-82.026283
  0
VERTEX
  8
0
 10
-62.428474
 20
-82.861023
  0
VERTEX
  8
0
 10
-62.227394
 20
-83.679413
  0
VERTEX
  8
0
 10
-61.916992
 20
-84.465088
  0
VERTEX
  8
0
 10
-61.517517
 20
-85.201706
  0
SEQEND
  0
POLYLINE
  8
0
 66
     1
  0
VERTEX
  8
0
 10
163.517517
 20
-85.201714
  0
VERTEX
  8
0
 10
163.916992
 20
-84.465096
  0
VERTEX
  8
0
 10
164.227386
 20
-83.679413
  0
VERTEX
  8
0
 10
164.428482
 20
-82.861023
  0
VERTEX
  8
0
 10
164.500000
 20
-82.026283
  0
VERTEX
  8
0
 10
164.428482
 20
-81.191544
  0
VERTEX
  8
0
 10
164.227386
 20
-80.373146
  0
VERTEX
  8
0
 10
163.916992
 20
-79.587463
  0
VERTEX
  8
0
 10
163.517517
 20
-78.850845
  0
SEQEND
  0
POLYLINE
  8
0
 66
     1
  0
VERTEX
  8
0
 10
163.517517
 20
-78.850845
  0
VERTEX
  8
0
 10
163.771301
 20
-77.967644
  0
VERTEX
  8
0
 10
163.989182
 20
-77.073334
  0
VERTEX
  8
0
 10
164.170029
 20
-76.169769
  0
VERTEX
  8
0
 10
164.312668
 20
-75.258804
  0
VERTEX
  8
0
 10
164.415985
 20
-74.342285
  0
VERTEX
  8
0
 10
164.478806
 20
-73.422073
  0
VERTEX
  8
0
 10
164.500000
 20
-72.500000
  0
VERTEX
  8
0
 10
164.478806
 20
-71.577927
  0
VERTEX
  8
0
 10
164.415985
 20
-70.657707
  0
VERTEX
  8
0
 10
164.312668
 20
-69.741188
  0
VERTEX
  8
0
 10
164.170029
 20
-68.830223
  0
VERTEX
  8
0
 10
163.989197
 20
-67.926659
  0
VERTEX
  8
0
 10
163.771301
 20
-67.032349
  0
VERTEX
  8
0
 10
163.517517
 20
-66.149139
  0
SEQEND
  0
POLYLINE
  8
0
 66
     1
  0
VERTEX
  8
0
 10
163.517517
 20
-66.149139
  0
VERTEX
  8
0
 10
163.916992
 20
-65.412521
  0
VERTEX
  8
0
 10
164.227386
 20
-64.626846
  0
VERTEX
  8
0
 10
164.428482
 20
-63.808464
  0
VERTEX
  8
0
 10
164.500000
 20
-62.973724
  0
VERTEX
  8
0
 10
164.428482
 20
-62.138985
  0
VERTEX
  8
0
 10
164.227386
 20
-61.320595
  0
VERTEX
  8
0
 10
163.916992
 20
-60.534912
  0
VERTEX
  8
0
 10
163.517517
 20
-59.798294
  0
SEQEND
  0
POLYLINE
  8
0
 66
     1
  0
VERTEX
  8
0
 10
295.000000
 20
-121.753784
  0
VERTEX
  8
0
 10
294.793823
 20
-122.653831
  0
VERTEX
  8
0
 10
294.610596
 20
-123.559601
  0
VERTEX
  8
0
 10
294.450684
 20
-124.470367
  0
VERTEX
  8
0
 10
294.314423
 20
-125.385422
  0
VERTEX
  8
0
 10
294.202148
 20
-126.304054
  0
VERTEX
  8
0
 10
294.114227
 20
-127.225540
  0
VERTEX
  8
0
 10
294.050995
 20
-128.149170
  0
VERTEX
  8
0
 10
294.012817
 20
-129.074234
  0
VERTEX
  8
0
 10
294.000000
 20
-130.000000
  0
VERTEX
  8
0
 10
294.012817
 20
-130.925766
  0
VERTEX
  8
0
 10
294.050995
 20
-131.850830
  0
VERTEX
  8
0
 10
294.114227
 20
-132.774460
  0
VERTEX
  8
0
 10
294.202148
 20
-133.695953
  0
VERTEX
  8
0
 10
294.314423
 20
-134.614578
  0
VERTEX
  8
0
 10
294.450684
 20
-135.529633
  0
VERTEX
  8
0
 10
294.610596
 20
-136.440399
  0
VERTEX
  8
0
 10
294.793823
 20
-137.346161
  0
VERTEX
  8
0
 10
295.000000
 20
-138.246216
  0
SEQEND
  0
ARC
  8
0
 62
     4
 10
11.209164
 20
-97.442719
 40
0.940831
 50
338.905273
 51
21.094728
  0
ARC
  8
0
 62
     4
 10
10.357370
 20
-97.912636
 40
1.909230
 50
25.054890
 51
64.507729
  0
ARC
  8
0
 62
     4
 10
8.000000
 20
-103.095566
 40
7.602846
 50
65.282562
 51
114.717430
  0
ARC
  8
0
 62
     4
 10
5.642630
 20
-97.912636
 40
1.909226
 50
115.492256
 51
154.945114
  0
ARC
  8
0
 62
     4
 10
4.790836
 20
-97.442719
 40
0.940831
 50
158.905289
 51
201.094711
  0
ARC
  8
0
 62
     4
 10
5.642630
 20
-96.972801
 40
1.909230
 50
205.054886
 51
244.507751
  0
ARC
  8
0
 62
     4
 10
8.000000
 20
-91.789871
 40
7.602846
 50
245.282562
 51
294.717438
  0
ARC
  8
0
 62
     4
 10
10.357370
 20
-96.972801
 40
1.909226
 50
295.492279
 51
334.945099
  0
ARC
  8
0
 62
     4
 10
11.209164
 20
-95.963112
 40
0.940831
 50
0.000000
 51
21.094728
  0
ARC
  8
0
 62
     4
 10
10.357370
 20
-96.433029
 40
1.909230
 50
25.054890
 51
64.507729
  0
ARC
  8
0
 62
     4
 10
8.000000
 20
-101.615967
 40
7.602853
 50
65.282585
 51
114.717407
  0
ARC
  8
0
 62
     4
 10
5.642630
 20
-96.433029
 40
1.909226
 50
115.492256
 51
154.945114
  0
ARC
  8
0
 62
     4
 10
4.790836
 20
-95.963112
 40
0.940831
 50
158.905289
 51
180.000000
  0
ARC
  8
0
 62
     4
 10
15.740994
 20
-60.878578
 40
2.259006
 50
348.471222
 51
11.528766
  0
ARC
  8
0
 62
     4
 10
15.544314
 20
-60.937405
 40
2.463543
 50
11.955105
 51
44.609520
  0
ARC
  8
0
 62
     4
 10
15.000000
 20
-61.586239
 40
3.307663
 50
45.989445
 51
134.010559
  0
ARC
  8
0
 62
     4
 10
14.455686
 20
-60.937405
 40
2.463543
 50
135.390472
 51
168.044891
  0
ARC
  8
0
 62
     4
 10
14.259006
 20
-60.878578
 40
2.259006
 50
168.471237
 51
191.528763
  0
ARC
  8
0
 62
     4
 10
14.455686
 20
-60.819752
 40
2.463543
 50
191.955109
 51
224.609528
  0
ARC
  8
0
 62
     4
 10
15.000000
 20
-60.170918
 40
3.307663
 50
225.989441
 51
314.010559
  0
ARC
  8
0
 62
     4
 10
15.544314
 20
-60.819752
 40
2.463543
 50
315.390472
 51
348.044891
  0
ARC
  8
0
 62
     4
 10
15.730409
 20
-60.878578
 40
1.769591
 50
348.107788
 51
11.892226
  0
ARC
  8
0
 62
     4
 10
15.536539
 20
-60.938408
 40
1.971717
 50
12.432572
 51
45.639267
  0
ARC
  8
0
 62
     4
 10
15.000000
 20
-61.598274
 40
2.819696
 50
47.219566
 51
132.780426
  0
ARC
  8
0
 62
     4
 10
14.463461
 20
-60.938408
 40
1.971717
 50
134.360733
 51
167.567429
  0
ARC
  8
0
 62
     4
 10
14.269591
 20
-60.878578
 40
1.769591
 50
168.107773
 51
191.892227
  0
ARC
  8
0
 62
     4
 10
14.463461
 20
-60.818748
 40
1.971717
 50
192.432571
 51
225.639267
  0
ARC
  8
0
 62
     4
 10
15.000000
 20
-60.158882
 40
2.819696
 50
227.219574
 51
312.780426
  0
ARC
  8
0
 62
     4
 10
15.536539
 20
-60.818748
 40
1.971717
 50
314.360718
 51
347.567413
  0
ARC
  8
0
 62
     4
 10
90.790833
 20
-162.557281
 40
0.940828
 50
158.904709
 51
201.094421
  0
ARC
  8
0
 62
     4
 10
91.642632
 20
-162.087357
 40
1.909230
 50
205.054886
 51
244.507889
  0
ARC
  8
0
 62
     4
 10
94.000000
 20
-156.904434
 40
7.602844
 50
245.282593
 51
294.717407
  0
ARC
  8
0
 62
     4
 10
96.357368
 20
-162.087357
 40
1.909232
 50
295.492126
 51
334.944702
  0
ARC
  8
0
 62
     4
 10
97.209167
 20
-162.557281
 40
0.940828
 50
338.904724
 51
21.094419
  0
ARC
  8
0
 62
     4
 10
96.357368
 20
-163.027206
 40
1.909230
 50
25.054890
 51
64.507881
  0
ARC
  8
0
 62
     4
 10
94.000000
 20
-168.210129
 40
7.602844
 50
65.282585
 51
114.717415
  0
ARC
  8
0
 62
     4
 10
91.642632
 20
-163.027206
 40
1.909232
 50
115.492119
 51
154.944702
  0
ARC
  8
0
 62
     4
 10
90.790833
 20
-164.036896
 40
0.940826
 50
180.000000
 51
201.094421
  0
ARC
  8
0
 62
     4
 10
91.642632
 20
-163.566971
 40
1.909230
 50
205.054886
 51
244.507889
  0
ARC
  8
0
 62
     4
 10
94.000000
 20
-158.384048
 40
7.602844
 50
245.282593
 51
294.717407
  0
ARC
  8
0
 62
     4
 10
96.357368
 20
-163.566971
 40
1.909232
 50
295.492126
 51
334.944702
  0
ARC
  8
0
 62
     4
 10
97.209167
 20
-164.036896
 40
0.940828
 50
338.904724
 51
0.000000
  0
ARC
  8
0
 62
     4
 10
1.740994
 20
-60.878578
 40
2.259006
 50
348.471222
 51
11.528767
  0
ARC
  8
0
 62
     4
 10
1.544315
 20
-60.937405
 40
2.463542
 50
11.955109
 51
44.609528
  0
ARC
  8
0
 62
     4
 10
1.000000
 20
-61.586239
 40
3.307662
 50
45.989449
 51
134.010559
  0
ARC
  8
0
 62
     4
 10
0.455685
 20
-60.937405
 40
2.463543
 50
135.390472
 51
168.044891
  0
ARC
  8
0
 62
     4
 10
0.259006
 20
-60.878578
 40
2.259006
 50
168.471237
 51
191.528763
  0
ARC
  8
0
 62
     4
 10
0.455685
 20
-60.819752
 40
2.463542
 50
191.955109
 51
224.609528
  0
ARC
  8
0
 62
     4
 10
1.000000
 20
-60.170918
 40
3.307662
 50
225.989441
 51
314.010559
  0
ARC
  8
0
 62
     4
 10
1.544315
 20
-60.819752
 40
2.463543
 50
315.390472
 51
348.044891
  0
ARC
  8
0
 62
     4
 10
1.730409
 20
-60.878578
 40
1.769592
 50
348.107788
 51
11.892223
  0
ARC
  8
0
 62
     4
 10
1.536540
 20
-60.938408
 40
1.971717
 50
12.432572
 51
45.639286
  0
ARC
  8
0
 62
     4
 10
1.000000
 20
-61.598274
 40
2.819696
 50
47.219574
 51
132.780426
  0
ARC
  8
0
 62
     4
 10
0.463461
 20
-60.938408
 40
1.971717
 50
134.360718
 51
167.567429
  0
ARC
  8
0
 62
     4
 10
0.269591
 20
-60.878578
 40
1.769592
 50
168.107773
 51
191.892227
  0
ARC
  8
0
 62
     4
 10
0.463461
 20
-60.818748
 40
1.971717
 50
192.432571
 51
225.639282
  0
ARC
  8
0
 62
     4
 10
1.000000
 20
-60.158882
 40
2.819696
 50
227.219574
 51
312.780426
  0
ARC
  8
0
 62
     4
 10
1.536540
 20
-60.818748
 40
1.971717
 50
314.360718
 51
347.567413
  0
ARC
  8
0
 62
     4
 10
101.740997
 20
-199.707520
 40
2.259003
 50
348.471008
 51
11.528979
  0
ARC
  8
0
 62
     4
 10
101.544312
 20
-199.766342
 40
2.463545
 50
11.955188
 51
44.609409
  0
ARC
  8
0
 62
     4
 10
101.000000
 20
-200.415176
 40
3.307660
 50
45.989399
 51
134.010605
  0
ARC
  8
0
 62
     4
 10
100.455688
 20
-199.766342
 40
2.463542
 50
135.390594
 51
168.044815
  0
ARC
  8
0
 62
     4
 10
100.259003
 20
-199.707520
 40
2.259003
 50
168.471024
 51
191.528976
  0
ARC
  8
0
 62
     4
 10
100.455688
 20
-199.648697
 40
2.463545
 50
191.955185
 51
224.609406
  0
ARC
  8
0
 62
     4
 10
101.000000
 20
-198.999863
 40
3.307660
 50
225.989395
 51
314.010590
  0
ARC
  8
0
 62
     4
 10
101.544312
 20
-199.648697
 40
2.463542
 50
315.390594
 51
348.044800
  0
ARC
  8
0
 62
     4
 10
101.730408
 20
-199.707520
 40
1.769592
 50
348.108032
 51
11.891966
  0
ARC
  8
0
 62
     4
 10
101.536537
 20
-199.767349
 40
1.971719
 50
12.432332
 51
45.639309
  0
ARC
  8
0
 62
     4
 10
101.000000
 20
-200.427216
 40
2.819694
 50
47.219624
 51
132.780380
  0
ARC
  8
0
 62
     4
 10
100.463463
 20
-199.767349
 40
1.971716
 50
134.360687
 51
167.567673
  0
ARC
  8
0
 62
     4
 10
100.269592
 20
-199.707520
 40
1.769592
 50
168.108032
 51
191.891968
  0
ARC
  8
0
 62
     4
 10
100.463463
 20
-199.647690
 40
1.971719
 50
192.432327
 51
225.639313
  0
ARC
  8
0
 62
     4
 10
101.000000
 20
-198.987823
 40
2.819694
 50
227.219620
 51
312.780365
  0
ARC
  8
0
 62
     4
 10
101.536537
 20
-199.647690
 40
1.971716
 50
314.360687
 51
347.567657
  0
ARC
  8
0
 62
     4
 10
87.740997
 20
-199.707520
 40
2.259003
 50
348.471008
 51
11.528979
  0
ARC
  8
0
 62
     4
 10
87.544312
 20
-199.766342
 40
2.463545
 50
11.955188
 51
44.609409
  0
ARC
  8
0
 62
     4
 10
87.000000
 20
-200.415176
 40
3.307660
 50
45.989399
 51
134.010605
  0
ARC
  8
0
 62
     4
 10
86.455688
 20
-199.766342
 40
2.463542
 50
135.390594
 51
168.044815
  0
ARC
  8
0
 62
     4
 10
86.259003
 20
-199.707520
 40
2.259003
 50
168.471024
 51
191.528976
  0
ARC
  8
0
 62
     4
 10
86.455688
 20
-199.648697
 40
2.463545
 50
191.955185
 51
224.609406
  0
ARC
  8
0
 62
     4
 10
87.000000
 20
-198.999863
 40
3.307660
 50
225.989395
 51
314.010590
  0
ARC
  8
0
 62
     4
 10
87.544312
 20
-199.648697
 40
2.463542
 50
315.390594
 51
348.044800
  0
ARC
  8
0
 62
     4
 10
87.730408
 20
-199.707520
 40
1.769592
 50
348.108032
 51
11.891966
  0
ARC
  8
0
 62
     4
 10
87.536537
 20
-199.767349
 40
1.971719
 50
12.432332
 51
45.639309
  0
ARC
  8
0
 62
     4
 10
87.000000
 20
-200.427216
 40
2.819694
 50
47.219624
 51
132.780380
  0
ARC
  8
0
 62
     4
 10
86.463463
 20
-199.767349
 40
1.971716
 50
134.360687
 51
167.567673
  0
ARC
  8
0
 62
     4
 10
86.269592
 20
-199.707520
 40
1.769592
 50
168.108032
 51
191.891968
  0
ARC
  8
0
 62
     4
 10
86.463463
 20
-199.647690
 40
1.971719
 50
192.432327
 51
225.639313
  0
ARC
  8
0
 62
     4
 10
87.000000
 20
-198.987823
 40
2.819694
 50
227.219620
 51
312.780365
  0
ARC
  8
0
 62
     4
 10
87.536537
 20
-199.647690
 40
1.971716
 50
314.360687
 51
347.567657
  0
ARC
  8
0
 62
     4
 10
17.213882
 20
32.148300
 40
0.786118
 50
340.394135
 51
19.605749
  0
ARC
  8
0
 62
     4
 10
16.626263
 20
31.847469
 40
1.443190
 50
23.030643
 51
62.254417
  0
ARC
  8
0
 62
     4
 10
15.000000
 20
28.529484
 40
5.137866
 50
63.429832
 51
116.570168
  0
ARC
  8
0
 62
     4
 10
13.373738
 20
31.847469
 40
1.443189
 50
117.745613
 51
156.969376
  0
ARC
  8
0
 62
     4
 10
12.786118
 20
32.148300
 40
0.786118
 50
160.394257
 51
199.605881
  0
ARC
  8
0
 62
     4
 10
13.373738
 20
32.449131
 40
1.443191
 50
203.030701
 51
242.254425
  0
ARC
  8
0
 62
     4
 10
15.000000
 20
35.767117
 40
5.137867
 50
243.429840
 51
296.570160
  0
ARC
  8
0
 62
     4
 10
16.626263
 20
32.449131
 40
1.443190
 50
297.745544
 51
336.969299
  0
ARC
  8
0
 62
     4
 10
17.074293
 20
32.148300
 40
0.725708
 50
340.285309
 51
19.714703
  0
ARC
  8
0
 62
     4
 10
16.523724
 20
31.864843
 40
1.342080
 50
23.179729
 51
62.427818
  0
ARC
  8
0
 62
     4
 10
15.000002
 20
28.738462
 40
4.819635
 50
63.574184
 51
116.425812
  0
ARC
  8
0
 62
     4
 10
13.476279
 20
31.864843
 40
1.342079
 50
117.572144
 51
156.820251
  0
ARC
  8
0
 62
     4
 10
12.925712
 20
32.148300
 40
0.725709
 50
160.285324
 51
199.714676
  0
ARC
  8
0
 62
     4
 10
13.476279
 20
32.431759
 40
1.342080
 50
203.179825
 51
242.427887
  0
ARC
  8
0
 62
     4
 10
15.000002
 20
35.558136
 40
4.819633
 50
243.574173
 51
296.425812
  0
ARC
  8
0
 62
     4
 10
16.523724
 20
32.431759
 40
1.342081
 50
297.572144
 51
336.820190
  0
ARC
  8
0
 62
     4
 10
3.213883
 20
32.148300
 40
0.786117
 50
340.394104
 51
19.605772
  0
ARC
  8
0
 62
     4
 10
2.626262
 20
31.847469
 40
1.443190
 50
23.030643
 51
62.254410
  0
ARC
  8
0
 62
     4
 10
1.000000
 20
28.529484
 40
5.137866
 50
63.429832
 51
116.570168
  0
ARC
  8
0
 62
     4
 10
-0.626262
 20
31.847469
 40
1.443189
 50
117.745598
 51
156.969360
  0
ARC
  8
0
 62
     4
 10
-1.213883
 20
32.148300
 40
0.786117
 50
160.394226
 51
199.605896
  0
ARC
  8
0
 62
     4
 10
-0.626262
 20
32.449131
 40
1.443190
 50
203.030716
 51
242.254440
  0
ARC
  8
0
 62
     4
 10
1.000000
 20
35.767117
 40
5.137867
 50
243.429840
 51
296.570160
  0
ARC
  8
0
 62
     4
 10
2.626262
 20
32.449131
 40
1.443191
 50
297.745544
 51
336.969299
  0
ARC
  8
0
 62
     4
 10
3.074291
 20
32.148300
 40
0.725709
 50
340.285309
 51
19.714691
  0
ARC
  8
0
 62
     4
 10
2.523722
 20
31.864843
 40
1.342079
 50
23.179741
 51
62.427837
  0
ARC
  8
0
 62
     4
 10
1.000000
 20
28.738462
 40
4.819635
 50
63.574184
 51
116.425812
  0
ARC
  8
0
 62
     4
 10
-0.523722
 20
31.864843
 40
1.342079
 50
117.572159
 51
156.820251
  0
ARC
  8
0
 62
     4
 10
-1.074291
 20
32.148300
 40
0.725709
 50
160.285309
 51
199.714691
  0
ARC
  8
0
 62
     4
 10
-0.523722
 20
32.431759
 40
1.342080
 50
203.179825
 51
242.427872
  0
ARC
  8
0
 62
     4
 10
1.000000
 20
35.558136
 40
4.819633
 50
243.574173
 51
296.425812
  0
ARC
  8
0
 62
     4
 10
2.523722
 20
32.431759
 40
1.342081
 50
297.572113
 51
336.820190
  0
ARC
  8
0
 62
     4
 10
93.253242
 20
31.669409
 40
3.264126
 50
165.257553
 51
167.972519
  0
ARC
  8
0
 62
     4
 10
92.983414
 20
31.750504
 40
2.983414
 50
168.415924
 51
191.584076
  0
ARC
  8
0
 62
     4
 10
93.253242
 20
31.831598
 40
3.264129
 50
192.027481
 51
224.767822
  0
ARC
  8
0
 62
     4
 10
94.000000
 20
32.726048
 40
4.425550
 50
226.180908
 51
313.819092
  0
ARC
  8
0
 62
     4
 10
94.746758
 20
31.831598
 40
3.264128
 50
315.232178
 51
347.972534
  0
ARC
  8
0
 62
     4
 10
95.016586
 20
31.750504
 40
2.983414
 50
348.415924
 51
11.584081
  0
ARC
  8
0
 62
     4
 10
94.746758
 20
31.669409
 40
3.264129
 50
12.027473
 51
14.750731
  0
TEXT
  8
0
 10
-369.785309
 20
256.649994
 40
9.000000
  1
SD CYLINDER
 50
0.000000
 41
1.052632
 51
0.000000
  7
STANDARD
  0
TEXT
  8
0
 10
242.014816
 20
-274.500000
 40
12.500000
  1
KOGANEI CORP.
 50
0.000000
 41
1.052632
 51
0.000000
  7
STANDARD
  0
TEXT
  8
0
 10
251.264664
 20
256.649994
 40
9.000000
  1
DATE: AUG ,1993
 50
0.000000
 41
1.052632
 51
0.000000
  7
STANDARD
  0
TEXT
  8
0
 10
-330.785309
 20
208.149994
 40
9.000000
  1
(WITH SENSOR SWITCH)
 50
0.000000
 41
1.052632
 51
0.000000
  7
STANDARD
  0
TEXT
  8
0
 10
-384.785309
 20
224.149994
 40
9.000000
  1
MODEL:KA0SDDS125*100
 50
0.000000
 41
1.052632
 51
0.000000
  7
STANDARD
  0
ENDSEC
  0
EOF
