  0
SECTION
  2
HEADER
  0
ENDSEC
  0
SECTION
  2
TABLES
  0
TABLE
  2
LTYPE
 70
     4
  0
LTYPE
  2
CONTINUOUS
 70
    64
  3
Solid line
 72
    65
 73
     0
 40
0.000000
  0
LTYPE
  2
DASHED
 70
    64
  3
__ __ __ __ __ __ __ __ __ __ __ __ __ __ __
 72
    65
 73
     2
 40
3.500000
 49
2.000000
 49
-1.500000
  0
LTYPE
  2
CENTER
 70
    64
  3
____ _ ____ _ ____ _ ____ _ ____ _ ____ _ ____
 72
    65
 73
     4
 40
17.500000
 49
13.000000
 49
-1.500000
 49
1.500000
 49
-1.500000
  0
LTYPE
  2
PHANTOM
 70
    64
  3
_____ _ _ _____ _ _ _____ _ _ _____ _ _ ____  
 72
    65
 73
     6
 40
15.500000
 49
8.000000
 49
-1.500000
 49
1.500000
 49
-1.500000
 49
1.500000
 49
-1.500000
  0
LTYPE
  2
DASHED1
 70
    64
  3
__ __ __ __ __ __ __ __ __ __ __ __ __ __ __
 72
    65
 73
     2
 40
1.500000
 49
1.000000
 49
-0.500000
  0
LTYPE
  2
DASHED2
 70
    64
  3
__ __ __ __ __ __ __ __ __ __ __ __ __ __ __
 72
    65
 73
     2
 40
3.500000
 49
2.500000
 49
-1.000000
  0
LTYPE
  2
DASHED3
 70
    64
  3
__ __ __ __ __ __ __ __ __ __ __ __ __ __ __
 72
    65
 73
     2
 40
6.000000
 49
4.000000
 49
-2.000000
  0
LTYPE
  2
DASHED4
 70
    64
  3
__ __ __ __ __ __ __ __ __ __ __ __ __ __ __
 72
    65
 73
     2
 40
12.000000
 49
10.000000
 49
-2.000000
  0
LTYPE
  2
DASHED5
 70
    64
  3
__ __ __ __ __ __ __ __ __ __ __ __ __ __ __
 72
    65
 73
     2
 40
17.000000
 49
15.000000
 49
-2.000000
  0
LTYPE
  2
DASHED6
 70
    64
  3
__ __ __ __ __ __ __ __ __ __ __ __ __ __ __
 72
    65
 73
     2
 40
29.000000
 49
27.000000
 49
-2.000000
  0
LTYPE
  2
PHANTOM1
 70
    64
  3
_____ _ _ _____ _ _ _____ _ _ _____ _ _ ____  
 72
    65
 73
     6
 40
31.000000
 49
25.000000
 49
-1.500000
 49
1.000000
 49
-1.000000
 49
1.000000
 49
-1.500000
  0
LTYPE
  2
PHANTOM2
 70
    64
  3
_____ _ _ _____ _ _ _____ _ _ _____ _ _ ____  
 72
    65
 73
     6
 40
36.000000
 49
27.000000
 49
-1.500000
 49
2.500000
 49
-1.000000
 49
2.500000
 49
-1.500000
  0
LTYPE
  2
PHANTOM3
 70
    64
  3
_____ _ _ _____ _ _ _____ _ _ _____ _ _ ____  
 72
    65
 73
     6
 40
78.000000
 49
64.000000
 49
-2.000000
 49
4.000000
 49
-2.000000
 49
4.000000
 49
-2.000000
  0
LTYPE
  2
CENTER1
 70
    64
  3
____ _ ____ _ ____ _ ____ _ ____ _ ____ _ ____
 72
    65
 73
     4
 40
19.000000
 49
14.000000
 49
-1.000000
 49
3.000000
 49
-1.000000
  0
LTYPE
  2
CENTER2
 70
    64
  3
____ _ ____ _ ____ _ ____ _ ____ _ ____ _ ____
 72
    65
 73
     4
 40
28.500000
 49
25.000000
 49
-1.000000
 49
1.500000
 49
-1.000000
  0
LTYPE
  2
CENTER3
 70
    64
  3
____ _ ____ _ ____ _ ____ _ ____ _ ____ _ ____
 72
    65
 73
     4
 40
31.500000
 49
27.000000
 49
-1.000000
 49
2.500000
 49
-1.000000
  0
LTYPE
  2
CENTER4
 70
    64
  3
____ _ ____ _ ____ _ ____ _ ____ _ ____ _ ____
 72
    65
 73
     4
 40
50.000000
 49
45.000000
 49
-1.000000
 49
3.000000
 49
-1.000000
  0
LTYPE
  2
CENTER5
 70
    64
  3
____ _ ____ _ ____ _ ____ _ ____ _ ____ _ ____
 72
    65
 73
     4
 40
100.000000
 49
92.000000
 49
-2.000000
 49
4.000000
 49
-2.000000
  0
LTYPE
  2
SBK1
 70
    64
  3
______ _ _ _ ______ _ _ _ ______ _ _ _ _____  
 72
    65
 73
     8
 40
60.500000
 49
45.000000
 49
-2.000000
 49
2.500000
 49
-2.000000
 49
2.500000
 49
-2.000000
 49
2.500000
 49
-2.000000
  0
LTYPE
  2
SBK2
 70
    64
  3
______ _ _ _ ______ _ _ _ ______ _ _ _ _____  
 72
    65
 73
     8
 40
84.000000
 49
64.000000
 49
-2.000000
 49
4.000000
 49
-2.000000
 49
4.000000
 49
-2.000000
 49
4.000000
 49
-2.000000
  0
LTYPE
  2
STCH
 70
    64
  3
__ __ __ __ __ __ __ __ __ __ __ __ __ __ __
 72
    65
 73
     2
 40
3.000000
 49
1.000000
 49
-2.000000
  0
LTYPE
  2
MTCH
 70
    64
  3
_____ _ _ _____ _ _ _____ _ _ _____ _ _ ____  
 72
    65
 73
     6
 40
80.000000
 49
66.000000
 49
-2.000000
 49
4.000000
 49
-2.000000
 49
4.000000
 49
-2.000000
  0
ENDTAB
  0
TABLE
  2
LAYER
 70
     1
  0
LAYER
  2
0
 70
     0
 62
     7
  6
CONTINUOUS
  0
ENDTAB
  0
TABLE
  2
STYLE
 70
     1
  0
STYLE
  2
STANDARD
 70
     0
 40
0.000000
 41
1.000000
 50
0.000000
 71
     0
 42
0.200000
  3
txt
  4
BIGFONT
  0
ENDTAB
  0
TABLE
  2
VIEW
 70
     0
  0
ENDTAB
  0
ENDSEC
  0
SECTION
  2
BLOCKS
  0
ENDSEC
  0
SECTION
  2
ENTITIES
  0
LINE
  8
0
 10
399.799988
 20
276.250000
 11
399.799988
 21
-276.750000
  0
LINE
  8
0
 10
-399.250000
 20
276.250000
 11
-399.250000
 21
-276.750000
  0
LINE
  8
0
 10
-399.250000
 20
276.250000
 11
399.799988
 21
276.250000
  0
LINE
  8
0
 10
-399.250000
 20
-276.750000
 11
399.799988
 21
-276.750000
  0
LINE
  8
0
 10
239.799988
 20
-251.750000
 11
399.799988
 21
-251.750000
  0
LINE
  8
0
 10
239.799988
 20
251.250000
 11
399.799988
 21
251.250000
  0
LINE
  8
0
 10
-399.250000
 20
251.250000
 11
-239.250000
 21
251.250000
  0
LINE
  8
0
 10
239.799988
 20
-251.750000
 11
239.799988
 21
-276.750000
  0
LINE
  8
0
 10
239.799988
 20
251.250000
 11
239.799988
 21
276.250000
  0
LINE
  8
0
 10
-239.250000
 20
276.250000
 11
-239.250000
 21
251.250000
  0
LINE
  8
0
 10
166.517517
 20
-69.649139
 11
156.500000
 21
-69.649139
  0
LINE
  8
0
 10
166.517517
 20
-63.298294
 11
156.500000
 21
-63.298294
  0
LINE
  8
0
 10
156.500000
 20
-88.701706
 11
156.500000
 21
-63.298294
  0
LINE
  8
0
 10
167.500000
 20
-87.000008
 11
167.500000
 21
-65.000000
  0
LINE
  8
0
 10
363.000000
 20
-154.250000
 11
363.000000
 21
-125.750000
  0
LINE
  8
0
 10
363.000000
 20
-154.249924
 11
362.250031
 21
-154.999924
  0
LINE
  8
0
 62
     2
 10
313.000061
 20
-154.250076
 11
311.392822
 21
-155.000137
  0
LINE
  8
0
 62
     2
 10
363.000000
 20
-154.250000
 11
313.000000
 21
-154.250000
  0
LINE
  8
0
 10
362.250000
 20
-155.000000
 11
310.000000
 21
-155.000000
  0
LINE
  8
0
 10
362.250000
 20
-125.000000
 11
362.250000
 21
-155.000000
  0
LINE
  8
0
 10
363.000153
 20
-125.749893
 11
362.250183
 21
-124.999908
  0
LINE
  8
0
 62
     2
 10
-104.999939
 20
-154.249924
 11
-103.392838
 21
-154.999893
  0
LINE
  8
0
 10
-154.250000
 20
-155.000000
 11
-102.000000
 21
-155.000000
  0
LINE
  8
0
 62
     2
 10
-155.000000
 20
-154.250000
 11
-105.000000
 21
-154.250000
  0
LINE
  8
0
 10
-154.999969
 20
-154.249939
 11
-154.249969
 21
-154.999939
  0
LINE
  8
0
 10
-154.250000
 20
-125.000000
 11
-154.250000
 21
-155.000000
  0
LINE
  8
0
 10
-155.000031
 20
-125.749992
 11
-154.250031
 21
-124.999992
  0
LINE
  8
0
 62
     2
 10
312.999969
 20
-125.750069
 11
311.392731
 21
-125.000015
  0
LINE
  8
0
 62
     2
 10
363.000000
 20
-125.750000
 11
313.000000
 21
-125.750000
  0
LINE
  8
0
 10
157.200043
 20
-95.000000
 11
153.000000
 21
-95.000000
  0
LINE
  8
0
 10
157.200012
 20
-185.000000
 11
153.000000
 21
-185.000000
  0
LINE
  8
0
 10
165.400024
 20
-160.016510
 11
165.400024
 21
-173.016510
  0
LINE
  8
0
 10
165.400024
 20
-106.983498
 11
165.400024
 21
-119.983498
  0
LINE
  8
0
 10
166.200104
 20
-172.216568
 11
165.400116
 21
-173.016556
  0
LINE
  8
0
 10
165.399979
 20
-160.016525
 11
166.199982
 21
-160.816528
  0
LINE
  8
0
 10
165.400024
 20
-106.983498
 11
158.200012
 21
-106.983498
  0
LINE
  8
0
 10
165.400024
 20
-160.016510
 11
158.200012
 21
-160.016510
  0
LINE
  8
0
 10
165.400024
 20
-173.016510
 11
158.200012
 21
-173.016510
  0
LINE
  8
0
 10
165.000000
 20
-173.016510
 11
165.000000
 21
-176.500000
  0
LINE
  8
0
 10
165.000000
 20
-119.983498
 11
165.000000
 21
-160.016510
  0
LINE
  8
0
 10
164.000000
 20
-177.500000
 11
158.200012
 21
-177.500000
  0
LINE
  8
0
 10
164.000000
 20
-102.500000
 11
158.200012
 21
-102.500000
  0
LINE
  8
0
 10
158.199982
 20
-183.999985
 11
157.199997
 21
-184.999969
  0
LINE
  8
0
 10
166.200012
 20
-107.783501
 11
166.200012
 21
-119.183495
  0
LINE
  8
0
 10
165.000000
 20
-103.500000
 11
165.000000
 21
-106.983498
  0
LINE
  8
0
 10
190.000015
 20
-169.000092
 11
166.200043
 21
-169.952087
  0
LINE
  8
0
 10
190.000031
 20
-111.000046
 11
166.200027
 21
-110.048050
  0
LINE
  8
0
 10
166.200012
 20
-160.816498
 11
166.200012
 21
-172.216507
  0
LINE
  8
0
 10
166.199860
 20
-119.183281
 11
165.399872
 21
-119.983299
  0
LINE
  8
0
 10
166.200058
 20
-107.783417
 11
165.400070
 21
-106.983429
  0
LINE
  8
0
 10
165.400024
 20
-119.983498
 11
158.200012
 21
-119.983498
  0
LINE
  8
0
 10
167.500366
 20
-87.000198
 11
166.517776
 21
-88.701927
  0
LINE
  8
0
 10
167.500031
 20
-65.000023
 11
166.517548
 21
-63.298313
  0
LINE
  8
0
 10
180.000000
 20
-82.000374
 11
180.000000
 21
-70.000381
  0
LINE
  8
0
 10
179.000000
 20
-83.000374
 11
179.000000
 21
-69.000381
  0
LINE
  8
0
 10
179.000000
 20
-83.000000
 11
167.500000
 21
-83.000000
  0
LINE
  8
0
 10
-56.000000
 20
-102.500000
 11
-50.200012
 21
-102.500000
  0
LINE
  8
0
 10
-56.000000
 20
-177.500000
 11
-50.200012
 21
-177.500000
  0
LINE
  8
0
 10
-57.000000
 20
-119.983498
 11
-57.000000
 21
-160.016510
  0
LINE
  8
0
 10
-57.000000
 20
-173.016510
 11
-57.000000
 21
-176.500000
  0
LINE
  8
0
 10
-59.500000
 20
-64.999954
 11
-59.500000
 21
-87.000000
  0
LINE
  8
0
 10
-59.500004
 20
-64.999947
 11
-58.517529
 21
-63.298252
  0
LINE
  8
0
 10
-59.499981
 20
-87.000008
 11
-58.517506
 21
-88.701706
  0
LINE
  8
0
 10
-72.000000
 20
-70.000000
 11
-72.000000
 21
-82.000000
  0
LINE
  8
0
 10
-71.000000
 20
-69.000000
 11
-71.000000
 21
-83.000000
  0
LINE
  8
0
 10
-71.000000
 20
-69.000000
 11
-59.500000
 21
-69.000000
  0
LINE
  8
0
 10
179.999802
 20
-70.000534
 11
178.999802
 21
-69.000534
  0
LINE
  8
0
 10
179.999680
 20
-82.000099
 11
178.999710
 21
-83.000092
  0
LINE
  8
0
 10
179.000000
 20
-69.000000
 11
167.500000
 21
-69.000000
  0
LINE
  8
0
 10
166.517517
 20
-88.701523
 11
156.500000
 21
-88.701523
  0
LINE
  8
0
 10
-71.999992
 20
-82.000023
 11
-70.999992
 21
-83.000031
  0
LINE
  8
0
 10
-71.999954
 20
-69.999992
 11
-70.999954
 21
-69.000008
  0
LINE
  8
0
 10
-71.000000
 20
-83.000000
 11
-59.500000
 21
-83.000000
  0
LINE
  8
0
 10
-58.517517
 20
-63.298294
 11
-48.500000
 21
-63.298294
  0
LINE
  8
0
 10
-58.517517
 20
-69.649155
 11
-48.500000
 21
-69.649155
  0
LINE
  8
0
 10
-58.517517
 20
-82.350861
 11
-48.500000
 21
-82.350861
  0
LINE
  8
0
 10
-58.517517
 20
-88.701706
 11
-48.500000
 21
-88.701706
  0
LINE
  8
0
 10
-48.500000
 20
-63.298294
 11
-48.500000
 21
-88.701706
  0
LINE
  8
0
 10
-57.400009
 20
-173.016510
 11
-50.200012
 21
-173.016510
  0
LINE
  8
0
 10
-57.400009
 20
-160.016510
 11
-50.200012
 21
-160.016510
  0
LINE
  8
0
 10
153.000000
 20
-64.000000
 11
156.500000
 21
-64.000000
  0
LINE
  8
0
 10
153.000000
 20
-88.000000
 11
156.500000
 21
-88.000000
  0
LINE
  8
0
 10
-49.199989
 20
-185.000000
 11
-45.000000
 21
-185.000000
  0
LINE
  8
0
 10
-49.200043
 20
-95.000000
 11
-45.000000
 21
-95.000000
  0
LINE
  8
0
 10
-57.400009
 20
-106.983498
 11
-50.200012
 21
-106.983498
  0
LINE
  8
0
 10
-57.400009
 20
-119.983498
 11
-50.200012
 21
-119.983498
  0
LINE
  8
0
 10
-58.200035
 20
-107.783501
 11
-57.400032
 21
-106.983505
  0
LINE
  8
0
 10
-58.200008
 20
-119.183464
 11
-57.400005
 21
-119.983475
  0
LINE
  8
0
 10
-57.400013
 20
-160.016479
 11
-58.200008
 21
-160.816483
  0
LINE
  8
0
 10
-58.200043
 20
-172.216553
 11
-57.400040
 21
-173.016556
  0
LINE
  8
0
 10
-57.400032
 20
-106.983498
 11
-57.400032
 21
-119.983498
  0
LINE
  8
0
 10
-57.400017
 20
-160.016510
 11
-57.400017
 21
-173.016510
  0
LINE
  8
0
 10
166.517517
 20
-82.350845
 11
156.500000
 21
-82.350845
  0
LINE
  8
0
 10
-155.000000
 20
-125.750000
 11
-155.000000
 21
-154.250000
  0
LINE
  8
0
  6
CENTER
 62
     2
 10
-162.972839
 20
-140.000000
 11
366.806854
 21
-140.000000
  0
LINE
  8
0
 10
-154.250000
 20
-125.000000
 11
-102.000000
 21
-125.000000
  0
LINE
  8
0
 10
-105.000000
 20
-125.000000
 11
-105.000000
 21
-155.000000
  0
LINE
  8
0
 10
-102.000000
 20
-125.000000
 11
-102.000000
 21
-155.000000
  0
LINE
  8
0
 10
-101.999954
 20
-154.999908
 11
-96.803802
 21
-157.999908
  0
LINE
  8
0
 10
-101.999969
 20
-125.000031
 11
-96.803825
 21
-122.000031
  0
LINE
  8
0
 10
-96.803848
 20
-122.000000
 11
-83.000000
 21
-122.000000
  0
LINE
  8
0
 10
-96.803848
 20
-158.000000
 11
-83.000000
 21
-158.000000
  0
LINE
  8
0
 10
-96.803848
 20
-131.753784
 11
-90.000000
 21
-131.753784
  0
LINE
  8
0
 10
-96.803848
 20
-148.246216
 11
-90.000000
 21
-148.246216
  0
LINE
  8
0
 10
-90.000000
 20
-131.753784
 11
-90.000000
 21
-148.246216
  0
LINE
  8
0
 10
-96.803848
 20
-122.000000
 11
-96.803848
 21
-131.753784
  0
LINE
  8
0
 10
-96.803848
 20
-148.246216
 11
-96.803848
 21
-158.000000
  0
LINE
  8
0
 62
     2
 10
-90.000183
 20
-131.753754
 11
-96.804024
 21
-148.246170
  0
LINE
  8
0
 62
     2
 10
-96.803848
 20
-131.753769
 11
-89.999992
 21
-148.246185
  0
LINE
  8
0
 10
-83.000000
 20
-112.000000
 11
-83.000000
 21
-168.000000
  0
LINE
  8
0
 10
-82.000000
 20
-111.000000
 11
-82.000000
 21
-169.000000
  0
LINE
  8
0
 10
-82.999992
 20
-111.999992
 11
-82.000000
 21
-111.000008
  0
LINE
  8
0
 10
-82.999908
 20
-167.999863
 11
-81.999908
 21
-168.999863
  0
LINE
  8
0
 10
-45.000000
 20
-60.000000
 11
-45.000000
 21
-220.000000
  0
LINE
  8
0
 10
-50.200012
 20
-96.000000
 11
-50.200012
 21
-184.000000
  0
LINE
  8
0
 10
-49.200012
 20
-95.000000
 11
-49.200012
 21
-185.000000
  0
LINE
  8
0
 10
-50.199909
 20
-95.999977
 11
-49.199986
 21
-95.000031
  0
LINE
  8
0
 10
-58.200012
 20
-107.783501
 11
-58.200012
 21
-119.183495
  0
LINE
  8
0
 10
-58.200012
 20
-160.816498
 11
-58.200012
 21
-172.216507
  0
LINE
  8
0
 10
-81.999992
 20
-111.000008
 11
-58.200008
 21
-110.048012
  0
LINE
  8
0
 10
-82.000015
 20
-169.000107
 11
-58.200020
 21
-169.952103
  0
LINE
  8
0
 10
-57.000000
 20
-103.500000
 11
-57.000000
 21
-106.983498
  0
LINE
  8
0
 10
-10.000000
 20
-60.000000
 11
-10.000000
 21
-220.000000
  0
LINE
  8
0
 10
-45.000000
 20
-60.000000
 11
-10.000000
 21
-60.000000
  0
LINE
  8
0
  6
CENTER
 62
     2
 10
-77.876854
 20
-204.000000
 11
183.200012
 21
-204.000000
  0
LINE
  8
0
 10
166.517517
 20
-216.701523
 11
156.500000
 21
-216.701523
  0
LINE
  8
0
 10
166.517517
 20
-210.350845
 11
156.500000
 21
-210.350845
  0
LINE
  8
0
 10
166.517517
 20
-197.649139
 11
156.500000
 21
-197.649139
  0
LINE
  8
0
 10
166.517517
 20
-191.298294
 11
156.500000
 21
-191.298294
  0
LINE
  8
0
 10
156.500000
 20
-216.701706
 11
156.500000
 21
-191.298294
  0
LINE
  8
0
 10
167.500000
 20
-215.000000
 11
167.500000
 21
-193.000000
  0
LINE
  8
0
 10
167.500198
 20
-215.000259
 11
166.517654
 21
-216.701950
  0
LINE
  8
0
 10
167.499802
 20
-193.000137
 11
166.517319
 21
-191.298431
  0
LINE
  8
0
 10
180.000000
 20
-210.000381
 11
180.000000
 21
-198.000381
  0
LINE
  8
0
 10
179.000000
 20
-211.000381
 11
179.000000
 21
-197.000381
  0
LINE
  8
0
 10
179.000000
 20
-211.000000
 11
167.500000
 21
-211.000000
  0
LINE
  8
0
 10
179.000000
 20
-197.000000
 11
167.500000
 21
-197.000000
  0
LINE
  8
0
 10
179.999878
 20
-210.000259
 11
178.999878
 21
-211.000259
  0
LINE
  8
0
 10
179.999619
 20
-198.000702
 11
178.999603
 21
-197.000671
  0
LINE
  8
0
  6
CENTER
 62
     2
 10
-77.500000
 20
-76.000000
 11
184.799988
 21
-76.000000
  0
LINE
  8
0
 10
-71.000000
 20
-211.000000
 11
-59.500000
 21
-211.000000
  0
LINE
  8
0
 10
-71.999992
 20
-197.999969
 11
-70.999992
 21
-196.999969
  0
LINE
  8
0
 10
-71.999939
 20
-209.999985
 11
-70.999947
 21
-210.999969
  0
LINE
  8
0
 10
-58.517517
 20
-191.298294
 11
-48.500000
 21
-191.298294
  0
LINE
  8
0
 10
-58.517517
 20
-197.649155
 11
-48.500000
 21
-197.649155
  0
LINE
  8
0
 10
-58.517517
 20
-210.350861
 11
-48.500000
 21
-210.350861
  0
LINE
  8
0
 10
-58.517517
 20
-216.701706
 11
-48.500000
 21
-216.701706
  0
LINE
  8
0
 10
-48.500000
 20
-191.298294
 11
-48.500000
 21
-216.701706
  0
LINE
  8
0
 10
-59.500000
 20
-193.000000
 11
-59.500000
 21
-215.000000
  0
LINE
  8
0
 10
-59.500011
 20
-192.999969
 11
-58.517529
 21
-191.298279
  0
LINE
  8
0
 10
-59.500050
 20
-215.000015
 11
-58.517567
 21
-216.701721
  0
LINE
  8
0
 10
-72.000000
 20
-198.000000
 11
-72.000000
 21
-210.000000
  0
LINE
  8
0
 10
-71.000000
 20
-197.000000
 11
-71.000000
 21
-211.000000
  0
LINE
  8
0
 10
-71.000000
 20
-197.000000
 11
-59.500000
 21
-197.000000
  0
LINE
  8
0
 10
-50.199993
 20
-183.999969
 11
-49.199974
 21
-184.999969
  0
LINE
  8
0
  6
CENTER
 62
     2
 10
-29.000000
 20
-57.529602
 11
-29.000000
 21
-151.300003
  0
LINE
  8
0
  6
DASHED
 62
     2
 10
131.904907
 20
-139.250000
 11
142.095093
 21
-139.250000
  0
LINE
  8
0
  6
DASHED
 62
     2
 10
131.904907
 20
-140.750000
 11
142.095093
 21
-140.750000
  0
LINE
  8
0
 10
-10.000000
 20
-69.000000
 11
-3.000000
 21
-69.000000
  0
LINE
  8
0
 10
-10.000000
 20
-83.000000
 11
-3.000000
 21
-83.000000
  0
LINE
  8
0
 10
-10.000000
 20
-197.000000
 11
83.000000
 21
-197.000000
  0
LINE
  8
0
 10
-10.000000
 20
-211.000000
 11
83.000000
 21
-211.000000
  0
LINE
  8
0
  6
CENTER
 62
     2
 10
137.000000
 20
-58.090424
 11
137.000000
 21
-153.000000
  0
LINE
  8
0
 10
153.000000
 20
-60.000000
 11
153.000000
 21
-220.000000
  0
LINE
  8
0
 10
118.000000
 20
-60.000000
 11
118.000000
 21
-220.000000
  0
LINE
  8
0
 10
118.000000
 20
-60.000000
 11
153.000000
 21
-60.000000
  0
LINE
  8
0
 10
-34.095097
 20
-139.250000
 11
-23.904903
 21
-139.250000
  0
LINE
  8
0
 10
-34.095097
 20
-140.750000
 11
-23.904903
 21
-140.750000
  0
LINE
  8
0
 10
153.000000
 20
-192.000000
 11
156.500000
 21
-192.000000
  0
LINE
  8
0
 10
153.000000
 20
-216.000000
 11
156.500000
 21
-216.000000
  0
LINE
  8
0
 10
-48.500000
 20
-192.000000
 11
-45.000000
 21
-192.000000
  0
LINE
  8
0
 10
-48.500000
 20
-216.000000
 11
-45.000000
 21
-216.000000
  0
LINE
  8
0
 10
-48.500000
 20
-64.000000
 11
-45.000000
 21
-64.000000
  0
LINE
  8
0
 10
-48.500000
 20
-88.000000
 11
-45.000000
 21
-88.000000
  0
LINE
  8
0
 10
-45.000000
 20
-220.000000
 11
-10.000000
 21
-220.000000
  0
LINE
  8
0
  6
DASHED
 62
     2
 10
-39.499939
 20
-59.999916
 11
-37.999950
 21
-61.499928
  0
LINE
  8
0
  6
DASHED
 62
     2
 10
-38.000000
 20
-61.500000
 11
-20.000000
 21
-61.500000
  0
LINE
  8
0
  6
DASHED
 62
     2
 10
-20.000000
 20
-61.500015
 11
-18.500013
 21
-60.000019
  0
LINE
  8
0
  6
DASHED
 62
     2
 10
-18.500000
 20
-59.999989
 11
-18.899696
 21
-71.446411
  0
LINE
  8
0
  6
DASHED
 62
     2
 10
-20.000000
 20
-61.500000
 11
-20.000000
 21
-71.350006
  0
LINE
  8
0
  6
DASHED
 62
     2
 10
-38.000000
 20
-70.150009
 11
-38.000000
 21
-61.500000
  0
LINE
  8
0
  6
DASHED
 62
     2
 10
-39.499996
 20
-59.999969
 11
-39.124817
 21
-70.743835
  0
LINE
  8
0
  6
DASHED
 62
     2
 10
126.499977
 20
-60.000069
 11
127.999931
 21
-61.500053
  0
LINE
  8
0
  6
DASHED
 62
     2
 10
128.000000
 20
-61.500183
 11
146.000183
 21
-61.500183
  0
LINE
  8
0
  6
DASHED
 62
     2
 10
146.000259
 20
-61.500004
 11
147.500259
 21
-60.000019
  0
LINE
  8
0
  6
DASHED
 62
     2
 10
147.500717
 20
-59.999996
 11
147.100906
 21
-71.446495
  0
LINE
  8
0
  6
DASHED
 62
     2
 10
145.999985
 20
-71.349998
 11
146.000168
 21
-61.499950
  0
LINE
  8
0
  6
DASHED
 62
     2
 10
128.000000
 20
-61.499969
 11
128.000000
 21
-70.150009
  0
LINE
  8
0
  6
DASHED
 62
     2
 10
126.875282
 20
-70.743843
 11
126.499886
 21
-59.999989
  0
LINE
  8
0
 10
118.000000
 20
-220.000000
 11
153.000000
 21
-220.000000
  0
LINE
  8
0
 10
-10.000000
 20
-215.000000
 11
83.000000
 21
-215.000000
  0
LINE
  8
0
 10
-10.000000
 20
-65.000000
 11
-3.000000
 21
-65.000000
  0
LINE
  8
0
 62
     2
 10
180.000000
 20
-70.399994
 11
167.500000
 21
-70.399994
  0
LINE
  8
0
 62
     2
 10
180.000000
 20
-81.599998
 11
167.500000
 21
-81.599998
  0
LINE
  8
0
 62
     2
 10
180.000000
 20
-198.399994
 11
167.500000
 21
-198.399994
  0
LINE
  8
0
 62
     2
 10
180.000000
 20
-209.600006
 11
167.500000
 21
-209.600006
  0
LINE
  8
0
 62
     2
 10
-72.000000
 20
-198.399994
 11
-59.500000
 21
-198.399994
  0
LINE
  8
0
 62
     2
 10
-72.000000
 20
-209.600006
 11
-59.500000
 21
-209.600006
  0
LINE
  8
0
 62
     2
 10
-72.000000
 20
-70.399994
 11
-59.500000
 21
-70.399994
  0
LINE
  8
0
 62
     2
 10
-72.000000
 20
-81.599998
 11
-59.500000
 21
-81.599998
  0
LINE
  8
0
 62
     2
 10
-155.000000
 20
-125.750000
 11
-105.000000
 21
-125.750000
  0
LINE
  8
0
 62
     2
 10
-105.000023
 20
-125.749977
 11
-103.392906
 21
-124.999992
  0
LINE
  8
0
 10
362.250000
 20
-125.000000
 11
310.000000
 21
-125.000000
  0
LINE
  8
0
 10
313.000000
 20
-125.000000
 11
313.000000
 21
-155.000000
  0
LINE
  8
0
 10
310.000000
 20
-125.000000
 11
310.000000
 21
-155.000000
  0
LINE
  8
0
 10
310.000092
 20
-155.000107
 11
304.803925
 21
-158.000092
  0
LINE
  8
0
 10
310.000183
 20
-124.999725
 11
304.804047
 21
-121.999718
  0
LINE
  8
0
 10
304.803833
 20
-158.000000
 11
191.000000
 21
-158.000000
  0
LINE
  8
0
 10
304.803833
 20
-122.000000
 11
191.000000
 21
-122.000000
  0
LINE
  8
0
 10
304.803833
 20
-131.753784
 11
298.000000
 21
-131.753784
  0
LINE
  8
0
 10
304.803833
 20
-148.246216
 11
298.000000
 21
-148.246216
  0
LINE
  8
0
 10
298.000000
 20
-131.753784
 11
298.000000
 21
-148.246216
  0
LINE
  8
0
 10
304.803833
 20
-122.000000
 11
304.803833
 21
-131.753784
  0
LINE
  8
0
 10
304.803833
 20
-148.246216
 11
304.803833
 21
-158.000000
  0
LINE
  8
0
 62
     2
 10
298.000183
 20
-131.753708
 11
304.803986
 21
-148.246124
  0
LINE
  8
0
 62
     2
 10
304.804443
 20
-131.753998
 11
298.000580
 21
-148.246414
  0
LINE
  8
0
 10
191.000000
 20
-112.000000
 11
191.000000
 21
-168.000000
  0
LINE
  8
0
 10
190.000000
 20
-111.000000
 11
190.000000
 21
-169.000000
  0
LINE
  8
0
 10
190.999939
 20
-112.000015
 11
189.999939
 21
-111.000015
  0
LINE
  8
0
 10
190.999893
 20
-167.999924
 11
189.999893
 21
-168.999924
  0
LINE
  8
0
 10
158.200012
 20
-96.000000
 11
158.200012
 21
-184.000000
  0
LINE
  8
0
 10
157.200012
 20
-95.000000
 11
157.200012
 21
-185.000000
  0
LINE
  8
0
 10
158.199722
 20
-96.000145
 11
157.199799
 21
-95.000191
  0
LINE
  8
0
 10
25.000000
 20
-65.000000
 11
118.000000
 21
-65.000000
  0
LINE
  8
0
 10
25.000000
 20
-69.000000
 11
118.000000
 21
-69.000000
  0
LINE
  8
0
 10
25.000000
 20
-83.000000
 11
118.000000
 21
-83.000000
  0
LINE
  8
0
 62
     4
 10
-3.000000
 20
-58.099998
 11
-3.000000
 21
-102.759689
  0
LINE
  8
0
 62
     4
 10
25.000000
 20
-58.099998
 11
25.000000
 21
-100.475792
  0
LINE
  8
0
 62
     4
 10
111.000000
 20
-177.240295
 11
111.000000
 21
-221.900009
  0
LINE
  8
0
 62
     4
 10
83.000000
 20
-177.240295
 11
83.000000
 21
-221.900009
  0
LINE
  8
0
 62
     4
 10
83.000000
 20
-177.240295
 11
94.229782
 21
-177.240295
  0
LINE
  8
0
 10
111.000000
 20
-197.000000
 11
118.000000
 21
-197.000000
  0
LINE
  8
0
 10
111.000000
 20
-211.000000
 11
118.000000
 21
-211.000000
  0
LINE
  8
0
 62
     4
 10
17.134003
 20
-63.041084
 11
18.865997
 21
-63.041084
  0
LINE
  8
0
 62
     4
 10
17.134003
 20
-65.736214
 11
18.865997
 21
-65.736214
  0
LINE
  8
0
 62
     4
 10
17.133982
 20
-63.041088
 11
16.267927
 21
-64.388687
  0
LINE
  8
0
 62
     4
 10
16.267954
 20
-64.388672
 11
17.134001
 21
-65.736206
  0
LINE
  8
0
 62
     4
 10
18.865999
 20
-65.736214
 11
19.732048
 21
-64.388680
  0
LINE
  8
0
 62
     4
 10
19.732044
 20
-64.388680
 11
18.865992
 21
-63.041077
  0
LINE
  8
0
 62
     4
 10
3.134003
 20
-63.041084
 11
4.865997
 21
-63.041084
  0
LINE
  8
0
 62
     4
 10
3.134003
 20
-65.736214
 11
4.865997
 21
-65.736214
  0
LINE
  8
0
 62
     4
 10
3.133991
 20
-63.041080
 11
2.267936
 21
-64.388680
  0
LINE
  8
0
 62
     4
 10
2.267952
 20
-64.388680
 11
3.134001
 21
-65.736214
  0
LINE
  8
0
 62
     4
 10
4.866009
 20
-65.736191
 11
5.732058
 21
-64.388657
  0
LINE
  8
0
 62
     4
 10
5.732053
 20
-64.388695
 11
4.865999
 21
-63.041096
  0
LINE
  8
0
 62
     4
 10
93.000000
 20
-178.508026
 11
93.000000
 21
-180.617661
  0
LINE
  8
0
 62
     4
 10
101.000000
 20
-178.508026
 11
101.000000
 21
-180.617661
  0
LINE
  8
0
 62
     4
 10
99.768341
 20
-177.240295
 11
111.000000
 21
-177.240295
  0
LINE
  8
0
 62
     4
 10
95.238029
 20
-178.480042
 11
98.761925
 21
-177.535812
  0
LINE
  8
0
 62
     4
 10
95.238068
 20
-177.535843
 11
98.761971
 21
-178.480072
  0
LINE
  8
0
 62
     4
 10
112.500000
 20
-178.168640
 11
112.500000
 21
-182.181442
  0
LINE
  8
0
 62
     4
 10
87.500000
 20
-177.499832
 11
87.500000
 21
-179.256668
  0
LINE
  8
0
 62
     4
 10
83.000000
 20
-177.679504
 11
87.500000
 21
-177.679504
  0
LINE
  8
0
 62
     4
 10
111.000000
 20
-177.499863
 11
112.499985
 21
-178.168671
  0
LINE
  8
0
 62
     4
 10
111.000000
 20
-179.256638
 11
112.500008
 21
-179.486221
  0
LINE
  8
0
 62
     4
 10
111.000023
 20
-182.850235
 11
112.500015
 21
-182.181458
  0
LINE
  8
0
 62
     4
 10
100.276154
 20
-177.499847
 11
111.000000
 21
-177.499847
  0
LINE
  8
0
 62
     4
 10
101.000000
 20
-179.256668
 11
111.000000
 21
-179.256668
  0
LINE
  8
0
 62
     4
 10
93.723083
 20
-177.500229
 11
87.500000
 21
-177.500229
  0
LINE
  8
0
 62
     4
 10
93.000000
 20
-179.256668
 11
83.000000
 21
-179.256668
  0
LINE
  8
0
 62
     4
 10
58.000000
 20
-178.675018
 11
83.000000
 21
-178.675018
  0
LINE
  8
0
 62
     4
 10
59.732056
 20
-181.675018
 11
83.000000
 21
-181.675018
  0
LINE
  8
0
 62
     4
 10
57.999981
 20
-178.675034
 11
59.732037
 21
-181.675049
  0
LINE
  8
0
 62
     4
 10
104.865997
 20
-216.958466
 11
105.732048
 21
-215.610931
  0
LINE
  8
0
 62
     4
 10
105.732056
 20
-215.610947
 11
104.866005
 21
-214.263336
  0
LINE
  8
0
 62
     4
 10
89.134003
 20
-214.263336
 11
90.865997
 21
-214.263336
  0
LINE
  8
0
 62
     4
 10
89.134003
 20
-216.958466
 11
90.865997
 21
-216.958466
  0
LINE
  8
0
 62
     4
 10
103.134003
 20
-216.958466
 11
104.865997
 21
-216.958466
  0
LINE
  8
0
 62
     4
 10
103.134003
 20
-214.263336
 11
104.865997
 21
-214.263336
  0
LINE
  8
0
 62
     4
 10
102.267952
 20
-215.610901
 11
103.133995
 21
-216.958435
  0
LINE
  8
0
 62
     4
 10
103.133987
 20
-214.263336
 11
102.267937
 21
-215.610931
  0
LINE
  8
0
 62
     4
 10
89.133980
 20
-214.263321
 11
88.267929
 21
-215.610916
  0
LINE
  8
0
 62
     4
 10
88.267952
 20
-215.610916
 11
89.133995
 21
-216.958450
  0
LINE
  8
0
 62
     4
 10
90.865997
 20
-216.958450
 11
91.732048
 21
-215.610916
  0
LINE
  8
0
 62
     4
 10
91.732056
 20
-215.610947
 11
90.865997
 21
-214.263336
  0
LINE
  8
0
 62
     4
 10
-3.000000
 20
-102.759689
 11
8.231522
 21
-102.759689
  0
LINE
  8
0
 62
     4
 10
13.770393
 20
-102.759689
 11
25.000000
 21
-102.759689
  0
LINE
  8
0
 62
     4
 10
7.000000
 20
-99.382423
 11
7.000000
 21
-101.491966
  0
LINE
  8
0
 62
     4
 10
15.000000
 20
-99.382423
 11
15.000000
 21
-101.491966
  0
LINE
  8
0
 62
     4
 10
9.238047
 20
-102.464043
 11
12.761938
 21
-101.519814
  0
LINE
  8
0
 62
     4
 10
9.238058
 20
-101.519836
 11
12.761950
 21
-102.464058
  0
LINE
  8
0
 62
     4
 10
-3.000000
 20
-102.500145
 11
7.723770
 21
-102.500145
  0
LINE
  8
0
 62
     4
 10
-3.000000
 20
-100.743317
 11
7.000000
 21
-100.743317
  0
LINE
  8
0
 62
     4
 10
-3.000000
 20
-100.475792
 11
7.000000
 21
-100.475792
  0
LINE
  8
0
 62
     4
 10
15.000000
 20
-100.475792
 11
25.000000
 21
-100.475792
  0
LINE
  8
0
 62
     4
 10
15.000000
 20
-100.743317
 11
20.500000
 21
-100.743317
  0
LINE
  8
0
 62
     4
 10
14.277016
 20
-102.500145
 11
25.000000
 21
-102.500145
  0
LINE
  8
0
 62
     4
 10
-4.500000
 20
-97.818558
 11
-4.500000
 21
-101.831345
  0
LINE
  8
0
 62
     4
 10
-2.999994
 20
-97.149811
 11
-4.499994
 21
-97.818588
  0
LINE
  8
0
 62
     4
 10
-2.999998
 20
-100.743309
 11
-4.500001
 21
-100.513718
  0
LINE
  8
0
 62
     4
 10
-3.000010
 20
-102.500183
 11
-4.500012
 21
-101.831383
  0
LINE
  8
0
 62
     4
 10
-3.000000
 20
-100.475792
 11
7.000000
 21
-100.475792
  0
LINE
  8
0
 62
     4
 10
15.000000
 20
-100.475792
 11
25.000000
 21
-100.475792
  0
LINE
  8
0
 62
     4
 10
20.500000
 20
-100.475792
 11
20.500000
 21
-102.500145
  0
LINE
  8
0
 62
     4
 10
25.000000
 20
-98.324951
 11
48.267944
 21
-98.324951
  0
LINE
  8
0
 62
     4
 10
20.500000
 20
-101.324951
 11
50.000000
 21
-101.324951
  0
LINE
  8
0
 62
     4
 10
50.000004
 20
-101.324951
 11
48.267952
 21
-98.324951
  0
LINE
  8
0
 62
     4
 10
25.000000
 20
-101.324951
 11
25.000000
 21
-102.759689
  0
LINE
  8
0
 62
     4
 10
-3.000000
 20
-58.099998
 11
25.000000
 21
-58.099998
  0
LINE
  8
0
 62
     4
 10
-3.000000
 20
-80.559608
 11
25.000000
 21
-80.559608
  0
LINE
  8
0
 62
     4
 10
-3.000000
 20
-96.610764
 11
25.000000
 21
-96.610764
  0
LINE
  8
0
 62
     4
 10
83.000000
 20
-221.900009
 11
111.000000
 21
-221.900009
  0
LINE
  8
0
 62
     4
 10
83.000000
 20
-199.440369
 11
111.000000
 21
-199.440369
  0
LINE
  8
0
 62
     4
 10
83.000000
 20
-183.389267
 11
111.000000
 21
-183.389267
  0
LINE
  8
0
 10
111.000000
 20
-215.000000
 11
118.000000
 21
-215.000000
  0
LINE
  8
0
 10
-259.000000
 20
-131.753784
 11
-259.000000
 21
-148.246216
  0
LINE
  8
0
 10
-291.000000
 20
-131.753784
 11
-291.000000
 21
-148.246216
  0
LINE
  8
0
  6
CENTER
 62
     2
 10
-361.455475
 20
-140.000000
 11
-191.310089
 21
-140.000000
  0
LINE
  8
0
  6
CENTER
 62
     2
 10
-275.000000
 20
-56.157272
 11
-275.000000
 21
-225.480713
  0
LINE
  8
0
  6
CENTER
 62
     2
 10
-211.000000
 20
-61.500000
 11
-211.000000
 21
-90.500000
  0
LINE
  8
0
  6
CENTER
 62
     2
 10
-339.000000
 20
-61.000000
 11
-339.000000
 21
-89.500000
  0
LINE
  8
0
  6
CENTER
 62
     2
 10
-352.250000
 20
-76.000000
 11
-325.250000
 21
-76.000000
  0
LINE
  8
0
  6
CENTER
 62
     2
 10
-352.500000
 20
-204.000000
 11
-325.500000
 21
-204.000000
  0
LINE
  8
0
 10
-328.000000
 20
-197.649155
 11
-328.000000
 21
-210.350861
  0
LINE
  8
0
 10
-350.000000
 20
-197.649155
 11
-350.000000
 21
-210.350861
  0
LINE
  8
0
 10
-349.999786
 20
-197.649307
 11
-338.999756
 21
-191.298462
  0
LINE
  8
0
 10
-338.999786
 20
-216.701981
 11
-327.999725
 21
-210.351105
  0
LINE
  8
0
 10
-338.999786
 20
-191.297974
 11
-327.999878
 21
-197.648804
  0
LINE
  8
0
 10
-349.999908
 20
-210.350815
 11
-338.999939
 21
-216.701630
  0
LINE
  8
0
  6
CENTER
 62
     2
 10
-339.000000
 20
-189.000000
 11
-339.000000
 21
-218.750000
  0
LINE
  8
0
  6
CENTER
 62
     2
 10
-223.250000
 20
-204.000000
 11
-197.000000
 21
-204.000000
  0
LINE
  8
0
  6
CENTER
 62
     2
 10
-211.000000
 20
-188.250000
 11
-211.000000
 21
-217.500000
  0
LINE
  8
0
  6
CENTER
 62
     2
 10
-224.250000
 20
-76.000000
 11
-198.000000
 21
-76.000000
  0
LINE
  8
0
 10
-302.413147
 20
-163.170532
 11
-299.067078
 21
-164.067123
  0
LINE
  8
0
 10
-303.966125
 20
-168.966110
 11
-300.620026
 21
-169.862686
  0
LINE
  8
0
 10
-304.862518
 20
-165.619888
 11
-303.965942
 21
-168.965958
  0
LINE
  8
0
 10
-299.066925
 20
-164.067062
 11
-298.170349
 21
-167.413071
  0
LINE
  8
0
 10
-300.619873
 20
-169.862579
 11
-298.170410
 21
-167.413101
  0
LINE
  8
0
 10
-304.862518
 20
-165.619980
 11
-302.413025
 21
-163.170486
  0
LINE
  8
0
 10
-300.619904
 20
-110.137405
 11
-298.170410
 21
-112.586899
  0
LINE
  8
0
 10
-298.170471
 20
-112.586952
 11
-299.067047
 21
-115.933029
  0
LINE
  8
0
 10
-303.966156
 20
-111.033951
 11
-304.862732
 21
-114.380013
  0
LINE
  8
0
 10
-300.619873
 20
-110.137390
 11
-303.965942
 21
-111.033966
  0
LINE
  8
0
 10
-299.067017
 20
-115.932991
 11
-302.413025
 21
-116.829552
  0
LINE
  8
0
 10
-304.862427
 20
-114.380005
 11
-302.412994
 21
-116.829460
  0
LINE
  8
0
 10
-247.586777
 20
-163.170349
 11
-245.137283
 21
-165.619858
  0
LINE
  8
0
 10
-245.137482
 20
-165.619919
 11
-246.034058
 21
-168.965988
  0
LINE
  8
0
 10
-250.933136
 20
-164.066986
 11
-251.829712
 21
-167.413055
  0
LINE
  8
0
 10
-247.586868
 20
-163.170425
 11
-250.932953
 21
-164.067001
  0
LINE
  8
0
 10
-246.034027
 20
-168.965988
 11
-249.380035
 21
-169.862549
  0
LINE
  8
0
 10
-251.829468
 20
-167.413025
 11
-249.380005
 21
-169.862503
  0
LINE
  8
0
 10
-251.829498
 20
-112.586975
 11
-249.379990
 21
-110.137474
  0
LINE
  8
0
 10
-249.380157
 20
-110.137428
 11
-246.034088
 21
-111.034012
  0
LINE
  8
0
 10
-250.933044
 20
-115.933067
 11
-247.586975
 21
-116.829651
  0
LINE
  8
0
 10
-251.829468
 20
-112.586861
 11
-250.932892
 21
-115.932938
  0
LINE
  8
0
 10
-246.033936
 20
-111.033981
 11
-245.137375
 21
-114.379997
  0
LINE
  8
0
 10
-247.586838
 20
-116.829559
 11
-245.137375
 21
-114.380096
  0
LINE
  8
0
 10
-200.000000
 20
-197.649155
 11
-200.000000
 21
-210.350861
  0
LINE
  8
0
 10
-222.000000
 20
-197.649155
 11
-222.000000
 21
-210.350861
  0
LINE
  8
0
 10
-221.999908
 20
-197.649216
 11
-210.999878
 21
-191.298370
  0
LINE
  8
0
 10
-210.999893
 20
-216.701752
 11
-199.999878
 21
-210.350891
  0
LINE
  8
0
 10
-210.999878
 20
-191.298096
 11
-199.999939
 21
-197.648926
  0
LINE
  8
0
 10
-221.999908
 20
-210.350845
 11
-210.999924
 21
-216.701691
  0
LINE
  8
0
 10
-200.000000
 20
-69.649155
 11
-200.000000
 21
-82.350861
  0
LINE
  8
0
 10
-222.000000
 20
-69.649155
 11
-222.000000
 21
-82.350861
  0
LINE
  8
0
 10
-221.999786
 20
-69.649368
 11
-210.999802
 21
-63.298553
  0
LINE
  8
0
 10
-210.999786
 20
-88.702026
 11
-199.999756
 21
-82.351151
  0
LINE
  8
0
 10
-210.999924
 20
-63.298199
 11
-199.999969
 21
-69.649040
  0
LINE
  8
0
 10
-221.999954
 20
-82.350830
 11
-210.999969
 21
-88.701668
  0
LINE
  8
0
 10
-328.000000
 20
-69.649155
 11
-328.000000
 21
-82.350861
  0
LINE
  8
0
 10
-350.000000
 20
-69.649155
 11
-350.000000
 21
-82.350861
  0
LINE
  8
0
 10
-349.999725
 20
-69.649513
 11
-338.999695
 21
-63.298672
  0
LINE
  8
0
 10
-338.999603
 20
-88.702209
 11
-327.999573
 21
-82.351334
  0
LINE
  8
0
 10
-338.999847
 20
-63.298187
 11
-327.999939
 21
-69.649002
  0
LINE
  8
0
 10
-349.999969
 20
-82.350822
 11
-338.999939
 21
-88.701675
  0
LINE
  8
0
 10
-355.000000
 20
-60.000000
 11
-355.000000
 21
-220.000000
  0
LINE
  8
0
 10
-195.000000
 20
-60.000000
 11
-195.000000
 21
-220.000000
  0
LINE
  8
0
 10
-355.000000
 20
-220.000000
 11
-195.000000
 21
-220.000000
  0
LINE
  8
0
 10
-355.000000
 20
-60.000000
 11
-195.000000
 21
-60.000000
  0
LINE
  8
0
  6
DASHED
 62
     1
 10
-222.315338
 20
-67.543022
 11
-213.970337
 21
-84.612335
  0
LINE
  8
0
  6
DASHED
 62
     1
 10
-200.494553
 20
-78.024170
 11
-213.970306
 21
-84.612320
  0
LINE
  8
0
  6
DASHED
 62
     1
 10
-226.358063
 20
-69.519485
 11
-210.107285
 21
-102.759712
  0
LINE
  8
0
 62
     4
 10
-203.000015
 20
-58.099987
 11
-206.886383
 21
-59.999992
  0
LINE
  8
0
  6
DASHED
 62
     1
 10
-197.529816
 20
-96.610733
 11
-205.435608
 21
-100.475784
  0
LINE
  8
0
  6
DASHED
 62
     1
 10
-208.839569
 20
-60.954887
 11
-200.494568
 21
-78.024193
  0
LINE
  8
0
 62
     4
 10
-192.019867
 20
-80.559578
 11
-195.000168
 21
-89.241341
  0
LINE
  8
0
  6
DASHED
 62
     1
 10
-222.315277
 20
-67.543007
 11
-226.358002
 21
-69.519447
  0
LINE
  8
0
  6
DASHED
 62
     1
 10
-210.877869
 20
-98.906631
 11
-209.121033
 21
-102.500168
  0
LINE
  8
0
  6
DASHED
 62
     1
 10
-207.104675
 20
-97.061951
 11
-210.877884
 21
-98.906631
  0
LINE
  8
0
  6
DASHED
 62
     1
 10
-209.208817
 20
-102.320465
 11
-210.107193
 21
-102.759674
  0
LINE
  8
0
  6
DASHED
 62
     1
 10
-203.479004
 20
-98.103020
 11
-200.772064
 21
-103.639969
  0
LINE
  8
0
  6
DASHED
 62
     1
 10
-226.358063
 20
-69.519485
 11
-210.107285
 21
-102.759712
  0
LINE
  8
0
  6
DASHED
 62
     1
 10
-199.148956
 20
-97.624924
 11
-209.121033
 21
-102.500160
  0
LINE
  8
0
  6
DASHED
 62
     1
 10
-207.104645
 20
-97.061958
 11
-205.435654
 21
-100.475822
  0
LINE
  8
0
  6
CENTER
 62
     1
 10
-199.406479
 20
-64.134933
 11
-212.709915
 21
-70.638832
  0
LINE
  8
0
  6
DASHED
 62
     1
 10
-210.250854
 20
-69.436661
 11
-206.238068
 21
-70.814186
  0
LINE
  8
0
  6
DASHED
 62
     1
 10
-208.873367
 20
-65.423790
 11
-210.250885
 21
-69.436569
  0
LINE
  8
0
  6
DASHED
 62
     1
 10
-206.819138
 20
-65.087440
 11
-209.148788
 21
-66.226349
  0
LINE
  8
0
  6
DASHED
 62
     1
 10
-204.710953
 20
-69.399673
 11
-207.040604
 21
-70.538597
  0
LINE
  8
0
 62
     4
 10
-203.000031
 20
-58.100002
 11
-202.071136
 21
-60.000008
  0
LINE
  8
0
  6
DASHED
 62
     1
 10
-207.082687
 20
-64.548401
 11
-208.873306
 21
-65.423798
  0
LINE
  8
0
  6
DASHED
 62
     1
 10
-204.447372
 20
-69.938713
 11
-206.237991
 21
-70.814110
  0
LINE
  8
0
  6
DASHED
 62
     1
 10
-210.209091
 20
-99.136246
 11
-208.891464
 21
-101.831398
  0
LINE
  8
0
  6
DASHED
 62
     1
 10
-207.513947
 20
-97.818588
 11
-206.196320
 21
-100.513741
  0
LINE
  8
0
  6
DASHED
 62
     1
 10
-206.196289
 20
-100.513733
 11
-208.891449
 21
-101.831367
  0
LINE
  8
0
  6
DASHED
 62
     1
 10
-207.513931
 20
-97.818581
 11
-210.209091
 21
-99.136215
  0
LINE
  8
0
  6
DASHED
 62
     1
 10
-210.209030
 20
-99.136200
 11
-210.877838
 21
-98.906609
  0
LINE
  8
0
  6
DASHED
 62
     1
 10
-208.891403
 20
-101.831337
 11
-209.120987
 21
-102.500137
  0
LINE
  8
0
  6
DASHED
 62
     1
 10
-207.284286
 20
-97.149742
 11
-207.513870
 21
-97.818550
  0
LINE
  8
0
  6
DASHED
 62
     1
 10
-206.226242
 20
-98.858711
 11
-212.217117
 21
-101.787582
  0
LINE
  8
0
  6
DASHED
 62
     1
 10
-198.227448
 20
-99.734566
 11
-205.416809
 21
-103.249359
  0
LINE
  8
0
  6
DASHED
 62
     1
 10
-206.196259
 20
-100.513718
 11
-205.527466
 21
-100.743309
  0
LINE
  8
0
  6
DASHED
 62
     1
 10
-207.284332
 20
-97.149780
 11
-205.527496
 21
-100.743317
  0
LINE
  8
0
  6
DASHED
 62
     1
 10
-206.515747
 20
-101.226471
 11
-206.252228
 21
-101.765495
  0
LINE
  8
0
  6
DASHED
 62
     1
 10
-199.148987
 20
-97.624939
 11
-198.885468
 21
-98.163971
  0
LINE
  8
0
  6
DASHED
 62
     1
 10
-198.885361
 20
-98.163948
 11
-206.252136
 21
-101.765480
  0
LINE
  8
0
  6
DASHED
 62
     1
 10
-206.297150
 20
-101.787468
 11
-205.416885
 21
-103.249405
  0
LINE
  8
0
  6
DASHED
 62
     1
 10
-198.840576
 20
-98.142014
 11
-198.227539
 21
-99.734589
  0
LINE
  8
0
  6
DASHED
 62
     1
 10
-206.886383
 20
-59.999992
 11
-208.839508
 21
-60.954853
  0
LINE
  8
0
  6
DASHED
 62
     1
 10
-202.071136
 20
-60.000008
 11
-195.000015
 21
-74.463638
  0
LINE
  8
0
 62
     4
 10
-195.000015
 20
-74.463638
 11
-192.019775
 21
-80.559616
  0
LINE
  8
0
  6
DASHED
 62
     1
 10
-195.000168
 20
-89.241341
 11
-197.529968
 21
-96.610733
  0
LINE
  8
0
  6
DASHED
 62
     1
 10
-206.297073
 20
-178.212555
 11
-205.416824
 21
-176.750641
  0
LINE
  8
0
  6
DASHED
 62
     1
 10
-198.885452
 20
-181.836136
 11
-206.252228
 21
-178.234589
  0
LINE
  8
0
  6
DASHED
 62
     1
 10
-198.840515
 20
-181.858002
 11
-198.227463
 21
-180.265427
  0
LINE
  8
0
  6
DASHED
 62
     1
 10
-199.148972
 20
-182.375076
 11
-198.885452
 21
-181.836075
  0
LINE
  8
0
  6
DASHED
 62
     1
 10
-206.886368
 20
-219.999985
 11
-208.839493
 21
-219.045120
  0
LINE
  8
0
  6
DASHED
 62
     1
 10
-202.071152
 20
-220.000015
 11
-195.000046
 21
-205.536377
  0
LINE
  8
0
  6
DASHED
 62
     1
 10
-195.000092
 20
-190.758621
 11
-197.529877
 21
-183.389236
  0
LINE
  8
0
 62
     4
 10
-194.999985
 20
-205.536377
 11
-192.019730
 21
-199.440399
  0
LINE
  8
0
  6
DASHED
 62
     1
 10
-222.315353
 20
-212.457047
 11
-213.970337
 21
-195.387680
  0
LINE
  8
0
  6
DASHED
 62
     1
 10
-200.494507
 20
-201.975845
 11
-213.970261
 21
-195.387680
  0
LINE
  8
0
  6
DASHED
 62
     1
 10
-226.357986
 20
-210.480545
 11
-210.107193
 21
-177.240326
  0
LINE
  8
0
 62
     4
 10
-203.000031
 20
-221.899963
 11
-206.886398
 21
-219.999969
  0
LINE
  8
0
  6
DASHED
 62
     1
 10
-197.529877
 20
-183.389297
 11
-205.435684
 21
-179.524246
  0
LINE
  8
0
  6
DASHED
 62
     1
 10
-208.839539
 20
-219.045135
 11
-200.494537
 21
-201.975845
  0
LINE
  8
0
 62
     4
 10
-192.019791
 20
-199.440369
 11
-195.000092
 21
-190.758606
  0
LINE
  8
0
  6
DASHED
 62
     1
 10
-222.315292
 20
-212.457001
 11
-226.358017
 21
-210.480545
  0
LINE
  8
0
  6
DASHED
 62
     1
 10
-210.877808
 20
-181.093369
 11
-209.120987
 21
-177.499847
  0
LINE
  8
0
  6
DASHED
 62
     1
 10
-207.104660
 20
-182.938095
 11
-210.877853
 21
-181.093414
  0
LINE
  8
0
  6
DASHED
 62
     1
 10
-209.208817
 20
-177.679474
 11
-210.107193
 21
-177.240265
  0
LINE
  8
0
  6
DASHED
 62
     1
 10
-203.478958
 20
-181.897018
 11
-200.772003
 21
-176.360046
  0
LINE
  8
0
  6
DASHED
 62
     1
 10
-226.357986
 20
-210.480545
 11
-210.107193
 21
-177.240326
  0
LINE
  8
0
  6
DASHED
 62
     1
 10
-199.148972
 20
-182.375122
 11
-209.121048
 21
-177.499893
  0
LINE
  8
0
  6
DASHED
 62
     1
 10
-207.104614
 20
-182.938065
 11
-205.435623
 21
-179.524170
  0
LINE
  8
0
  6
CENTER
 62
     1
 10
-199.406601
 20
-215.865173
 11
-212.710022
 21
-209.361282
  0
LINE
  8
0
  6
DASHED
 62
     1
 10
-210.250839
 20
-210.563400
 11
-206.238052
 21
-209.185867
  0
LINE
  8
0
  6
DASHED
 62
     1
 10
-208.873306
 20
-214.576187
 11
-210.250824
 21
-210.563431
  0
LINE
  8
0
  6
DASHED
 62
     1
 10
-206.819199
 20
-214.912643
 11
-209.148834
 21
-213.773743
  0
LINE
  8
0
  6
DASHED
 62
     1
 10
-204.710953
 20
-210.600327
 11
-207.040604
 21
-209.461411
  0
LINE
  8
0
 62
     4
 10
-203.000061
 20
-221.899994
 11
-202.071167
 21
-220.000000
  0
LINE
  8
0
  6
DASHED
 62
     1
 10
-207.082687
 20
-215.451614
 11
-208.873306
 21
-214.576218
  0
LINE
  8
0
  6
DASHED
 62
     1
 10
-204.447388
 20
-210.061264
 11
-206.238007
 21
-209.185883
  0
LINE
  8
0
  6
DASHED
 62
     1
 10
-210.209091
 20
-180.863800
 11
-208.891464
 21
-178.168610
  0
LINE
  8
0
  6
DASHED
 62
     1
 10
-207.513931
 20
-182.181427
 11
-206.196320
 21
-179.486282
  0
LINE
  8
0
  6
DASHED
 62
     1
 10
-206.196320
 20
-179.486343
 11
-208.891479
 21
-178.168716
  0
LINE
  8
0
  6
DASHED
 62
     1
 10
-207.513962
 20
-182.181519
 11
-210.209122
 21
-180.863892
  0
LINE
  8
0
  6
DASHED
 62
     1
 10
-210.209030
 20
-180.863815
 11
-210.877838
 21
-181.093399
  0
LINE
  8
0
  6
DASHED
 62
     1
 10
-208.891495
 20
-178.168701
 11
-209.121078
 21
-177.499908
  0
LINE
  8
0
  6
DASHED
 62
     1
 10
-207.284378
 20
-182.850266
 11
-207.513977
 21
-182.181458
  0
LINE
  8
0
  6
DASHED
 62
     1
 10
-206.226196
 20
-181.141312
 11
-212.217072
 21
-178.212433
  0
LINE
  8
0
  6
DASHED
 62
     1
 10
-198.227417
 20
-180.265381
 11
-205.416763
 21
-176.750580
  0
LINE
  8
0
  6
DASHED
 62
     1
 10
-206.196274
 20
-179.486298
 11
-205.527481
 21
-179.256714
  0
LINE
  8
0
  6
DASHED
 62
     1
 10
-207.284286
 20
-182.850220
 11
-205.527451
 21
-179.256699
  0
LINE
  8
0
  6
DASHED
 62
     1
 10
-206.515671
 20
-178.773544
 11
-206.252136
 21
-178.234512
  0
LINE
  8
0
 10
-155.000000
 20
134.250000
 11
-155.000000
 21
105.750000
  0
LINE
  8
0
  6
CENTER
 62
     2
 10
-162.972839
 20
120.000000
 11
366.806854
 21
120.000000
  0
LINE
  8
0
 10
-154.250000
 20
135.000000
 11
-102.000000
 21
135.000000
  0
LINE
  8
0
 10
-105.000000
 20
135.000000
 11
-105.000000
 21
105.000000
  0
LINE
  8
0
 10
-102.000000
 20
135.000000
 11
-102.000000
 21
105.000000
  0
LINE
  8
0
 10
-101.999939
 20
134.999908
 11
-100.267807
 21
135.999954
  0
LINE
  8
0
 10
-88.845306
 20
138.000000
 11
-83.000000
 21
138.000000
  0
LINE
  8
0
 10
-96.803848
 20
136.000000
 11
-96.803848
 21
104.000000
  0
LINE
  8
0
 10
-83.000000
 20
148.000000
 11
-83.000000
 21
92.000000
  0
LINE
  8
0
 10
-82.000000
 20
149.000000
 11
-82.000000
 21
91.000000
  0
LINE
  8
0
 10
-83.000046
 20
148.000061
 11
-82.000046
 21
149.000046
  0
LINE
  8
0
 10
-82.999939
 20
92.000069
 11
-81.999939
 21
91.000076
  0
LINE
  8
0
 10
-45.000000
 20
200.000000
 11
-45.000000
 21
40.000000
  0
LINE
  8
0
 10
-50.200012
 20
164.000000
 11
-50.200012
 21
76.000000
  0
LINE
  8
0
 10
-49.200012
 20
165.000000
 11
-49.200012
 21
75.000000
  0
LINE
  8
0
 10
-50.199837
 20
163.999924
 11
-49.199913
 21
164.999863
  0
LINE
  8
0
 10
-58.200012
 20
152.216492
 11
-58.200012
 21
140.816498
  0
LINE
  8
0
 10
-58.200012
 20
99.183502
 11
-58.200012
 21
87.783493
  0
LINE
  8
0
 10
-81.999992
 20
148.999939
 11
-58.200012
 21
149.951935
  0
LINE
  8
0
 10
-82.000023
 20
91.000008
 11
-58.200024
 21
90.048004
  0
LINE
  8
0
 10
-57.000000
 20
156.500000
 11
-57.000000
 21
153.016510
  0
LINE
  8
0
 10
-10.000000
 20
200.000000
 11
-10.000000
 21
40.000000
  0
LINE
  8
0
 10
-45.000000
 20
200.000000
 11
-10.000000
 21
200.000000
  0
LINE
  8
0
  6
CENTER
 62
     2
 10
-77.876854
 20
56.000000
 11
183.200012
 21
56.000000
  0
LINE
  8
0
 10
180.000000
 20
49.999619
 11
180.000000
 21
61.999619
  0
LINE
  8
0
 10
179.000000
 20
48.999619
 11
179.000000
 21
62.999619
  0
LINE
  8
0
 10
179.000000
 20
49.000000
 11
167.500000
 21
49.000000
  0
LINE
  8
0
 10
179.000000
 20
63.000000
 11
167.500000
 21
63.000000
  0
LINE
  8
0
 10
179.999863
 20
49.999699
 11
178.999863
 21
48.999695
  0
LINE
  8
0
 10
179.999557
 20
61.999199
 11
178.999527
 21
62.999233
  0
LINE
  8
0
  6
CENTER
 62
     2
 10
-77.500000
 20
184.000000
 11
184.799988
 21
184.000000
  0
LINE
  8
0
 10
-71.000000
 20
49.000000
 11
-59.500000
 21
49.000000
  0
LINE
  8
0
 10
-71.999992
 20
61.999989
 11
-70.999992
 21
62.999989
  0
LINE
  8
0
 10
-71.999954
 20
50.000015
 11
-70.999962
 21
49.000027
  0
LINE
  8
0
 10
-72.000000
 20
62.000000
 11
-72.000000
 21
50.000000
  0
LINE
  8
0
 10
-71.000000
 20
63.000000
 11
-71.000000
 21
49.000000
  0
LINE
  8
0
 10
-71.000000
 20
63.000000
 11
-59.500000
 21
63.000000
  0
LINE
  8
0
 10
-50.199989
 20
76.000008
 11
-49.199970
 21
75.000008
  0
LINE
  8
0
  6
CENTER
 62
     2
 10
137.000000
 20
132.500000
 11
137.000000
 21
107.500000
  0
LINE
  8
0
 10
-10.000000
 20
191.000000
 11
118.000000
 21
191.000000
  0
LINE
  8
0
 10
-10.000000
 20
177.000000
 11
118.000000
 21
177.000000
  0
LINE
  8
0
 10
-10.000000
 20
63.000000
 11
118.000000
 21
63.000000
  0
LINE
  8
0
 10
-10.000000
 20
49.000000
 11
-3.000000
 21
49.000000
  0
LINE
  8
0
 10
153.000000
 20
200.000000
 11
153.000000
 21
40.000000
  0
LINE
  8
0
 10
118.000000
 20
200.000000
 11
118.000000
 21
40.000000
  0
LINE
  8
0
 10
118.000000
 20
200.000000
 11
153.000000
 21
200.000000
  0
LINE
  8
0
 10
-71.999985
 20
178.000015
 11
-70.999985
 21
177.000000
  0
LINE
  8
0
 10
-71.999954
 20
189.999985
 11
-70.999954
 21
190.999969
  0
LINE
  8
0
 10
-71.000000
 20
177.000000
 11
-59.500000
 21
177.000000
  0
LINE
  8
0
 10
-72.000000
 20
190.000000
 11
-72.000000
 21
178.000000
  0
LINE
  8
0
 10
-71.000000
 20
191.000000
 11
-71.000000
 21
177.000000
  0
LINE
  8
0
 10
-71.000000
 20
191.000000
 11
-59.500000
 21
191.000000
  0
LINE
  8
0
 10
179.999771
 20
189.999466
 11
178.999771
 21
190.999466
  0
LINE
  8
0
 10
179.999710
 20
177.999847
 11
178.999741
 21
176.999863
  0
LINE
  8
0
 10
179.000000
 20
191.000000
 11
167.500000
 21
191.000000
  0
LINE
  8
0
 10
180.000000
 20
177.999634
 11
180.000000
 21
189.999619
  0
LINE
  8
0
 10
179.000000
 20
176.999634
 11
179.000000
 21
190.999619
  0
LINE
  8
0
 10
179.000000
 20
177.000000
 11
167.500000
 21
177.000000
  0
LINE
  8
0
 10
-56.000000
 20
157.500000
 11
-50.200012
 21
157.500000
  0
LINE
  8
0
 10
-56.000000
 20
82.500000
 11
-50.200012
 21
82.500000
  0
LINE
  8
0
 10
-57.000000
 20
140.016510
 11
-57.000000
 21
99.983490
  0
LINE
  8
0
 10
-57.000000
 20
86.983490
 11
-57.000000
 21
83.500000
  0
LINE
  8
0
 10
-57.400009
 20
86.983490
 11
-50.200012
 21
86.983490
  0
LINE
  8
0
 10
-57.400009
 20
99.983490
 11
-50.200012
 21
99.983490
  0
LINE
  8
0
 10
-57.400009
 20
153.016510
 11
-50.200012
 21
153.016510
  0
LINE
  8
0
 10
-57.400009
 20
140.016510
 11
-50.200012
 21
140.016510
  0
LINE
  8
0
 10
-58.200050
 20
152.216537
 11
-57.400055
 21
153.016525
  0
LINE
  8
0
 10
-58.200020
 20
140.816483
 11
-57.400017
 21
140.016479
  0
LINE
  8
0
 10
-57.400002
 20
99.983467
 11
-58.199997
 21
99.183479
  0
LINE
  8
0
 10
-58.200024
 20
87.783463
 11
-57.400028
 21
86.983467
  0
LINE
  8
0
 10
-57.400032
 20
153.016510
 11
-57.400032
 21
140.016510
  0
LINE
  8
0
 10
-57.400017
 20
99.983490
 11
-57.400017
 21
86.983490
  0
LINE
  8
0
 10
153.000000
 20
68.000000
 11
156.500000
 21
68.000000
  0
LINE
  8
0
 10
153.000000
 20
44.000000
 11
156.500000
 21
44.000000
  0
LINE
  8
0
 10
-48.500000
 20
68.000000
 11
-45.000000
 21
68.000000
  0
LINE
  8
0
 10
-48.500000
 20
44.000000
 11
-45.000000
 21
44.000000
  0
LINE
  8
0
 10
-48.500000
 20
196.000000
 11
-45.000000
 21
196.000000
  0
LINE
  8
0
 10
-48.500000
 20
172.000000
 11
-45.000000
 21
172.000000
  0
LINE
  8
0
 10
153.000000
 20
196.000000
 11
156.500000
 21
196.000000
  0
LINE
  8
0
 10
153.000000
 20
172.000000
 11
156.500000
 21
172.000000
  0
LINE
  8
0
 10
-49.199989
 20
75.000000
 11
-45.000000
 21
75.000000
  0
LINE
  8
0
 10
-49.200043
 20
165.000000
 11
-45.000000
 21
165.000000
  0
LINE
  8
0
 10
-45.000000
 20
40.000000
 11
-10.000000
 21
40.000000
  0
LINE
  8
0
 10
118.000000
 20
40.000000
 11
153.000000
 21
40.000000
  0
LINE
  8
0
 10
-10.000000
 20
45.000000
 11
-3.000000
 21
45.000000
  0
LINE
  8
0
 10
-10.000000
 20
195.000000
 11
118.000000
 21
195.000000
  0
LINE
  8
0
 62
     2
 10
180.000000
 20
189.600006
 11
167.500000
 21
189.600006
  0
LINE
  8
0
 62
     2
 10
180.000000
 20
178.399994
 11
167.500000
 21
178.399994
  0
LINE
  8
0
 62
     2
 10
180.000000
 20
61.600006
 11
167.500000
 21
61.600006
  0
LINE
  8
0
 62
     2
 10
180.000000
 20
50.399994
 11
167.500000
 21
50.399994
  0
LINE
  8
0
 62
     2
 10
-72.000000
 20
61.600006
 11
-59.500000
 21
61.600006
  0
LINE
  8
0
 62
     2
 10
-72.000000
 20
50.399994
 11
-59.500000
 21
50.399994
  0
LINE
  8
0
 62
     2
 10
-72.000000
 20
189.600006
 11
-59.500000
 21
189.600006
  0
LINE
  8
0
 62
     2
 10
-72.000000
 20
178.399994
 11
-59.500000
 21
178.399994
  0
LINE
  8
0
 62
     2
 10
-155.000000
 20
134.250000
 11
-105.000000
 21
134.250000
  0
LINE
  8
0
 62
     2
 10
-105.000000
 20
134.249985
 11
-103.392876
 21
134.999969
  0
LINE
  8
0
 10
362.250000
 20
135.000000
 11
310.000000
 21
135.000000
  0
LINE
  8
0
 10
313.000000
 20
135.000000
 11
313.000000
 21
105.000000
  0
LINE
  8
0
 10
310.000000
 20
135.000000
 11
310.000000
 21
105.000000
  0
LINE
  8
0
 10
191.000000
 20
148.000000
 11
191.000000
 21
92.000000
  0
LINE
  8
0
 10
190.000000
 20
149.000000
 11
190.000000
 21
91.000000
  0
LINE
  8
0
 10
190.999893
 20
147.999939
 11
189.999893
 21
148.999939
  0
LINE
  8
0
 10
190.999924
 20
92.000008
 11
189.999924
 21
91.000008
  0
LINE
  8
0
 10
158.200012
 20
164.000000
 11
158.200012
 21
76.000000
  0
LINE
  8
0
 10
157.200012
 20
165.000000
 11
157.200012
 21
75.000000
  0
LINE
  8
0
 10
158.199661
 20
163.999725
 11
157.199738
 21
164.999680
  0
LINE
  8
0
 10
166.200012
 20
152.216492
 11
166.200012
 21
140.816498
  0
LINE
  8
0
 10
166.200012
 20
99.183502
 11
166.200012
 21
87.783493
  0
LINE
  8
0
 10
190.000031
 20
149.000031
 11
166.200027
 21
149.952026
  0
LINE
  8
0
 10
190.000015
 20
91.000023
 11
166.200043
 21
90.048019
  0
LINE
  8
0
 10
165.000000
 20
156.500000
 11
165.000000
 21
153.016510
  0
LINE
  8
0
 10
158.199982
 20
76.000023
 11
157.199997
 21
75.000031
  0
LINE
  8
0
 10
164.000000
 20
157.500000
 11
158.200012
 21
157.500000
  0
LINE
  8
0
 10
164.000000
 20
82.500000
 11
158.200012
 21
82.500000
  0
LINE
  8
0
 10
165.000000
 20
140.016510
 11
165.000000
 21
99.983490
  0
LINE
  8
0
 10
165.000000
 20
86.983490
 11
165.000000
 21
83.500000
  0
LINE
  8
0
 10
165.400024
 20
86.983490
 11
158.200012
 21
86.983490
  0
LINE
  8
0
 10
165.400024
 20
99.983490
 11
158.200012
 21
99.983490
  0
LINE
  8
0
 10
165.400024
 20
153.016510
 11
158.200012
 21
153.016510
  0
LINE
  8
0
 10
165.400024
 20
140.016510
 11
158.200012
 21
140.016510
  0
LINE
  8
0
 10
166.200104
 20
152.216660
 11
165.400116
 21
153.016647
  0
LINE
  8
0
 10
166.199844
 20
140.816635
 11
165.399857
 21
140.016632
  0
LINE
  8
0
 10
165.399979
 20
99.983429
 11
166.199966
 21
99.183418
  0
LINE
  8
0
 10
166.200089
 20
87.783394
 11
165.400116
 21
86.983406
  0
LINE
  8
0
 10
165.400024
 20
153.016510
 11
165.400024
 21
140.016510
  0
LINE
  8
0
 10
165.400024
 20
99.983490
 11
165.400024
 21
86.983490
  0
LINE
  8
0
 10
157.200012
 20
75.000000
 11
153.000000
 21
75.000000
  0
LINE
  8
0
 10
157.200043
 20
165.000000
 11
153.000000
 21
165.000000
  0
LINE
  8
0
 62
     2
 10
363.000000
 20
134.250000
 11
313.000000
 21
134.250000
  0
LINE
  8
0
 62
     2
 10
312.999969
 20
134.249893
 11
311.392700
 21
134.999939
  0
LINE
  8
0
 10
-155.000168
 20
134.250122
 11
-154.250153
 21
135.000122
  0
LINE
  8
0
 10
-154.250000
 20
135.000000
 11
-154.250000
 21
105.000000
  0
LINE
  8
0
 10
-154.999985
 20
105.750069
 11
-154.249985
 21
105.000053
  0
LINE
  8
0
 62
     2
 10
-155.000000
 20
105.750000
 11
-105.000000
 21
105.750000
  0
LINE
  8
0
 10
-154.250000
 20
105.000000
 11
-102.000000
 21
105.000000
  0
LINE
  8
0
 62
     2
 10
-104.999954
 20
105.749992
 11
-103.392860
 21
105.000031
  0
LINE
  8
0
 10
363.000305
 20
134.250305
 11
362.250336
 21
135.000290
  0
LINE
  8
0
 10
362.250000
 20
135.000000
 11
362.250000
 21
105.000000
  0
LINE
  8
0
 10
362.250000
 20
105.000000
 11
310.000000
 21
105.000000
  0
LINE
  8
0
 62
     2
 10
363.000000
 20
105.750000
 11
313.000000
 21
105.750000
  0
LINE
  8
0
 62
     2
 10
313.000031
 20
105.749924
 11
311.392792
 21
104.999863
  0
LINE
  8
0
 10
362.999939
 20
105.750069
 11
362.249969
 21
105.000053
  0
LINE
  8
0
 10
363.000000
 20
105.750000
 11
363.000000
 21
134.250000
  0
LINE
  8
0
 10
-100.267838
 20
136.000000
 11
-90.000000
 21
136.000000
  0
LINE
  8
0
 10
-90.000000
 20
136.000000
 11
-88.845306
 21
137.999985
  0
LINE
  8
0
 10
-101.999962
 20
105.000053
 11
-100.267830
 21
104.000008
  0
LINE
  8
0
 10
-100.267838
 20
104.000000
 11
-90.000000
 21
104.000000
  0
LINE
  8
0
 10
-90.000008
 20
104.000015
 11
-88.845299
 21
101.999992
  0
LINE
  8
0
 10
-88.845306
 20
102.000000
 11
-83.000000
 21
102.000000
  0
LINE
  8
0
 10
-59.500000
 20
173.000000
 11
-48.500000
 21
173.000000
  0
LINE
  8
0
 10
-58.517517
 20
184.000000
 11
-48.500000
 21
184.000000
  0
LINE
  8
0
 10
-59.500000
 20
173.000000
 11
-59.500000
 21
195.000000
  0
LINE
  8
0
 10
-59.500000
 20
195.000000
 11
-48.500000
 21
195.000000
  0
LINE
  8
0
 10
-48.500000
 20
172.000000
 11
-48.500000
 21
196.000000
  0
LINE
  8
0
 10
-59.500000
 20
67.000000
 11
-48.500000
 21
67.000000
  0
LINE
  8
0
 10
-58.517517
 20
56.000000
 11
-48.500000
 21
56.000000
  0
LINE
  8
0
 10
-59.500000
 20
67.000000
 11
-59.500000
 21
45.000000
  0
LINE
  8
0
 10
-59.500000
 20
45.000000
 11
-48.500000
 21
45.000000
  0
LINE
  8
0
 10
-48.500000
 20
68.000000
 11
-48.500000
 21
44.000000
  0
LINE
  8
0
 10
167.500000
 20
67.000000
 11
156.500000
 21
67.000000
  0
LINE
  8
0
 10
166.517517
 20
56.000000
 11
156.500000
 21
56.000000
  0
LINE
  8
0
 10
167.500000
 20
67.000000
 11
167.500000
 21
45.000000
  0
LINE
  8
0
 10
167.500000
 20
45.000000
 11
156.500000
 21
45.000000
  0
LINE
  8
0
 10
156.500000
 20
68.000000
 11
156.500000
 21
44.000000
  0
LINE
  8
0
 10
167.500000
 20
173.000000
 11
156.500000
 21
173.000000
  0
LINE
  8
0
 10
166.517517
 20
184.000000
 11
156.500000
 21
184.000000
  0
LINE
  8
0
 10
167.500000
 20
173.000000
 11
167.500000
 21
195.000000
  0
LINE
  8
0
 10
167.500000
 20
195.000000
 11
156.500000
 21
195.000000
  0
LINE
  8
0
 10
156.500000
 20
172.000000
 11
156.500000
 21
196.000000
  0
LINE
  8
0
 10
296.845306
 20
102.000000
 11
191.000000
 21
102.000000
  0
LINE
  8
0
 10
310.000061
 20
135.000076
 11
308.267944
 21
136.000122
  0
LINE
  8
0
 10
296.845306
 20
138.000000
 11
191.000000
 21
138.000000
  0
LINE
  8
0
 10
304.803833
 20
136.000000
 11
304.803833
 21
104.000000
  0
LINE
  8
0
 10
308.267822
 20
136.000000
 11
298.000000
 21
136.000000
  0
LINE
  8
0
 10
297.999908
 20
135.999969
 11
296.845215
 21
137.999969
  0
LINE
  8
0
 10
310.000000
 20
105.000053
 11
308.267914
 21
104.000023
  0
LINE
  8
0
 10
308.267822
 20
104.000000
 11
298.000000
 21
104.000000
  0
LINE
  8
0
 10
298.000000
 20
104.000000
 11
296.845306
 21
102.000008
  0
LINE
  8
0
 62
     4
 10
-3.000000
 20
71.358025
 11
-3.000000
 21
63.000000
  0
LINE
  8
0
 62
     4
 10
25.000000
 20
71.358025
 11
25.000000
 21
63.000000
  0
LINE
  8
0
 10
25.000000
 20
45.000000
 11
118.000000
 21
45.000000
  0
LINE
  8
0
 10
25.000000
 20
49.000000
 11
118.000000
 21
49.000000
  0
LINE
  8
0
 62
     4
 10
-3.000000
 20
53.839523
 11
-3.000000
 21
37.019775
  0
LINE
  8
0
 62
     4
 10
25.000000
 20
53.839523
 11
25.000000
 21
37.019775
  0
LINE
  8
0
 62
     4
 10
3.133999
 20
45.584534
 11
4.866001
 21
45.584534
  0
LINE
  8
0
 62
     4
 10
3.133999
 20
44.266907
 11
4.866001
 21
44.266907
  0
LINE
  8
0
 62
     4
 10
3.134000
 20
45.584538
 11
2.267951
 21
44.925552
  0
LINE
  8
0
 62
     4
 10
2.267940
 20
44.925560
 11
3.133995
 21
44.266911
  0
LINE
  8
0
 62
     4
 10
4.866005
 20
44.266895
 11
5.732056
 21
44.925541
  0
LINE
  8
0
 62
     4
 10
5.732043
 20
44.925564
 11
4.865993
 21
45.584549
  0
LINE
  8
0
 62
     4
 10
17.133999
 20
45.584534
 11
18.866001
 21
45.584534
  0
LINE
  8
0
 62
     4
 10
17.133999
 20
44.266907
 11
18.866001
 21
44.266907
  0
LINE
  8
0
 62
     4
 10
17.134007
 20
45.584538
 11
16.267956
 21
44.925552
  0
LINE
  8
0
 62
     4
 10
16.267954
 20
44.925545
 11
17.134003
 21
44.266899
  0
LINE
  8
0
 62
     4
 10
18.865999
 20
44.266899
 11
19.732048
 21
44.925545
  0
LINE
  8
0
 62
     4
 10
19.732056
 20
44.925549
 11
18.866005
 21
45.584530
  0
LINE
  8
0
 62
     4
 10
83.000000
 20
45.000000
 11
83.000000
 21
37.019714
  0
LINE
  8
0
 62
     4
 10
111.000000
 20
45.000000
 11
111.000000
 21
37.019714
  0
LINE
  8
0
  6
CENTER
 62
     2
 10
-29.000000
 20
132.500000
 11
-29.000000
 21
107.500000
  0
LINE
  8
0
 62
     4
 10
-3.000000
 20
71.358025
 11
25.000000
 21
71.358025
  0
LINE
  8
0
 62
     4
 10
-3.000000
 20
67.315323
 11
25.000000
 21
67.315323
  0
LINE
  8
0
 62
     4
 10
-3.000000
 20
48.000008
 11
25.000000
 21
48.000008
  0
LINE
  8
0
 62
     4
 10
-3.000000
 20
53.839523
 11
25.000000
 21
53.839523
  0
LINE
  8
0
 62
     4
 10
-3.000000
 20
37.019775
 11
25.000000
 21
37.019775
  0
LINE
  8
0
 62
     4
 10
83.000000
 20
37.019714
 11
111.000000
 21
37.019714
  0
LINE
  8
0
 62
     4
 10
83.000000
 20
42.529816
 11
111.000000
 21
42.529816
  0
ARC
  8
0
 10
-56.000000
 20
-176.500000
 40
1.000000
 50
180.000000
 51
270.000000
  0
ARC
  8
0
 10
-56.000000
 20
-103.500000
 40
1.000000
 50
90.000000
 51
180.000000
  0
ARC
  8
0
 10
-88.720901
 20
-140.000000
 40
11.547033
 50
134.427216
 51
225.572784
  0
CIRCLE
  8
0
  6
DASHED
 62
     2
 10
137.000000
 20
-140.000000
 40
5.150000
  0
CIRCLE
  8
0
 10
-29.000000
 20
-140.000000
 40
5.150000
  0
CIRCLE
  8
0
  6
DASHED
 62
     2
 10
137.000000
 20
-140.000000
 40
7.950000
  0
CIRCLE
  8
0
 10
-29.000000
 20
-140.000000
 40
7.950000
  0
ARC
  8
0
 10
296.720886
 20
-140.000000
 40
11.547039
 50
314.427155
 51
45.572807
  0
ARC
  8
0
 10
164.000000
 20
-103.500000
 40
1.000000
 50
0.000000
 51
90.000000
  0
ARC
  8
0
 10
164.000000
 20
-176.500000
 40
1.000000
 50
270.000000
 51
0.000000
  0
ARC
  8
0
 10
-305.720642
 20
-120.289772
 40
0.999999
 50
58.297192
 51
147.315308
  0
CIRCLE
  8
0
 10
-275.000000
 20
-140.000000
 40
15.000000
  0
CIRCLE
  8
0
 10
-275.000000
 20
-140.000000
 40
18.000000
  0
CIRCLE
  8
0
 10
-275.000000
 20
-140.000000
 40
30.000000
  0
ARC
  8
0
 10
-275.000000
 20
-140.000000
 40
37.500000
 50
0.000000
 51
32.684067
  0
ARC
  8
0
 10
-301.516510
 20
-166.516510
 40
7.000000
 50
0.000000
 51
121.703087
  0
ARC
  8
0
 10
-301.516510
 20
-113.483498
 40
7.000000
 50
0.000000
 51
31.702795
  0
ARC
  8
0
 10
-248.483490
 20
-113.483498
 40
7.000000
 50
148.297089
 51
301.702911
  0
ARC
  8
0
 10
-275.000000
 20
-140.000000
 40
37.499996
 50
57.315914
 51
122.684090
  0
ARC
  8
0
 10
-255.289764
 20
-109.279381
 40
0.999999
 50
328.297180
 51
57.315781
  0
ARC
  8
0
 10
-244.279358
 20
-120.289772
 40
1.000000
 50
32.684219
 51
121.702805
  0
ARC
  8
0
 10
-275.000000
 20
-140.000000
 40
37.499996
 50
327.315948
 51
0.000000
  0
ARC
  8
0
 10
-248.483490
 20
-166.516510
 40
7.000000
 50
58.297085
 51
211.702911
  0
ARC
  8
0
 10
-244.279358
 20
-159.710236
 40
0.999999
 50
238.297195
 51
327.315765
  0
ARC
  8
0
 10
-255.289764
 20
-170.720627
 40
1.000000
 50
302.684235
 51
31.702808
  0
ARC
  8
0
 10
-275.000000
 20
-140.000000
 40
37.499992
 50
237.315903
 51
302.684082
  0
ARC
  8
0
 10
-301.516510
 20
-166.516510
 40
6.999986
 50
328.297028
 51
0.000000
  0
ARC
  8
0
 10
-294.710236
 20
-170.720627
 40
1.000012
 50
148.297653
 51
237.315781
  0
ARC
  8
0
 10
-305.720642
 20
-159.710236
 40
1.000013
 50
212.683746
 51
301.702820
  0
ARC
  8
0
 10
-275.000000
 20
-140.000000
 40
37.499996
 50
147.315948
 51
212.684021
  0
ARC
  8
0
 10
-301.516510
 20
-113.483498
 40
7.000001
 50
238.296951
 51
0.000000
  0
ARC
  8
0
 10
-294.710236
 20
-109.279381
 40
1.000000
 50
122.684219
 51
211.703644
  0
CIRCLE
  8
0
 10
-275.000000
 20
-140.000000
 40
45.000000
  0
CIRCLE
  8
0
 10
-339.000000
 20
-204.000000
 40
7.000000
  0
CIRCLE
  8
0
 10
-301.516510
 20
-166.516510
 40
6.500000
  0
CIRCLE
  8
0
 10
-248.483490
 20
-166.516510
 40
6.500000
  0
CIRCLE
  8
0
 10
-248.483490
 20
-113.483498
 40
6.500000
  0
CIRCLE
  8
0
 10
-301.516510
 20
-113.483498
 40
6.500000
  0
CIRCLE
  8
0
 10
-301.516510
 20
-166.516510
 40
3.430000
  0
CIRCLE
  8
0
 10
-301.516510
 20
-113.483498
 40
3.430000
  0
CIRCLE
  8
0
 10
-248.483490
 20
-166.516510
 40
3.430000
  0
CIRCLE
  8
0
 10
-248.483490
 20
-113.483498
 40
3.430000
  0
CIRCLE
  8
0
 10
-339.000000
 20
-204.000000
 40
10.500000
  0
CIRCLE
  8
0
 10
-211.000000
 20
-204.000000
 40
7.000000
  0
CIRCLE
  8
0
 10
-211.000000
 20
-204.000000
 40
10.500000
  0
CIRCLE
  8
0
 10
-211.000000
 20
-76.000000
 40
7.000000
  0
CIRCLE
  8
0
 10
-211.000000
 20
-76.000000
 40
10.500000
  0
CIRCLE
  8
0
 10
-339.000000
 20
-76.000000
 40
7.000000
  0
CIRCLE
  8
0
 10
-339.000000
 20
-76.000000
 40
10.500000
  0
CIRCLE
  8
0
 62
     2
 10
-211.000000
 20
-204.000000
 40
5.600000
  0
CIRCLE
  8
0
 62
     2
 10
-211.000000
 20
-76.000000
 40
5.600000
  0
CIRCLE
  8
0
 62
     2
 10
-339.000000
 20
-76.000000
 40
5.600000
  0
CIRCLE
  8
0
 62
     2
 10
-339.000000
 20
-204.000000
 40
5.600000
  0
CIRCLE
  8
0
 62
     2
 10
-275.000000
 20
-140.000000
 40
14.250000
  0
ARC
  8
0
  6
DASHED
 62
     1
 10
-206.041336
 20
-92.861778
 40
10.406345
 50
273.440613
 51
296.053497
  0
ARC
  8
0
  6
DASHED
 62
     1
 10
-206.041336
 20
-92.861778
 40
10.406347
 50
296.053497
 51
318.666382
  0
ARC
  8
0
  6
DASHED
 62
     1
 10
-206.041336
 20
-187.138214
 40
10.406347
 50
41.333580
 51
63.946419
  0
ARC
  8
0
  6
DASHED
 62
     1
 10
-206.041336
 20
-187.138214
 40
10.406346
 50
63.946419
 51
86.559296
  0
ARC
  8
0
 10
-56.000000
 20
156.500000
 40
1.000000
 50
90.000000
 51
180.000000
  0
ARC
  8
0
 10
-56.000000
 20
83.500000
 40
1.000000
 50
180.000000
 51
270.000000
  0
ARC
  8
0
 10
164.000000
 20
156.500000
 40
1.000000
 50
0.000000
 51
90.000000
  0
ARC
  8
0
 10
164.000000
 20
83.500000
 40
1.000000
 50
270.000000
 51
0.000000
  0
ARC
  8
0
 10
-43.614052
 20
189.500000
 40
15.885949
 50
159.743835
 51
200.256104
  0
ARC
  8
0
 10
-43.614052
 20
178.500000
 40
15.885951
 50
159.743790
 51
200.256042
  0
ARC
  8
0
 10
-43.614052
 20
50.500000
 40
15.885948
 50
159.743805
 51
200.256058
  0
ARC
  8
0
 10
-43.614052
 20
61.500000
 40
15.885947
 50
159.743866
 51
200.256119
  0
ARC
  8
0
 10
151.614044
 20
50.500000
 40
15.885953
 50
339.743835
 51
20.256102
  0
ARC
  8
0
 10
151.614044
 20
61.500000
 40
15.885942
 50
339.743774
 51
20.256050
  0
ARC
  8
0
 10
151.614044
 20
189.500000
 40
15.885948
 50
339.743896
 51
20.256153
  0
ARC
  8
0
 10
151.614044
 20
178.500000
 40
15.885942
 50
339.743958
 51
20.256224
  0
CIRCLE
  8
0
 62
     2
 10
137.000000
 20
120.000000
 40
10.477500
  0
CIRCLE
  8
0
 10
137.000000
 20
120.000000
 40
9.315500
  0
CIRCLE
  8
0
 62
     2
 10
-29.000000
 20
120.000000
 40
10.477500
  0
CIRCLE
  8
0
 10
-29.000000
 20
120.000000
 40
9.315500
  0
POLYLINE
  8
0
 66
     1
  0
VERTEX
  8
0
 10
298.000000
 20
-131.753784
  0
VERTEX
  8
0
 10
297.793823
 20
-132.653839
  0
VERTEX
  8
0
 10
297.610596
 20
-133.559601
  0
VERTEX
  8
0
 10
297.450684
 20
-134.470367
  0
VERTEX
  8
0
 10
297.314423
 20
-135.385422
  0
VERTEX
  8
0
 10
297.202148
 20
-136.304047
  0
VERTEX
  8
0
 10
297.114227
 20
-137.225540
  0
VERTEX
  8
0
 10
297.050995
 20
-138.149170
  0
VERTEX
  8
0
 10
297.012817
 20
-139.074234
  0
VERTEX
  8
0
 10
297.000000
 20
-140.000000
  0
VERTEX
  8
0
 10
297.012817
 20
-140.925766
  0
VERTEX
  8
0
 10
297.050995
 20
-141.850830
  0
VERTEX
  8
0
 10
297.114227
 20
-142.774460
  0
VERTEX
  8
0
 10
297.202148
 20
-143.695953
  0
VERTEX
  8
0
 10
297.314423
 20
-144.614578
  0
VERTEX
  8
0
 10
297.450684
 20
-145.529633
  0
VERTEX
  8
0
 10
297.610596
 20
-146.440399
  0
VERTEX
  8
0
 10
297.793823
 20
-147.346161
  0
VERTEX
  8
0
 10
298.000000
 20
-148.246216
  0
SEQEND
  0
POLYLINE
  8
0
 66
     1
  0
VERTEX
  8
0
 10
166.517517
 20
-69.649139
  0
VERTEX
  8
0
 10
166.916992
 20
-68.912521
  0
VERTEX
  8
0
 10
167.227386
 20
-68.126846
  0
VERTEX
  8
0
 10
167.428482
 20
-67.308464
  0
VERTEX
  8
0
 10
167.500000
 20
-66.473724
  0
VERTEX
  8
0
 10
167.428482
 20
-65.638985
  0
VERTEX
  8
0
 10
167.227386
 20
-64.820595
  0
VERTEX
  8
0
 10
166.916992
 20
-64.034912
  0
VERTEX
  8
0
 10
166.517517
 20
-63.298294
  0
SEQEND
  0
POLYLINE
  8
0
 66
     1
  0
VERTEX
  8
0
 10
166.517517
 20
-82.350845
  0
VERTEX
  8
0
 10
166.771301
 20
-81.467644
  0
VERTEX
  8
0
 10
166.989182
 20
-80.573334
  0
VERTEX
  8
0
 10
167.170029
 20
-79.669769
  0
VERTEX
  8
0
 10
167.312668
 20
-78.758804
  0
VERTEX
  8
0
 10
167.415985
 20
-77.842285
  0
VERTEX
  8
0
 10
167.478806
 20
-76.922073
  0
VERTEX
  8
0
 10
167.500000
 20
-76.000000
  0
VERTEX
  8
0
 10
167.478806
 20
-75.077927
  0
VERTEX
  8
0
 10
167.415985
 20
-74.157707
  0
VERTEX
  8
0
 10
167.312668
 20
-73.241188
  0
VERTEX
  8
0
 10
167.170029
 20
-72.330223
  0
VERTEX
  8
0
 10
166.989197
 20
-71.426659
  0
VERTEX
  8
0
 10
166.771301
 20
-70.532349
  0
VERTEX
  8
0
 10
166.517517
 20
-69.649139
  0
SEQEND
  0
POLYLINE
  8
0
 66
     1
  0
VERTEX
  8
0
 10
166.517517
 20
-88.701714
  0
VERTEX
  8
0
 10
166.916992
 20
-87.965096
  0
VERTEX
  8
0
 10
167.227386
 20
-87.179413
  0
VERTEX
  8
0
 10
167.428482
 20
-86.361023
  0
VERTEX
  8
0
 10
167.500000
 20
-85.526283
  0
VERTEX
  8
0
 10
167.428482
 20
-84.691544
  0
VERTEX
  8
0
 10
167.227386
 20
-83.873146
  0
VERTEX
  8
0
 10
166.916992
 20
-83.087463
  0
VERTEX
  8
0
 10
166.517517
 20
-82.350845
  0
SEQEND
  0
POLYLINE
  8
0
 66
     1
  0
VERTEX
  8
0
 10
-90.000000
 20
-131.753784
  0
VERTEX
  8
0
 10
-89.793823
 20
-132.653839
  0
VERTEX
  8
0
 10
-89.610596
 20
-133.559601
  0
VERTEX
  8
0
 10
-89.450684
 20
-134.470367
  0
VERTEX
  8
0
 10
-89.314415
 20
-135.385422
  0
VERTEX
  8
0
 10
-89.202148
 20
-136.304047
  0
VERTEX
  8
0
 10
-89.114227
 20
-137.225540
  0
VERTEX
  8
0
 10
-89.051003
 20
-138.149170
  0
VERTEX
  8
0
 10
-89.012810
 20
-139.074234
  0
VERTEX
  8
0
 10
-89.000000
 20
-140.000000
  0
VERTEX
  8
0
 10
-89.012810
 20
-140.925766
  0
VERTEX
  8
0
 10
-89.051003
 20
-141.850830
  0
VERTEX
  8
0
 10
-89.114227
 20
-142.774460
  0
VERTEX
  8
0
 10
-89.202148
 20
-143.695953
  0
VERTEX
  8
0
 10
-89.314415
 20
-144.614578
  0
VERTEX
  8
0
 10
-89.450684
 20
-145.529633
  0
VERTEX
  8
0
 10
-89.610596
 20
-146.440399
  0
VERTEX
  8
0
 10
-89.793823
 20
-147.346161
  0
VERTEX
  8
0
 10
-90.000000
 20
-148.246216
  0
SEQEND
  0
POLYLINE
  8
0
 66
     1
  0
VERTEX
  8
0
 10
166.517517
 20
-216.701721
  0
VERTEX
  8
0
 10
166.916992
 20
-215.965103
  0
VERTEX
  8
0
 10
167.227386
 20
-215.179413
  0
VERTEX
  8
0
 10
167.428482
 20
-214.361023
  0
VERTEX
  8
0
 10
167.500000
 20
-213.526276
  0
VERTEX
  8
0
 10
167.428482
 20
-212.691528
  0
VERTEX
  8
0
 10
167.227386
 20
-211.873138
  0
VERTEX
  8
0
 10
166.916992
 20
-211.087463
  0
VERTEX
  8
0
 10
166.517517
 20
-210.350845
  0
SEQEND
  0
POLYLINE
  8
0
 66
     1
  0
VERTEX
  8
0
 10
166.517517
 20
-210.350845
  0
VERTEX
  8
0
 10
166.771301
 20
-209.467636
  0
VERTEX
  8
0
 10
166.989182
 20
-208.573334
  0
VERTEX
  8
0
 10
167.170029
 20
-207.669769
  0
VERTEX
  8
0
 10
167.312668
 20
-206.758804
  0
VERTEX
  8
0
 10
167.415985
 20
-205.842285
  0
VERTEX
  8
0
 10
167.478806
 20
-204.922073
  0
VERTEX
  8
0
 10
167.500000
 20
-204.000000
  0
VERTEX
  8
0
 10
167.478806
 20
-203.077927
  0
VERTEX
  8
0
 10
167.415985
 20
-202.157715
  0
VERTEX
  8
0
 10
167.312668
 20
-201.241196
  0
VERTEX
  8
0
 10
167.170029
 20
-200.330215
  0
VERTEX
  8
0
 10
166.989197
 20
-199.426651
  0
VERTEX
  8
0
 10
166.771301
 20
-198.532349
  0
VERTEX
  8
0
 10
166.517517
 20
-197.649139
  0
SEQEND
  0
POLYLINE
  8
0
 66
     1
  0
VERTEX
  8
0
 10
166.517517
 20
-197.649139
  0
VERTEX
  8
0
 10
166.916992
 20
-196.912521
  0
VERTEX
  8
0
 10
167.227386
 20
-196.126846
  0
VERTEX
  8
0
 10
167.428482
 20
-195.308456
  0
VERTEX
  8
0
 10
167.500000
 20
-194.473724
  0
VERTEX
  8
0
 10
167.428482
 20
-193.638977
  0
VERTEX
  8
0
 10
167.227386
 20
-192.820587
  0
VERTEX
  8
0
 10
166.916992
 20
-192.034912
  0
VERTEX
  8
0
 10
166.517517
 20
-191.298294
  0
SEQEND
  0
POLYLINE
  8
0
 66
     1
  0
VERTEX
  8
0
 10
-58.517517
 20
-191.298294
  0
VERTEX
  8
0
 10
-58.916992
 20
-192.034912
  0
VERTEX
  8
0
 10
-59.227394
 20
-192.820587
  0
VERTEX
  8
0
 10
-59.428474
 20
-193.638977
  0
VERTEX
  8
0
 10
-59.500000
 20
-194.473724
  0
VERTEX
  8
0
 10
-59.428474
 20
-195.308472
  0
VERTEX
  8
0
 10
-59.227394
 20
-196.126862
  0
VERTEX
  8
0
 10
-58.916992
 20
-196.912537
  0
VERTEX
  8
0
 10
-58.517517
 20
-197.649155
  0
SEQEND
  0
POLYLINE
  8
0
 66
     1
  0
VERTEX
  8
0
 10
-58.517517
 20
-210.350861
  0
VERTEX
  8
0
 10
-58.916992
 20
-211.087479
  0
VERTEX
  8
0
 10
-59.227394
 20
-211.873154
  0
VERTEX
  8
0
 10
-59.428474
 20
-212.691544
  0
VERTEX
  8
0
 10
-59.500000
 20
-213.526276
  0
VERTEX
  8
0
 10
-59.428474
 20
-214.361023
  0
VERTEX
  8
0
 10
-59.227394
 20
-215.179413
  0
VERTEX
  8
0
 10
-58.916992
 20
-215.965088
  0
VERTEX
  8
0
 10
-58.517517
 20
-216.701706
  0
SEQEND
  0
POLYLINE
  8
0
 66
     1
  0
VERTEX
  8
0
 10
-58.517517
 20
-197.649155
  0
VERTEX
  8
0
 10
-58.771305
 20
-198.532364
  0
VERTEX
  8
0
 10
-58.989189
 20
-199.426666
  0
VERTEX
  8
0
 10
-59.170025
 20
-200.330231
  0
VERTEX
  8
0
 10
-59.312672
 20
-201.241196
  0
VERTEX
  8
0
 10
-59.415977
 20
-202.157715
  0
VERTEX
  8
0
 10
-59.478806
 20
-203.077927
  0
VERTEX
  8
0
 10
-59.500000
 20
-204.000000
  0
VERTEX
  8
0
 10
-59.478806
 20
-204.922073
  0
VERTEX
  8
0
 10
-59.415981
 20
-205.842285
  0
VERTEX
  8
0
 10
-59.312672
 20
-206.758804
  0
VERTEX
  8
0
 10
-59.170029
 20
-207.669785
  0
VERTEX
  8
0
 10
-58.989189
 20
-208.573349
  0
VERTEX
  8
0
 10
-58.771305
 20
-209.467651
  0
VERTEX
  8
0
 10
-58.517517
 20
-210.350861
  0
SEQEND
  0
POLYLINE
  8
0
 66
     1
  0
VERTEX
  8
0
 10
-58.517517
 20
-63.298294
  0
VERTEX
  8
0
 10
-58.916992
 20
-64.034912
  0
VERTEX
  8
0
 10
-59.227394
 20
-64.820595
  0
VERTEX
  8
0
 10
-59.428474
 20
-65.638985
  0
VERTEX
  8
0
 10
-59.500000
 20
-66.473724
  0
VERTEX
  8
0
 10
-59.428474
 20
-67.308464
  0
VERTEX
  8
0
 10
-59.227394
 20
-68.126854
  0
VERTEX
  8
0
 10
-58.916992
 20
-68.912537
  0
VERTEX
  8
0
 10
-58.517517
 20
-69.649155
  0
SEQEND
  0
POLYLINE
  8
0
 66
     1
  0
VERTEX
  8
0
 10
-58.517517
 20
-69.649155
  0
VERTEX
  8
0
 10
-58.771305
 20
-70.532356
  0
VERTEX
  8
0
 10
-58.989189
 20
-71.426666
  0
VERTEX
  8
0
 10
-59.170025
 20
-72.330231
  0
VERTEX
  8
0
 10
-59.312672
 20
-73.241196
  0
VERTEX
  8
0
 10
-59.415977
 20
-74.157715
  0
VERTEX
  8
0
 10
-59.478806
 20
-75.077927
  0
VERTEX
  8
0
 10
-59.500000
 20
-76.000000
  0
VERTEX
  8
0
 10
-59.478806
 20
-76.922073
  0
VERTEX
  8
0
 10
-59.415981
 20
-77.842293
  0
VERTEX
  8
0
 10
-59.312672
 20
-78.758812
  0
VERTEX
  8
0
 10
-59.170029
 20
-79.669777
  0
VERTEX
  8
0
 10
-58.989189
 20
-80.573341
  0
VERTEX
  8
0
 10
-58.771305
 20
-81.467651
  0
VERTEX
  8
0
 10
-58.517517
 20
-82.350861
  0
SEQEND
  0
POLYLINE
  8
0
 66
     1
  0
VERTEX
  8
0
 10
-58.517517
 20
-82.350861
  0
VERTEX
  8
0
 10
-58.916992
 20
-83.087479
  0
VERTEX
  8
0
 10
-59.227394
 20
-83.873154
  0
VERTEX
  8
0
 10
-59.428474
 20
-84.691544
  0
VERTEX
  8
0
 10
-59.500000
 20
-85.526283
  0
VERTEX
  8
0
 10
-59.428474
 20
-86.361023
  0
VERTEX
  8
0
 10
-59.227394
 20
-87.179413
  0
VERTEX
  8
0
 10
-58.916992
 20
-87.965088
  0
VERTEX
  8
0
 10
-58.517517
 20
-88.701706
  0
SEQEND
  0
ARC
  8
0
 62
     4
 10
18.574594
 20
-64.388687
 40
2.425406
 50
348.875061
 51
11.125019
  0
ARC
  8
0
 62
     4
 10
18.422083
 20
-64.432693
 40
2.583580
 50
11.430002
 51
43.435841
  0
ARC
  8
0
 62
     4
 10
18.000000
 20
-64.918091
 40
3.224403
 50
44.542397
 51
135.457611
  0
ARC
  8
0
 62
     4
 10
17.577917
 20
-64.432693
 40
2.583577
 50
136.564163
 51
168.569992
  0
ARC
  8
0
 62
     4
 10
17.425406
 20
-64.388687
 40
2.425406
 50
168.874985
 51
191.124924
  0
ARC
  8
0
 62
     4
 10
17.577917
 20
-64.344681
 40
2.583579
 50
191.429916
 51
223.435898
  0
ARC
  8
0
 62
     4
 10
18.000000
 20
-63.859283
 40
3.224406
 50
224.542450
 51
315.457550
  0
ARC
  8
0
 62
     4
 10
18.422083
 20
-64.344681
 40
2.583580
 50
316.564087
 51
348.570068
  0
ARC
  8
0
 62
     4
 10
18.461458
 20
-64.388687
 40
1.938542
 50
348.869812
 51
11.130187
  0
ARC
  8
0
 62
     4
 10
18.338974
 20
-64.424049
 40
2.065579
 50
11.436777
 51
43.451046
  0
ARC
  8
0
 62
     4
 10
18.000000
 20
-64.814049
 40
2.580362
 50
44.561359
 51
135.438644
  0
ARC
  8
0
 62
     4
 10
17.661026
 20
-64.424049
 40
2.065579
 50
136.548950
 51
168.563217
  0
ARC
  8
0
 62
     4
 10
17.538542
 20
-64.388687
 40
1.938542
 50
168.869812
 51
191.130188
  0
ARC
  8
0
 62
     4
 10
17.661026
 20
-64.353325
 40
2.065579
 50
191.436783
 51
223.451050
  0
ARC
  8
0
 62
     4
 10
18.000000
 20
-63.963326
 40
2.580362
 50
224.561356
 51
315.438629
  0
ARC
  8
0
 62
     4
 10
18.338974
 20
-64.353325
 40
2.065579
 50
316.548950
 51
348.563232
  0
ARC
  8
0
 62
     4
 10
4.574594
 20
-64.388687
 40
2.425406
 50
348.875061
 51
11.125019
  0
ARC
  8
0
 62
     4
 10
4.422082
 20
-64.432693
 40
2.583580
 50
11.430000
 51
43.435829
  0
ARC
  8
0
 62
     4
 10
4.000000
 20
-64.918091
 40
3.224403
 50
44.542397
 51
135.457596
  0
ARC
  8
0
 62
     4
 10
3.577918
 20
-64.432693
 40
2.583578
 50
136.564163
 51
168.570007
  0
ARC
  8
0
 62
     4
 10
3.425406
 20
-64.388687
 40
2.425406
 50
168.874985
 51
191.124924
  0
ARC
  8
0
 62
     4
 10
3.577918
 20
-64.344681
 40
2.583580
 50
191.429916
 51
223.435898
  0
ARC
  8
0
 62
     4
 10
4.000000
 20
-63.859283
 40
3.224405
 50
224.542450
 51
315.457550
  0
ARC
  8
0
 62
     4
 10
4.422082
 20
-64.344681
 40
2.583580
 50
316.564117
 51
348.570068
  0
ARC
  8
0
 62
     4
 10
4.461458
 20
-64.388687
 40
1.938542
 50
348.869812
 51
11.130190
  0
ARC
  8
0
 62
     4
 10
4.338973
 20
-64.424049
 40
2.065579
 50
11.436775
 51
43.451038
  0
ARC
  8
0
 62
     4
 10
4.000000
 20
-64.814049
 40
2.580362
 50
44.561367
 51
135.438629
  0
ARC
  8
0
 62
     4
 10
3.661027
 20
-64.424049
 40
2.065580
 50
136.548965
 51
168.563217
  0
ARC
  8
0
 62
     4
 10
3.538542
 20
-64.388687
 40
1.938542
 50
168.869812
 51
191.130188
  0
ARC
  8
0
 62
     4
 10
3.661027
 20
-64.353325
 40
2.065579
 50
191.436783
 51
223.451035
  0
ARC
  8
0
 62
     4
 10
4.000000
 20
-63.963326
 40
2.580362
 50
224.561371
 51
315.438629
  0
ARC
  8
0
 62
     4
 10
4.338973
 20
-64.353325
 40
2.065580
 50
316.548950
 51
348.563232
  0
ARC
  8
0
 62
     4
 10
104.461449
 20
-215.610931
 40
1.938545
 50
348.870056
 51
11.129944
  0
ARC
  8
0
 62
     4
 10
104.338974
 20
-215.646286
 40
2.065570
 50
11.436394
 51
43.451000
  0
ARC
  8
0
 62
     4
 10
104.000000
 20
-216.036285
 40
2.580353
 50
44.561325
 51
135.438675
  0
ARC
  8
0
 62
     4
 10
103.661026
 20
-215.646286
 40
2.065570
 50
136.548996
 51
168.563599
  0
ARC
  8
0
 62
     4
 10
103.538551
 20
-215.610931
 40
1.938545
 50
168.870056
 51
191.129944
  0
ARC
  8
0
 62
     4
 10
103.661026
 20
-215.575577
 40
2.065570
 50
191.436401
 51
223.451004
  0
ARC
  8
0
 62
     4
 10
104.000000
 20
-215.185577
 40
2.580353
 50
224.561325
 51
315.438660
  0
ARC
  8
0
 62
     4
 10
104.338974
 20
-215.575577
 40
2.065570
 50
316.549011
 51
348.563599
  0
ARC
  8
0
 62
     4
 10
104.574585
 20
-215.611877
 40
2.425414
 50
348.780121
 51
11.029956
  0
ARC
  8
0
 62
     4
 10
104.422005
 20
-215.655640
 40
2.583583
 50
11.335151
 51
43.341091
  0
ARC
  8
0
 62
     4
 10
103.999123
 20
-216.140320
 40
3.224404
 50
44.447441
 51
135.362946
  0
ARC
  8
0
 62
     4
 10
103.577850
 20
-215.654236
 40
2.583581
 50
136.469452
 51
168.475311
  0
ARC
  8
0
 62
     4
 10
103.425415
 20
-215.609985
 40
2.425414
 50
168.780136
 51
191.029953
  0
ARC
  8
0
 62
     4
 10
103.577995
 20
-215.566223
 40
2.583583
 50
191.335144
 51
223.341095
  0
ARC
  8
0
 62
     4
 10
104.000877
 20
-215.081543
 40
3.224404
 50
224.447433
 51
315.362946
  0
ARC
  8
0
 62
     4
 10
104.422150
 20
-215.567627
 40
2.583581
 50
316.469452
 51
348.475311
  0
ARC
  8
0
 62
     4
 10
90.461449
 20
-215.610931
 40
1.938545
 50
348.870056
 51
11.129944
  0
ARC
  8
0
 62
     4
 10
90.338974
 20
-215.646286
 40
2.065570
 50
11.436394
 51
43.451000
  0
ARC
  8
0
 62
     4
 10
90.000000
 20
-216.036285
 40
2.580353
 50
44.561325
 51
135.438675
  0
ARC
  8
0
 62
     4
 10
89.661026
 20
-215.646286
 40
2.065570
 50
136.548996
 51
168.563599
  0
ARC
  8
0
 62
     4
 10
89.538551
 20
-215.610931
 40
1.938545
 50
168.870056
 51
191.129944
  0
ARC
  8
0
 62
     4
 10
89.661026
 20
-215.575577
 40
2.065570
 50
191.436401
 51
223.451004
  0
ARC
  8
0
 62
     4
 10
90.000000
 20
-215.185577
 40
2.580353
 50
224.561325
 51
315.438660
  0
ARC
  8
0
 62
     4
 10
90.338974
 20
-215.575577
 40
2.065570
 50
316.549011
 51
348.563599
  0
ARC
  8
0
 62
     4
 10
90.574585
 20
-215.611877
 40
2.425414
 50
348.780121
 51
11.029956
  0
ARC
  8
0
 62
     4
 10
90.422005
 20
-215.655640
 40
2.583583
 50
11.335151
 51
43.341091
  0
ARC
  8
0
 62
     4
 10
89.999123
 20
-216.140320
 40
3.224404
 50
44.447441
 51
135.362946
  0
ARC
  8
0
 62
     4
 10
89.577850
 20
-215.654236
 40
2.583581
 50
136.469452
 51
168.475311
  0
ARC
  8
0
 62
     4
 10
89.425415
 20
-215.609985
 40
2.425414
 50
168.780136
 51
191.029953
  0
ARC
  8
0
 62
     4
 10
89.577995
 20
-215.566223
 40
2.583583
 50
191.335144
 51
223.341095
  0
ARC
  8
0
 62
     4
 10
90.000877
 20
-215.081543
 40
3.224404
 50
224.447433
 51
315.362946
  0
ARC
  8
0
 62
     4
 10
90.422150
 20
-215.567627
 40
2.583581
 50
316.469452
 51
348.475311
  0
ARC
  8
0
 62
     4
 10
93.796623
 20
-180.617661
 40
0.796623
 50
180.000000
 51
202.523880
  0
ARC
  8
0
 62
     4
 10
94.646881
 20
-180.115982
 40
1.779535
 50
206.961960
 51
246.448349
  0
ARC
  8
0
 62
     4
 10
97.000000
 20
-174.582840
 40
7.792204
 50
246.843964
 51
293.156036
  0
ARC
  8
0
 62
     4
 10
99.353119
 20
-180.115982
 40
1.779537
 50
293.551666
 51
333.038025
  0
ARC
  8
0
 62
     4
 10
100.203377
 20
-180.617661
 40
0.796621
 50
337.476135
 51
0.000000
  0
ARC
  8
0
 62
     4
 10
100.203377
 20
-178.508026
 40
0.796621
 50
337.476135
 51
22.523878
  0
ARC
  8
0
 62
     4
 10
99.353119
 20
-179.009705
 40
1.779535
 50
26.961962
 51
66.448349
  0
ARC
  8
0
 62
     4
 10
97.000000
 20
-184.542847
 40
7.792204
 50
66.843971
 51
113.156029
  0
ARC
  8
0
 62
     4
 10
94.646881
 20
-179.009705
 40
1.779537
 50
113.551651
 51
153.038040
  0
ARC
  8
0
 62
     4
 10
93.796623
 20
-178.508026
 40
0.796621
 50
157.476120
 51
202.523880
  0
ARC
  8
0
 62
     4
 10
94.646881
 20
-178.006348
 40
1.779535
 50
206.961960
 51
246.448349
  0
ARC
  8
0
 62
     4
 10
97.000000
 20
-172.473206
 40
7.792204
 50
246.843964
 51
293.156036
  0
ARC
  8
0
 62
     4
 10
99.353119
 20
-178.006348
 40
1.779537
 50
293.551666
 51
333.038025
  0
ARC
  8
0
 62
     4
 10
14.203287
 20
-99.382423
 40
0.796713
 50
0.000000
 51
22.522930
  0
ARC
  8
0
 62
     4
 10
13.353053
 20
-99.884048
 40
1.779579
 50
26.960125
 51
66.446602
  0
ARC
  8
0
 62
     4
 10
11.000000
 20
-105.416702
 40
7.791770
 50
66.842606
 51
113.157394
  0
ARC
  8
0
 62
     4
 10
8.646947
 20
-99.884048
 40
1.779577
 50
113.553398
 51
153.039871
  0
ARC
  8
0
 62
     4
 10
7.796713
 20
-99.382423
 40
0.796713
 50
157.477051
 51
180.000000
  0
ARC
  8
0
 62
     4
 10
14.203287
 20
-101.491966
 40
0.796713
 50
337.477081
 51
22.522930
  0
ARC
  8
0
 62
     4
 10
13.353053
 20
-101.993591
 40
1.779579
 50
26.960125
 51
66.446602
  0
ARC
  8
0
 62
     4
 10
11.000000
 20
-107.526245
 40
7.791770
 50
66.842606
 51
113.157394
  0
ARC
  8
0
 62
     4
 10
8.646947
 20
-101.993591
 40
1.779577
 50
113.553398
 51
153.039871
  0
ARC
  8
0
 62
     4
 10
7.796713
 20
-101.491966
 40
0.796713
 50
157.477051
 51
202.522949
  0
ARC
  8
0
 62
     4
 10
8.646947
 20
-100.990341
 40
1.779579
 50
206.960129
 51
246.446609
  0
ARC
  8
0
 62
     4
 10
11.000000
 20
-95.457687
 40
7.791770
 50
246.842606
 51
293.157410
  0
ARC
  8
0
 62
     4
 10
13.353053
 20
-100.990341
 40
1.779577
 50
293.553406
 51
333.039886
  0
ARC
  8
0
 62
     4
 10
5.921532
 20
44.925552
 40
0.478468
 50
337.487640
 51
22.512358
  0
ARC
  8
0
 62
     4
 10
5.411508
 20
44.624790
 40
1.067979
 50
26.946228
 51
66.433128
  0
ARC
  8
0
 62
     4
 10
4.000000
 20
41.307549
 40
4.673006
 50
66.831825
 51
113.168175
  0
ARC
  8
0
 62
     4
 10
2.588492
 20
44.624790
 40
1.067981
 50
113.566856
 51
153.053772
  0
ARC
  8
0
 62
     4
 10
2.078469
 20
44.925552
 40
0.478468
 50
157.487656
 51
202.512344
  0
ARC
  8
0
 62
     4
 10
2.588492
 20
45.226315
 40
1.067979
 50
206.946228
 51
246.433136
  0
ARC
  8
0
 62
     4
 10
4.000000
 20
48.543556
 40
4.673006
 50
246.831818
 51
293.168182
  0
ARC
  8
0
 62
     4
 10
5.411508
 20
45.226315
 40
1.067981
 50
293.566864
 51
333.053772
  0
ARC
  8
0
 62
     4
 10
6.400824
 20
44.925552
 40
0.599176
 50
337.508392
 51
22.491621
  0
ARC
  8
0
 62
     4
 10
5.763584
 20
44.550125
 40
1.335548
 50
26.918888
 51
66.406380
  0
ARC
  8
0
 62
     4
 10
4.000000
 20
40.409378
 40
5.836175
 50
66.810471
 51
113.189529
  0
ARC
  8
0
 62
     4
 10
2.236416
 20
44.550125
 40
1.335550
 50
113.593613
 51
153.081116
  0
ARC
  8
0
 62
     4
 10
1.599176
 20
44.925552
 40
0.599176
 50
157.508377
 51
202.491623
  0
ARC
  8
0
 62
     4
 10
2.236416
 20
45.300980
 40
1.335548
 50
206.918884
 51
246.406387
  0
ARC
  8
0
 62
     4
 10
4.000000
 20
49.441727
 40
5.836175
 50
246.810471
 51
293.189545
  0
ARC
  8
0
 62
     4
 10
5.763584
 20
45.300980
 40
1.335550
 50
293.593628
 51
333.081116
  0
ARC
  8
0
 62
     4
 10
19.921532
 20
44.925552
 40
0.478468
 50
337.487640
 51
22.512358
  0
ARC
  8
0
 62
     4
 10
19.411509
 20
44.624790
 40
1.067979
 50
26.946251
 51
66.433174
  0
ARC
  8
0
 62
     4
 10
18.000000
 20
41.307549
 40
4.673006
 50
66.831825
 51
113.168175
  0
ARC
  8
0
 62
     4
 10
16.588491
 20
44.624790
 40
1.067980
 50
113.566826
 51
153.053741
  0
ARC
  8
0
 62
     4
 10
16.078468
 20
44.925552
 40
0.478468
 50
157.487640
 51
202.512360
  0
ARC
  8
0
 62
     4
 10
16.588491
 20
45.226315
 40
1.067979
 50
206.946259
 51
246.433182
  0
ARC
  8
0
 62
     4
 10
18.000000
 20
48.543556
 40
4.673006
 50
246.831818
 51
293.168182
  0
ARC
  8
0
 62
     4
 10
19.411509
 20
45.226315
 40
1.067980
 50
293.566833
 51
333.053741
  0
ARC
  8
0
 62
     4
 10
20.400824
 20
44.925552
 40
0.599176
 50
337.508392
 51
22.491604
  0
ARC
  8
0
 62
     4
 10
19.763584
 20
44.550125
 40
1.335549
 50
26.918879
 51
66.406380
  0
ARC
  8
0
 62
     4
 10
18.000000
 20
40.409378
 40
5.836175
 50
66.810471
 51
113.189529
  0
ARC
  8
0
 62
     4
 10
16.236416
 20
44.550125
 40
1.335550
 50
113.593620
 51
153.081116
  0
ARC
  8
0
 62
     4
 10
15.599176
 20
44.925552
 40
0.599176
 50
157.508392
 51
202.491608
  0
ARC
  8
0
 62
     4
 10
16.236416
 20
45.300980
 40
1.335549
 50
206.918884
 51
246.406387
  0
ARC
  8
0
 62
     4
 10
18.000000
 20
49.441727
 40
5.836175
 50
246.810471
 51
293.189545
  0
ARC
  8
0
 62
     4
 10
19.763584
 20
45.300980
 40
1.335550
 50
293.593628
 51
333.081116
  0
ARC
  8
0
 62
     4
 10
96.439011
 20
46.880657
 40
3.446531
 50
213.083557
 51
223.423508
  0
ARC
  8
0
 62
     4
 10
97.000000
 20
47.525551
 40
4.298059
 50
224.526901
 51
315.473114
  0
ARC
  8
0
 62
     4
 10
97.560989
 20
46.880657
 40
3.446530
 50
316.576477
 51
326.931122
  0
TEXT
  8
0
 10
-369.785309
 20
256.649994
 40
9.000000
  1
SD CYLINDER
 50
0.000000
 41
1.052632
 51
0.000000
  7
STANDARD
  0
TEXT
  8
0
 10
242.014816
 20
-274.500000
 40
12.500000
  1
KOGANEI CORP.
 50
0.000000
 41
1.052632
 51
0.000000
  7
STANDARD
  0
TEXT
  8
0
 10
251.264664
 20
256.649994
 40
9.000000
  1
DATE: AUG ,1993
 50
0.000000
 41
1.052632
 51
0.000000
  7
STANDARD
  0
TEXT
  8
0
 10
-330.785309
 20
208.149994
 40
9.000000
  1
(WITH SENSOR SWITCH)
 50
0.000000
 41
1.052632
 51
0.000000
  7
STANDARD
  0
TEXT
  8
0
 10
-384.785309
 20
224.149994
 40
9.000000
  1
MODEL:KA0SDDS140*100
 50
0.000000
 41
1.052632
 51
0.000000
  7
STANDARD
  0
ENDSEC
  0
EOF
