  0
SECTION
  2
HEADER
  0
ENDSEC
  0
SECTION
  2
TABLES
  0
TABLE
  2
LTYPE
 70
     4
  0
LTYPE
  2
CONTINUOUS
 70
    64
  3
Solid line
 72
    65
 73
     0
 40
0.000000
  0
LTYPE
  2
DASHED
 70
    64
  3
__ __ __ __ __ __ __ __ __ __ __ __ __ __ __
 72
    65
 73
     2
 40
3.500000
 49
2.000000
 49
-1.500000
  0
LTYPE
  2
CENTER
 70
    64
  3
____ _ ____ _ ____ _ ____ _ ____ _ ____ _ ____
 72
    65
 73
     4
 40
17.500000
 49
13.000000
 49
-1.500000
 49
1.500000
 49
-1.500000
  0
LTYPE
  2
PHANTOM
 70
    64
  3
_____ _ _ _____ _ _ _____ _ _ _____ _ _ ____  
 72
    65
 73
     6
 40
15.500000
 49
8.000000
 49
-1.500000
 49
1.500000
 49
-1.500000
 49
1.500000
 49
-1.500000
  0
LTYPE
  2
DASHED1
 70
    64
  3
__ __ __ __ __ __ __ __ __ __ __ __ __ __ __
 72
    65
 73
     2
 40
1.500000
 49
1.000000
 49
-0.500000
  0
LTYPE
  2
DASHED2
 70
    64
  3
__ __ __ __ __ __ __ __ __ __ __ __ __ __ __
 72
    65
 73
     2
 40
3.500000
 49
2.500000
 49
-1.000000
  0
LTYPE
  2
DASHED3
 70
    64
  3
__ __ __ __ __ __ __ __ __ __ __ __ __ __ __
 72
    65
 73
     2
 40
6.000000
 49
4.000000
 49
-2.000000
  0
LTYPE
  2
DASHED4
 70
    64
  3
__ __ __ __ __ __ __ __ __ __ __ __ __ __ __
 72
    65
 73
     2
 40
12.000000
 49
10.000000
 49
-2.000000
  0
LTYPE
  2
DASHED5
 70
    64
  3
__ __ __ __ __ __ __ __ __ __ __ __ __ __ __
 72
    65
 73
     2
 40
17.000000
 49
15.000000
 49
-2.000000
  0
LTYPE
  2
DASHED6
 70
    64
  3
__ __ __ __ __ __ __ __ __ __ __ __ __ __ __
 72
    65
 73
     2
 40
29.000000
 49
27.000000
 49
-2.000000
  0
LTYPE
  2
PHANTOM1
 70
    64
  3
_____ _ _ _____ _ _ _____ _ _ _____ _ _ ____  
 72
    65
 73
     6
 40
31.000000
 49
25.000000
 49
-1.500000
 49
1.000000
 49
-1.000000
 49
1.000000
 49
-1.500000
  0
LTYPE
  2
PHANTOM2
 70
    64
  3
_____ _ _ _____ _ _ _____ _ _ _____ _ _ ____  
 72
    65
 73
     6
 40
36.000000
 49
27.000000
 49
-1.500000
 49
2.500000
 49
-1.000000
 49
2.500000
 49
-1.500000
  0
LTYPE
  2
PHANTOM3
 70
    64
  3
_____ _ _ _____ _ _ _____ _ _ _____ _ _ ____  
 72
    65
 73
     6
 40
78.000000
 49
64.000000
 49
-2.000000
 49
4.000000
 49
-2.000000
 49
4.000000
 49
-2.000000
  0
LTYPE
  2
CENTER1
 70
    64
  3
____ _ ____ _ ____ _ ____ _ ____ _ ____ _ ____
 72
    65
 73
     4
 40
19.000000
 49
14.000000
 49
-1.000000
 49
3.000000
 49
-1.000000
  0
LTYPE
  2
CENTER2
 70
    64
  3
____ _ ____ _ ____ _ ____ _ ____ _ ____ _ ____
 72
    65
 73
     4
 40
28.500000
 49
25.000000
 49
-1.000000
 49
1.500000
 49
-1.000000
  0
LTYPE
  2
CENTER3
 70
    64
  3
____ _ ____ _ ____ _ ____ _ ____ _ ____ _ ____
 72
    65
 73
     4
 40
31.500000
 49
27.000000
 49
-1.000000
 49
2.500000
 49
-1.000000
  0
LTYPE
  2
CENTER4
 70
    64
  3
____ _ ____ _ ____ _ ____ _ ____ _ ____ _ ____
 72
    65
 73
     4
 40
50.000000
 49
45.000000
 49
-1.000000
 49
3.000000
 49
-1.000000
  0
LTYPE
  2
CENTER5
 70
    64
  3
____ _ ____ _ ____ _ ____ _ ____ _ ____ _ ____
 72
    65
 73
     4
 40
100.000000
 49
92.000000
 49
-2.000000
 49
4.000000
 49
-2.000000
  0
LTYPE
  2
SBK1
 70
    64
  3
______ _ _ _ ______ _ _ _ ______ _ _ _ _____  
 72
    65
 73
     8
 40
60.500000
 49
45.000000
 49
-2.000000
 49
2.500000
 49
-2.000000
 49
2.500000
 49
-2.000000
 49
2.500000
 49
-2.000000
  0
LTYPE
  2
SBK2
 70
    64
  3
______ _ _ _ ______ _ _ _ ______ _ _ _ _____  
 72
    65
 73
     8
 40
84.000000
 49
64.000000
 49
-2.000000
 49
4.000000
 49
-2.000000
 49
4.000000
 49
-2.000000
 49
4.000000
 49
-2.000000
  0
LTYPE
  2
STCH
 70
    64
  3
__ __ __ __ __ __ __ __ __ __ __ __ __ __ __
 72
    65
 73
     2
 40
3.000000
 49
1.000000
 49
-2.000000
  0
LTYPE
  2
MTCH
 70
    64
  3
_____ _ _ _____ _ _ _____ _ _ _____ _ _ ____  
 72
    65
 73
     6
 40
80.000000
 49
66.000000
 49
-2.000000
 49
4.000000
 49
-2.000000
 49
4.000000
 49
-2.000000
  0
ENDTAB
  0
TABLE
  2
LAYER
 70
     1
  0
LAYER
  2
0
 70
     0
 62
     7
  6
CONTINUOUS
  0
ENDTAB
  0
TABLE
  2
STYLE
 70
     1
  0
STYLE
  2
STANDARD
 70
     0
 40
0.000000
 41
1.000000
 50
0.000000
 71
     0
 42
0.200000
  3
txt
  4
BIGFONT
  0
ENDTAB
  0
TABLE
  2
VIEW
 70
     0
  0
ENDTAB
  0
ENDSEC
  0
SECTION
  2
BLOCKS
  0
ENDSEC
  0
SECTION
  2
ENTITIES
  0
LINE
  8
0
 10
574.500000
 20
400.500000
 11
574.500000
 21
-400.500000
  0
LINE
  8
0
 10
-564.500000
 20
400.500000
 11
574.500000
 21
400.500000
  0
LINE
  8
0
 10
-564.500000
 20
-400.500000
 11
574.500000
 21
-400.500000
  0
LINE
  8
0
 10
-564.500000
 20
400.500000
 11
-564.500000
 21
-400.500000
  0
LINE
  8
0
 10
-564.500000
 20
370.500000
 11
-334.500000
 21
370.500000
  0
LINE
  8
0
 10
344.500000
 20
370.500000
 11
574.500000
 21
370.500000
  0
LINE
  8
0
 10
344.500000
 20
-370.500000
 11
574.500000
 21
-370.500000
  0
LINE
  8
0
 10
344.500000
 20
-370.500000
 11
344.500000
 21
-400.500000
  0
LINE
  8
0
 10
344.500000
 20
400.500000
 11
344.500000
 21
370.500000
  0
LINE
  8
0
 10
-334.500000
 20
400.500000
 11
-334.500000
 21
370.500000
  0
LINE
  8
0
 10
-21.000000
 20
-27.000000
 11
-21.000000
 21
-253.000000
  0
LINE
  8
0
  6
CENTER
 62
     2
 10
-2.500000
 20
-23.534729
 11
-2.500000
 21
-151.299988
  0
LINE
  8
0
  6
DASHED
 62
     2
 10
166.404907
 20
-139.250000
 11
176.595093
 21
-139.250000
  0
LINE
  8
0
  6
DASHED
 62
     2
 10
166.404907
 20
-140.750000
 11
176.595093
 21
-140.750000
  0
LINE
  8
0
  6
CENTER
 62
     2
 10
171.500000
 20
-23.585693
 11
171.500000
 21
-150.202637
  0
LINE
  8
0
 10
190.000000
 20
-27.000000
 11
190.000000
 21
-253.000000
  0
LINE
  8
0
 10
-7.595093
 20
-139.250000
 11
2.595093
 21
-139.250000
  0
LINE
  8
0
 10
-7.595093
 20
-140.750000
 11
2.595093
 21
-140.750000
  0
LINE
  8
0
 10
18.000000
 20
-27.000000
 11
18.000000
 21
-253.000000
  0
LINE
  8
0
 10
151.000000
 20
-27.000000
 11
151.000000
 21
-253.000000
  0
LINE
  8
0
  6
DASHED
 62
     2
 10
184.721771
 20
-27.000065
 11
184.229279
 21
-41.100048
  0
LINE
  8
0
  6
DASHED
 62
     2
 10
158.772049
 20
-41.100018
 11
158.279388
 21
-27.000038
  0
LINE
  8
0
  6
DASHED
 62
     2
 10
160.000000
 20
-28.500000
 11
183.000000
 21
-28.500000
  0
LINE
  8
0
  6
DASHED
 62
     2
 10
160.000000
 20
-28.500000
 11
160.000000
 21
-41.099976
  0
LINE
  8
0
  6
DASHED
 62
     2
 10
183.000000
 20
-28.500000
 11
183.000000
 21
-41.099976
  0
LINE
  8
0
  6
DASHED
 62
     2
 10
184.720642
 20
-27.000284
 11
183.000168
 21
-28.500265
  0
LINE
  8
0
  6
DASHED
 62
     2
 10
158.280106
 20
-26.999233
 11
160.000626
 21
-28.499254
  0
LINE
  8
0
 10
-31.000000
 20
-83.500000
 11
-31.000000
 21
-196.500000
  0
LINE
  8
0
 10
-30.000000
 20
-82.500000
 11
-30.000000
 21
-197.500000
  0
LINE
  8
0
 10
-30.000000
 20
-82.500000
 11
-21.000000
 21
-82.500000
  0
LINE
  8
0
 10
-31.000027
 20
-83.499962
 11
-30.000048
 21
-82.499985
  0
LINE
  8
0
 10
-31.000011
 20
-196.499985
 11
-29.999989
 21
-197.500000
  0
LINE
  8
0
 10
-61.000000
 20
-107.000000
 11
-61.000000
 21
-173.000000
  0
LINE
  8
0
 10
-34.000000
 20
-94.000000
 11
-34.000000
 21
-98.765991
  0
LINE
  8
0
 10
-33.000000
 20
-93.000000
 11
-31.000000
 21
-93.000000
  0
LINE
  8
0
 10
-33.000000
 20
-187.000000
 11
-31.000000
 21
-187.000000
  0
LINE
  8
0
 10
-40.999981
 20
-105.259354
 11
-59.961525
 21
-105.961632
  0
LINE
  8
0
 10
-59.961540
 20
-174.038391
 11
-41.000008
 21
-174.740662
  0
LINE
  8
0
 10
-40.000000
 20
-165.234009
 11
-31.000000
 21
-165.234009
  0
LINE
  8
0
 10
-40.000000
 20
-181.234009
 11
-31.000000
 21
-181.234009
  0
LINE
  8
0
 10
-41.000000
 20
-166.234009
 11
-41.000000
 21
-180.234009
  0
LINE
  8
0
 10
-41.000019
 20
-166.233978
 11
-39.999996
 21
-165.233963
  0
LINE
  8
0
 10
-40.000042
 20
-181.233963
 11
-41.000023
 21
-180.233978
  0
LINE
  8
0
 10
-40.000000
 20
-165.234009
 11
-40.000000
 21
-181.234009
  0
LINE
  8
0
 10
-40.000000
 20
-114.765991
 11
-31.000000
 21
-114.765991
  0
LINE
  8
0
 10
-41.000000
 20
-99.765991
 11
-41.000000
 21
-113.765991
  0
LINE
  8
0
 10
-39.999989
 20
-114.766060
 11
-41.000011
 21
-113.766037
  0
LINE
  8
0
 10
-40.000000
 20
-98.765991
 11
-40.000000
 21
-114.765991
  0
LINE
  8
0
 10
-41.000004
 20
-99.766045
 11
-40.000027
 21
-98.766060
  0
LINE
  8
0
 10
-40.000000
 20
-98.765991
 11
-31.000000
 21
-98.765991
  0
LINE
  8
0
 10
-34.000000
 20
-181.234009
 11
-34.000000
 21
-186.000000
  0
LINE
  8
0
 10
-34.000000
 20
-114.765991
 11
-34.000000
 21
-165.234009
  0
LINE
  8
0
  6
DASHED
 62
     2
 10
-15.720220
 20
-26.999735
 11
-13.999752
 21
-28.499716
  0
LINE
  8
0
  6
DASHED
 62
     2
 10
10.720814
 20
-27.000105
 11
10.228320
 21
-41.100090
  0
LINE
  8
0
  6
DASHED
 62
     2
 10
-15.227875
 20
-41.100010
 11
-15.720538
 21
-26.999971
  0
LINE
  8
0
  6
DASHED
 62
     2
 10
-14.000000
 20
-28.500000
 11
9.000000
 21
-28.500000
  0
LINE
  8
0
  6
DASHED
 62
     2
 10
-14.000000
 20
-28.500000
 11
-14.000000
 21
-41.099976
  0
LINE
  8
0
  6
DASHED
 62
     2
 10
9.000000
 20
-28.500000
 11
9.000000
 21
-41.099976
  0
LINE
  8
0
  6
DASHED
 62
     2
 10
10.720487
 20
-26.999969
 11
8.999973
 21
-28.499990
  0
LINE
  8
0
 10
-156.000000
 20
-118.250000
 11
-156.000000
 21
-161.750000
  0
LINE
  8
0
 10
-61.000050
 20
-106.999969
 11
-59.961617
 21
-105.961533
  0
LINE
  8
0
 10
-60.999939
 20
-172.999969
 11
-59.961506
 21
-174.038406
  0
LINE
  8
0
 10
-59.961548
 20
-105.961548
 11
-59.961548
 21
-174.038452
  0
LINE
  8
0
 10
-155.250000
 20
-162.500000
 11
-90.000000
 21
-162.500000
  0
LINE
  8
0
 10
-93.000000
 20
-117.500000
 11
-93.000000
 21
-162.500000
  0
LINE
  8
0
 10
-90.000000
 20
-117.500000
 11
-90.000000
 21
-162.500000
  0
LINE
  8
0
 10
-85.669876
 20
-165.000000
 11
-61.000000
 21
-165.000000
  0
LINE
  8
0
 10
-85.669876
 20
-115.000000
 11
-61.000000
 21
-115.000000
  0
LINE
  8
0
 10
-89.999992
 20
-162.499969
 11
-85.669868
 21
-164.999969
  0
LINE
  8
0
 10
-90.000008
 20
-117.499977
 11
-85.669884
 21
-114.999977
  0
LINE
  8
0
 10
-155.250000
 20
-117.500000
 11
-90.000000
 21
-117.500000
  0
LINE
  8
0
 10
-85.669876
 20
-165.000000
 11
-85.669876
 21
-149.797974
  0
LINE
  8
0
 10
-85.669876
 20
-130.202026
 11
-85.669876
 21
-115.000000
  0
LINE
  8
0
 10
-85.669861
 20
-130.202026
 11
-73.000000
 21
-130.202026
  0
LINE
  8
0
 10
-85.669876
 20
-149.797974
 11
-73.000000
 21
-149.797974
  0
LINE
  8
0
 10
-73.000000
 20
-130.202026
 11
-73.000000
 21
-149.797974
  0
LINE
  8
0
 62
     2
 10
-85.669884
 20
-149.797928
 11
-73.000000
 21
-130.201996
  0
LINE
  8
0
 62
     2
 10
-85.669815
 20
-130.202057
 11
-72.999931
 21
-149.797989
  0
LINE
  8
0
 10
-21.000000
 20
-27.000000
 11
18.000000
 21
-27.000000
  0
LINE
  8
0
 10
151.000000
 20
-27.000000
 11
190.000000
 21
-27.000000
  0
LINE
  8
0
 10
151.000000
 20
-253.000000
 11
190.000000
 21
-253.000000
  0
LINE
  8
0
 10
195.099976
 20
-66.320496
 11
195.099976
 21
-31.679504
  0
LINE
  8
0
 10
195.099976
 20
-32.500122
 11
190.000000
 21
-32.500122
  0
LINE
  8
0
 10
195.099976
 20
-65.500122
 11
190.000000
 21
-65.500122
  0
LINE
  8
0
 10
209.471558
 20
-66.320679
 11
195.099976
 21
-66.320679
  0
LINE
  8
0
 10
209.471558
 20
-31.679687
 11
195.099976
 21
-31.679687
  0
LINE
  8
0
 10
211.099976
 20
-63.500000
 11
211.099976
 21
-34.500000
  0
LINE
  8
0
 10
209.599976
 20
-57.660400
 11
195.099976
 21
-57.660400
  0
LINE
  8
0
 10
209.471558
 20
-40.339905
 11
195.099976
 21
-40.339905
  0
LINE
  8
0
 10
211.100357
 20
-63.500164
 11
209.471939
 21
-66.320671
  0
LINE
  8
0
 10
211.100266
 20
-34.499939
 11
209.471848
 21
-31.679438
  0
LINE
  8
0
 10
-42.099983
 20
-63.499924
 11
-40.471565
 21
-66.320427
  0
LINE
  8
0
 10
-26.100006
 20
-31.679504
 11
-26.100006
 21
-66.320496
  0
LINE
  8
0
 10
-26.100006
 20
-65.500000
 11
-21.000000
 21
-65.500000
  0
LINE
  8
0
 10
-26.100006
 20
-32.500000
 11
-21.000000
 21
-32.500000
  0
LINE
  8
0
 10
-40.471588
 20
-31.679504
 11
-26.100006
 21
-31.679504
  0
LINE
  8
0
 10
-40.471588
 20
-66.320496
 11
-26.100006
 21
-66.320496
  0
LINE
  8
0
 10
-42.100006
 20
-34.500000
 11
-42.100006
 21
-63.500000
  0
LINE
  8
0
 10
-40.600006
 20
-40.339722
 11
-26.100006
 21
-40.339722
  0
LINE
  8
0
 10
-40.471588
 20
-57.660278
 11
-26.100006
 21
-57.660278
  0
LINE
  8
0
 10
-42.099991
 20
-34.499981
 11
-40.471573
 21
-31.679480
  0
LINE
  8
0
 10
-42.099987
 20
-245.500000
 11
-40.471569
 21
-248.320511
  0
LINE
  8
0
 10
-55.250004
 20
-221.000000
 11
-42.100006
 21
-221.000000
  0
LINE
  8
0
 10
-55.250000
 20
-241.000000
 11
-42.100006
 21
-241.000000
  0
LINE
  8
0
 10
-56.000000
 20
-221.750000
 11
-56.000000
 21
-240.250000
  0
LINE
  8
0
 10
-26.100006
 20
-213.679504
 11
-26.100006
 21
-248.320496
  0
LINE
  8
0
 10
-26.100006
 20
-247.500000
 11
-21.000000
 21
-247.500000
  0
LINE
  8
0
 10
-26.100006
 20
-214.500000
 11
-21.000000
 21
-214.500000
  0
LINE
  8
0
 10
-40.471588
 20
-213.679504
 11
-26.100006
 21
-213.679504
  0
LINE
  8
0
 10
-40.471588
 20
-248.320496
 11
-26.100006
 21
-248.320496
  0
LINE
  8
0
 10
-42.100006
 20
-216.500000
 11
-42.100006
 21
-245.500000
  0
LINE
  8
0
 10
-40.600006
 20
-222.339722
 11
-26.100006
 21
-222.339722
  0
LINE
  8
0
 10
-40.471588
 20
-239.660278
 11
-26.100006
 21
-239.660278
  0
LINE
  8
0
 10
-42.099976
 20
-216.500092
 11
-40.471558
 21
-213.679581
  0
LINE
  8
0
 10
195.099976
 20
-248.320496
 11
195.099976
 21
-213.679504
  0
LINE
  8
0
 10
195.099976
 20
-214.500122
 11
190.000000
 21
-214.500122
  0
LINE
  8
0
 10
195.099976
 20
-247.500122
 11
190.000000
 21
-247.500122
  0
LINE
  8
0
 10
209.471558
 20
-248.320679
 11
195.099976
 21
-248.320679
  0
LINE
  8
0
 10
209.471558
 20
-213.679687
 11
195.099976
 21
-213.679687
  0
LINE
  8
0
 10
211.099976
 20
-245.500000
 11
211.099976
 21
-216.500000
  0
LINE
  8
0
 10
209.599976
 20
-239.660400
 11
195.099976
 21
-239.660400
  0
LINE
  8
0
 10
209.471558
 20
-222.339905
 11
195.099976
 21
-222.339905
  0
LINE
  8
0
 10
211.100662
 20
-245.500290
 11
209.472244
 21
-248.320801
  0
LINE
  8
0
 10
211.100067
 20
-216.499893
 11
209.471649
 21
-213.679382
  0
LINE
  8
0
 10
18.000000
 20
-241.000000
 11
151.000000
 21
-241.000000
  0
LINE
  8
0
 10
18.000000
 20
-221.000000
 11
151.000000
 21
-221.000000
  0
LINE
  8
0
 10
18.000000
 20
-39.000000
 11
151.000000
 21
-39.000000
  0
LINE
  8
0
 10
18.000000
 20
-59.000000
 11
151.000000
 21
-59.000000
  0
LINE
  8
0
  6
CENTER
 62
     2
 10
-162.099396
 20
-140.000000
 11
437.958252
 21
-140.000000
  0
LINE
  8
0
 10
18.000000
 20
-246.500000
 11
151.000000
 21
-246.500000
  0
LINE
  8
0
 10
18.000000
 20
-33.500000
 11
151.000000
 21
-33.500000
  0
LINE
  8
0
 10
-21.000000
 20
-197.500000
 11
-30.000000
 21
-197.500000
  0
LINE
  8
0
 62
     2
 10
-156.000000
 20
-118.250000
 11
-93.000000
 21
-118.250000
  0
LINE
  8
0
 62
     2
 10
-56.000000
 20
-221.750000
 11
-42.100006
 21
-221.750000
  0
LINE
  8
0
 62
     2
 10
-56.000000
 20
-240.250000
 11
-42.100006
 21
-240.250000
  0
LINE
  8
0
 10
-21.000000
 20
-253.000000
 11
18.000000
 21
-253.000000
  0
LINE
  8
0
 10
200.000000
 20
-83.500000
 11
200.000000
 21
-196.500000
  0
LINE
  8
0
 10
199.000000
 20
-82.500000
 11
199.000000
 21
-197.500000
  0
LINE
  8
0
 10
199.000000
 20
-82.500000
 11
190.000000
 21
-82.500000
  0
LINE
  8
0
 10
199.999893
 20
-83.500076
 11
198.999908
 21
-82.500099
  0
LINE
  8
0
 10
199.999985
 20
-196.499771
 11
198.999969
 21
-197.499786
  0
LINE
  8
0
 10
230.000000
 20
-107.000000
 11
230.000000
 21
-173.000000
  0
LINE
  8
0
 10
203.000000
 20
-94.000000
 11
203.000000
 21
-98.765991
  0
LINE
  8
0
 10
202.000000
 20
-93.000000
 11
200.000000
 21
-93.000000
  0
LINE
  8
0
 10
202.000000
 20
-187.000000
 11
200.000000
 21
-187.000000
  0
LINE
  8
0
 10
209.999924
 20
-105.259285
 11
228.961472
 21
-105.961571
  0
LINE
  8
0
 10
228.961502
 20
-174.038589
 11
209.999954
 21
-174.740860
  0
LINE
  8
0
 10
209.000000
 20
-165.234009
 11
200.000000
 21
-165.234009
  0
LINE
  8
0
 10
209.000000
 20
-181.234009
 11
200.000000
 21
-181.234009
  0
LINE
  8
0
 10
210.000000
 20
-166.234009
 11
210.000000
 21
-180.234009
  0
LINE
  8
0
 10
209.999893
 20
-166.233994
 11
208.999878
 21
-165.233963
  0
LINE
  8
0
 10
208.999451
 20
-181.233414
 11
209.999420
 21
-180.233444
  0
LINE
  8
0
 10
209.000000
 20
-165.234009
 11
209.000000
 21
-181.234009
  0
LINE
  8
0
 10
209.000000
 20
-114.765991
 11
200.000000
 21
-114.765991
  0
LINE
  8
0
 10
210.000000
 20
-99.765991
 11
210.000000
 21
-113.765991
  0
LINE
  8
0
 10
208.999924
 20
-114.765877
 11
209.999924
 21
-113.765877
  0
LINE
  8
0
 10
209.000000
 20
-98.765991
 11
209.000000
 21
-114.765991
  0
LINE
  8
0
 10
209.999893
 20
-99.766083
 11
208.999924
 21
-98.766098
  0
LINE
  8
0
 10
209.000000
 20
-98.765991
 11
200.000000
 21
-98.765991
  0
LINE
  8
0
 10
203.000000
 20
-181.234009
 11
203.000000
 21
-186.000000
  0
LINE
  8
0
 10
203.000000
 20
-114.765991
 11
203.000000
 21
-165.234009
  0
LINE
  8
0
 10
425.000000
 20
-118.250000
 11
425.000000
 21
-161.750000
  0
LINE
  8
0
 10
229.999924
 20
-107.000061
 11
228.961502
 21
-105.961624
  0
LINE
  8
0
 10
230.000381
 20
-173.000351
 11
228.961914
 21
-174.038834
  0
LINE
  8
0
 10
228.961548
 20
-105.961548
 11
228.961548
 21
-174.038452
  0
LINE
  8
0
 10
362.000000
 20
-117.500000
 11
362.000000
 21
-162.500000
  0
LINE
  8
0
 10
359.000000
 20
-117.500000
 11
359.000000
 21
-162.500000
  0
LINE
  8
0
 10
354.669861
 20
-165.000000
 11
230.000000
 21
-165.000000
  0
LINE
  8
0
 10
354.669861
 20
-115.000000
 11
230.000000
 21
-115.000000
  0
LINE
  8
0
 10
359.000122
 20
-162.500366
 11
354.670013
 21
-165.000351
  0
LINE
  8
0
 10
359.000183
 20
-117.499641
 11
354.670074
 21
-114.999619
  0
LINE
  8
0
 10
354.669861
 20
-165.000000
 11
354.669861
 21
-149.797974
  0
LINE
  8
0
 10
354.669861
 20
-130.202026
 11
354.669861
 21
-115.000000
  0
LINE
  8
0
 10
354.669861
 20
-130.202026
 11
342.000000
 21
-130.202026
  0
LINE
  8
0
 10
354.669861
 20
-149.797974
 11
342.000000
 21
-149.797974
  0
LINE
  8
0
 10
342.000000
 20
-130.202026
 11
342.000000
 21
-149.797974
  0
LINE
  8
0
 62
     2
 10
354.670502
 20
-149.797684
 11
342.000580
 21
-130.201782
  0
LINE
  8
0
 62
     2
 10
354.669800
 20
-130.201996
 11
341.999939
 21
-149.797928
  0
LINE
  8
0
 10
190.000000
 20
-197.500000
 11
199.000000
 21
-197.500000
  0
LINE
  8
0
 62
     2
 10
-92.999985
 20
-118.249992
 11
-91.700974
 21
-117.500008
  0
LINE
  8
0
 10
-156.000031
 20
-118.250069
 11
-155.250015
 21
-117.500061
  0
LINE
  8
0
 10
-155.250000
 20
-117.500000
 11
-155.250000
 21
-162.500000
  0
LINE
  8
0
 62
     2
 10
-156.000000
 20
-161.750000
 11
-93.000000
 21
-161.750000
  0
LINE
  8
0
 62
     2
 10
-93.000008
 20
-161.749969
 11
-91.700966
 21
-162.499969
  0
LINE
  8
0
 10
-156.000229
 20
-161.750168
 11
-155.250214
 21
-162.500168
  0
LINE
  8
0
 10
424.250000
 20
-162.500000
 11
359.000000
 21
-162.500000
  0
LINE
  8
0
 62
     2
 10
362.000092
 20
-161.750183
 11
360.701080
 21
-162.500183
  0
LINE
  8
0
 10
424.250000
 20
-117.500000
 11
359.000000
 21
-117.500000
  0
LINE
  8
0
 10
425.000183
 20
-161.750183
 11
424.250214
 21
-162.500153
  0
LINE
  8
0
 62
     2
 10
425.000000
 20
-118.250000
 11
362.000000
 21
-118.250000
  0
LINE
  8
0
 62
     2
 10
361.999939
 20
-118.250092
 11
360.700897
 21
-117.500084
  0
LINE
  8
0
 10
425.000275
 20
-118.249817
 11
424.250275
 21
-117.499809
  0
LINE
  8
0
 10
424.250000
 20
-117.500000
 11
424.250000
 21
-162.500000
  0
LINE
  8
0
 62
     2
 10
425.000000
 20
-161.750000
 11
362.000000
 21
-161.750000
  0
LINE
  8
0
 10
-55.250015
 20
-220.999954
 11
-56.000023
 21
-221.749954
  0
LINE
  8
0
 10
-55.250004
 20
-221.000000
 11
-55.250004
 21
-241.000000
  0
LINE
  8
0
 10
-55.999973
 20
-240.249954
 11
-55.249966
 21
-240.999954
  0
LINE
  8
0
 10
224.250000
 20
-221.000000
 11
211.100006
 21
-221.000000
  0
LINE
  8
0
 10
224.250000
 20
-241.000000
 11
211.100006
 21
-241.000000
  0
LINE
  8
0
 10
225.000000
 20
-221.750000
 11
225.000000
 21
-240.250000
  0
LINE
  8
0
 62
     2
 10
225.000000
 20
-221.750000
 11
211.100006
 21
-221.750000
  0
LINE
  8
0
 62
     2
 10
225.000000
 20
-240.250000
 11
211.100006
 21
-240.250000
  0
LINE
  8
0
 10
224.249985
 20
-221.000000
 11
224.999985
 21
-221.750000
  0
LINE
  8
0
 10
224.250000
 20
-221.000000
 11
224.250000
 21
-241.000000
  0
LINE
  8
0
 10
225.000305
 20
-240.250351
 11
224.250290
 21
-241.000366
  0
LINE
  8
0
 10
-55.250004
 20
-59.000000
 11
-42.100006
 21
-59.000000
  0
LINE
  8
0
 10
-55.250000
 20
-39.000000
 11
-42.100006
 21
-39.000000
  0
LINE
  8
0
 10
-56.000000
 20
-58.250000
 11
-56.000000
 21
-39.750000
  0
LINE
  8
0
 62
     2
 10
-56.000000
 20
-58.250000
 11
-42.100006
 21
-58.250000
  0
LINE
  8
0
 62
     2
 10
-56.000000
 20
-39.750000
 11
-42.100006
 21
-39.750000
  0
LINE
  8
0
 10
-55.250023
 20
-58.999969
 11
-55.999989
 21
-58.250011
  0
LINE
  8
0
 10
-55.250004
 20
-59.000000
 11
-55.250004
 21
-39.000000
  0
LINE
  8
0
 10
-56.000008
 20
-39.750034
 11
-55.250004
 21
-39.000027
  0
LINE
  8
0
 10
224.250000
 20
-59.000000
 11
211.100006
 21
-59.000000
  0
LINE
  8
0
 10
224.250000
 20
-39.000000
 11
211.100006
 21
-39.000000
  0
LINE
  8
0
 10
225.000000
 20
-58.250000
 11
225.000000
 21
-39.750000
  0
LINE
  8
0
 62
     2
 10
225.000000
 20
-58.250000
 11
211.100006
 21
-58.250000
  0
LINE
  8
0
 62
     2
 10
225.000000
 20
-39.750000
 11
211.100006
 21
-39.750000
  0
LINE
  8
0
 10
224.250092
 20
-59.000061
 11
225.000107
 21
-58.250057
  0
LINE
  8
0
 10
224.250000
 20
-59.000000
 11
224.250000
 21
-39.000000
  0
LINE
  8
0
 10
225.000076
 20
-39.749958
 11
224.250122
 21
-38.999981
  0
LINE
  8
0
  6
CENTER
 62
     2
 10
-65.504944
 20
-49.000000
 11
234.137604
 21
-49.000000
  0
LINE
  8
0
  6
CENTER
 62
     2
 10
-65.504944
 20
-231.000000
 11
234.137604
 21
-231.000000
  0
LINE
  8
0
  6
CENTER
 62
     2
 10
-473.928223
 20
-140.000000
 11
-226.728210
 21
-140.000000
  0
LINE
  8
0
 10
-315.570404
 20
-168.772446
 11
-312.304443
 21
-172.038406
  0
LINE
  8
0
 10
-321.227325
 20
-174.429443
 11
-317.961334
 21
-177.695450
  0
LINE
  8
0
 10
-312.305054
 20
-172.038483
 11
-313.500488
 21
-176.499924
  0
LINE
  8
0
 10
-320.032501
 20
-169.967865
 11
-321.227936
 21
-174.429260
  0
LINE
  8
0
 10
-317.961487
 20
-177.695587
 11
-313.500031
 21
-176.500153
  0
LINE
  8
0
 10
-320.031982
 20
-169.968155
 11
-315.570587
 21
-168.772720
  0
LINE
  8
0
 10
-321.227264
 20
-105.570625
 11
-317.961304
 21
-102.304665
  0
LINE
  8
0
 10
-315.570374
 20
-111.227646
 11
-312.304382
 21
-107.961639
  0
LINE
  8
0
 10
-317.961304
 20
-102.304619
 11
-313.499847
 21
-103.500061
  0
LINE
  8
0
 10
-320.031921
 20
-110.032036
 11
-315.570526
 21
-111.227463
  0
LINE
  8
0
 10
-312.304626
 20
-107.961411
 11
-313.500061
 21
-103.500015
  0
LINE
  8
0
 10
-320.031982
 20
-110.032082
 11
-321.227417
 21
-105.570625
  0
LINE
  8
0
 10
-384.429321
 20
-111.227219
 11
-387.695282
 21
-107.961250
  0
LINE
  8
0
 10
-378.772339
 20
-105.570335
 11
-382.038330
 21
-102.304321
  0
LINE
  8
0
 10
-387.695557
 20
-107.961380
 11
-386.500122
 21
-103.499931
  0
LINE
  8
0
 10
-379.968048
 20
-110.031937
 11
-378.772614
 21
-105.570541
  0
LINE
  8
0
 10
-382.038574
 20
-102.304550
 11
-386.499969
 21
-103.499977
  0
LINE
  8
0
 10
-379.968018
 20
-110.032021
 11
-384.429413
 21
-111.227448
  0
LINE
  8
0
 10
-378.772644
 20
-174.429565
 11
-382.038635
 21
-177.695526
  0
LINE
  8
0
 10
-384.429321
 20
-168.772720
 11
-387.695374
 21
-172.038773
  0
LINE
  8
0
 10
-382.038635
 20
-177.695602
 11
-386.500092
 21
-176.500153
  0
LINE
  8
0
 10
-379.968079
 20
-169.968170
 11
-384.429535
 21
-168.772720
  0
LINE
  8
0
 10
-387.695068
 20
-172.038406
 11
-386.499634
 21
-176.499802
  0
LINE
  8
0
 10
-379.967621
 20
-169.967926
 11
-378.772217
 21
-174.429306
  0
LINE
  8
0
 10
-327.000000
 20
-130.202026
 11
-327.000000
 21
-149.797974
  0
LINE
  8
0
 10
-373.000000
 20
-130.202026
 11
-373.000000
 21
-149.797974
  0
LINE
  8
0
 10
-237.000000
 20
-27.000000
 11
-237.000000
 21
-253.000000
  0
LINE
  8
0
 10
-463.000000
 20
-27.000000
 11
-463.000000
 21
-253.000000
  0
LINE
  8
0
 10
-463.000000
 20
-27.000000
 11
-237.000000
 21
-27.000000
  0
LINE
  8
0
  6
CENTER
 62
     2
 10
-259.000000
 20
-212.047607
 11
-259.000000
 21
-250.263672
  0
LINE
  8
0
  6
CENTER
 62
     2
 10
-276.020538
 20
-231.000000
 11
-241.470490
 21
-231.000000
  0
LINE
  8
0
 10
-244.000000
 20
-222.339722
 11
-244.000000
 21
-239.660278
  0
LINE
  8
0
 10
-274.000000
 20
-222.339722
 11
-274.000000
 21
-239.660278
  0
LINE
  8
0
 10
-259.000092
 20
-213.679581
 11
-244.000046
 21
-222.339859
  0
LINE
  8
0
 10
-274.000031
 20
-239.660477
 11
-259.000000
 21
-248.320755
  0
LINE
  8
0
 10
-259.000031
 20
-248.320572
 11
-243.999985
 21
-239.660294
  0
LINE
  8
0
 10
-274.000031
 20
-222.339767
 11
-258.999969
 21
-213.679489
  0
LINE
  8
0
  6
CENTER
 62
     2
 10
-259.000000
 20
-30.047607
 11
-259.000000
 21
-68.263672
  0
LINE
  8
0
  6
CENTER
 62
     2
 10
-276.020538
 20
-49.000000
 11
-241.470490
 21
-49.000000
  0
LINE
  8
0
 10
-244.000000
 20
-40.339722
 11
-244.000000
 21
-57.660278
  0
LINE
  8
0
 10
-274.000000
 20
-40.339722
 11
-274.000000
 21
-57.660278
  0
LINE
  8
0
 10
-259.000061
 20
-31.679495
 11
-244.000000
 21
-40.339771
  0
LINE
  8
0
 10
-274.000061
 20
-57.660259
 11
-259.000031
 21
-66.320526
  0
LINE
  8
0
 10
-259.000061
 20
-66.320267
 11
-244.000061
 21
-57.660015
  0
LINE
  8
0
 10
-274.000061
 20
-40.339500
 11
-259.000061
 21
-31.679253
  0
LINE
  8
0
  6
CENTER
 62
     2
 10
-441.000000
 20
-212.047607
 11
-441.000000
 21
-250.263672
  0
LINE
  8
0
  6
CENTER
 62
     2
 10
-458.020508
 20
-231.000000
 11
-423.470459
 21
-231.000000
  0
LINE
  8
0
 10
-426.000000
 20
-222.339722
 11
-426.000000
 21
-239.660278
  0
LINE
  8
0
 10
-456.000000
 20
-222.339722
 11
-456.000000
 21
-239.660278
  0
LINE
  8
0
 10
-441.000153
 20
-213.679794
 11
-426.000153
 21
-222.340042
  0
LINE
  8
0
 10
-456.000153
 20
-239.660553
 11
-441.000153
 21
-248.320801
  0
LINE
  8
0
 10
-441.000092
 20
-248.320496
 11
-426.000031
 21
-239.660217
  0
LINE
  8
0
 10
-456.000122
 20
-222.339630
 11
-441.000183
 21
-213.679413
  0
LINE
  8
0
  6
CENTER
 62
     2
 10
-441.000000
 20
-30.047607
 11
-441.000000
 21
-68.263672
  0
LINE
  8
0
  6
CENTER
 62
     2
 10
-458.020508
 20
-49.000000
 11
-423.470459
 21
-49.000000
  0
LINE
  8
0
 10
-426.000000
 20
-40.339722
 11
-426.000000
 21
-57.660278
  0
LINE
  8
0
 10
-456.000000
 20
-40.339722
 11
-456.000000
 21
-57.660278
  0
LINE
  8
0
 10
-441.000092
 20
-31.679646
 11
-426.000092
 21
-40.339893
  0
LINE
  8
0
 10
-456.000061
 20
-57.660381
 11
-441.000031
 21
-66.320663
  0
LINE
  8
0
 10
-441.000153
 20
-66.320305
 11
-426.000122
 21
-57.660023
  0
LINE
  8
0
 10
-456.000214
 20
-40.339405
 11
-441.000183
 21
-31.679129
  0
LINE
  8
0
 10
-463.000000
 20
-253.000000
 11
-237.000000
 21
-253.000000
  0
LINE
  8
0
  6
CENTER
 62
     2
 10
-350.000000
 20
-18.435059
 11
-350.000000
 21
-263.235046
  0
LINE
  8
0
 10
-21.000000
 20
283.000000
 11
-21.000000
 21
57.000000
  0
LINE
  8
0
  6
CENTER
 62
     2
 10
171.500000
 20
188.000000
 11
171.500000
 21
152.000000
  0
LINE
  8
0
 10
190.000000
 20
283.000000
 11
190.000000
 21
57.000000
  0
LINE
  8
0
 10
18.000000
 20
283.000000
 11
18.000000
 21
57.000000
  0
LINE
  8
0
 10
151.000000
 20
283.000000
 11
151.000000
 21
57.000000
  0
LINE
  8
0
 10
-31.000000
 20
226.500000
 11
-31.000000
 21
113.500000
  0
LINE
  8
0
 10
-30.000000
 20
227.500000
 11
-30.000000
 21
112.500000
  0
LINE
  8
0
 10
-30.000000
 20
227.500000
 11
-21.000000
 21
227.500000
  0
LINE
  8
0
 10
-31.000023
 20
226.500031
 11
-30.000042
 21
227.500000
  0
LINE
  8
0
 10
-31.000019
 20
113.500015
 11
-29.999996
 21
112.499992
  0
LINE
  8
0
 10
-61.000000
 20
203.000000
 11
-61.000000
 21
137.000000
  0
LINE
  8
0
 10
-34.000000
 20
216.000000
 11
-34.000000
 21
211.234009
  0
LINE
  8
0
 10
-33.000000
 20
217.000000
 11
-31.000000
 21
217.000000
  0
LINE
  8
0
 10
-33.000000
 20
123.000000
 11
-31.000000
 21
123.000000
  0
LINE
  8
0
 10
-40.999977
 20
204.740570
 11
-59.961517
 21
204.038300
  0
LINE
  8
0
 10
-59.961540
 20
135.961533
 11
-41.000008
 21
135.259262
  0
LINE
  8
0
 10
-40.000000
 20
144.765991
 11
-31.000000
 21
144.765991
  0
LINE
  8
0
 10
-40.000000
 20
128.765991
 11
-31.000000
 21
128.765991
  0
LINE
  8
0
 10
-41.000000
 20
143.765991
 11
-41.000000
 21
129.765991
  0
LINE
  8
0
 10
-41.000027
 20
143.766006
 11
-40.000004
 21
144.766022
  0
LINE
  8
0
 10
-40.000057
 20
128.766037
 11
-41.000038
 21
129.766022
  0
LINE
  8
0
 10
-40.000000
 20
144.765991
 11
-40.000000
 21
128.765991
  0
LINE
  8
0
 10
-40.000000
 20
195.234009
 11
-31.000000
 21
195.234009
  0
LINE
  8
0
 10
-41.000000
 20
210.234009
 11
-41.000000
 21
196.234009
  0
LINE
  8
0
 10
-40.000004
 20
195.233932
 11
-41.000027
 21
196.233948
  0
LINE
  8
0
 10
-40.000000
 20
211.234009
 11
-40.000000
 21
195.234009
  0
LINE
  8
0
 10
-40.999981
 20
210.233932
 11
-40.000000
 21
211.233917
  0
LINE
  8
0
 10
-40.000000
 20
211.234009
 11
-31.000000
 21
211.234009
  0
LINE
  8
0
 10
-34.000000
 20
128.765991
 11
-34.000000
 21
124.000000
  0
LINE
  8
0
 10
-34.000000
 20
195.234009
 11
-34.000000
 21
144.765991
  0
LINE
  8
0
 10
-156.000000
 20
191.750000
 11
-156.000000
 21
148.250000
  0
LINE
  8
0
 10
-61.000034
 20
203.000000
 11
-59.961605
 21
204.038437
  0
LINE
  8
0
 10
-60.999973
 20
136.999969
 11
-59.961536
 21
135.961533
  0
LINE
  8
0
 10
-59.961548
 20
204.038452
 11
-59.961548
 21
135.961548
  0
LINE
  8
0
 10
-155.250000
 20
147.500000
 11
-90.000000
 21
147.500000
  0
LINE
  8
0
 10
-93.000000
 20
192.500000
 11
-93.000000
 21
147.500000
  0
LINE
  8
0
 10
-90.000000
 20
192.500000
 11
-90.000000
 21
147.500000
  0
LINE
  8
0
 10
-71.845306
 20
195.000000
 11
-61.000000
 21
195.000000
  0
LINE
  8
0
 10
-90.000023
 20
192.500076
 11
-89.134079
 21
193.000031
  0
LINE
  8
0
 10
-155.250000
 20
192.500000
 11
-90.000000
 21
192.500000
  0
LINE
  8
0
 10
-85.669876
 20
147.000000
 11
-85.669876
 21
193.000000
  0
LINE
  8
0
 10
-21.000000
 20
283.000000
 11
18.000000
 21
283.000000
  0
LINE
  8
0
 10
151.000000
 20
283.000000
 11
190.000000
 21
283.000000
  0
LINE
  8
0
 10
151.000000
 20
57.000000
 11
190.000000
 21
57.000000
  0
LINE
  8
0
 10
195.099976
 20
277.499878
 11
190.000000
 21
277.499878
  0
LINE
  8
0
 10
195.099976
 20
244.499878
 11
190.000000
 21
244.499878
  0
LINE
  8
0
 10
-26.100006
 20
244.500000
 11
-21.000000
 21
244.500000
  0
LINE
  8
0
 10
-26.100006
 20
277.500000
 11
-21.000000
 21
277.500000
  0
LINE
  8
0
 10
-55.250004
 20
89.000000
 11
-42.100006
 21
89.000000
  0
LINE
  8
0
 10
-55.250000
 20
69.000000
 11
-42.100006
 21
69.000000
  0
LINE
  8
0
 10
-56.000000
 20
88.250000
 11
-56.000000
 21
69.750000
  0
LINE
  8
0
 10
-26.100006
 20
62.500000
 11
-21.000000
 21
62.500000
  0
LINE
  8
0
 10
-26.100006
 20
95.500000
 11
-21.000000
 21
95.500000
  0
LINE
  8
0
 10
195.099976
 20
95.499878
 11
190.000000
 21
95.499878
  0
LINE
  8
0
 10
195.099976
 20
62.499878
 11
190.000000
 21
62.499878
  0
LINE
  8
0
 10
18.000000
 20
69.000000
 11
151.000000
 21
69.000000
  0
LINE
  8
0
 10
18.000000
 20
89.000000
 11
151.000000
 21
89.000000
  0
LINE
  8
0
 10
18.000000
 20
271.000000
 11
151.000000
 21
271.000000
  0
LINE
  8
0
 10
18.000000
 20
251.000000
 11
151.000000
 21
251.000000
  0
LINE
  8
0
  6
CENTER
 62
     2
 10
-162.099396
 20
170.000000
 11
437.958252
 21
170.000000
  0
LINE
  8
0
 10
18.000000
 20
63.500000
 11
151.000000
 21
63.500000
  0
LINE
  8
0
 10
18.000000
 20
276.500000
 11
151.000000
 21
276.500000
  0
LINE
  8
0
 10
-21.000000
 20
112.500000
 11
-30.000000
 21
112.500000
  0
LINE
  8
0
 62
     2
 10
-156.000000
 20
191.750000
 11
-93.000000
 21
191.750000
  0
LINE
  8
0
 62
     2
 10
-56.000000
 20
88.250000
 11
-42.100006
 21
88.250000
  0
LINE
  8
0
 62
     2
 10
-56.000000
 20
69.750000
 11
-42.100006
 21
69.750000
  0
LINE
  8
0
 10
-21.000000
 20
57.000000
 11
18.000000
 21
57.000000
  0
LINE
  8
0
 10
200.000000
 20
226.500000
 11
200.000000
 21
113.500000
  0
LINE
  8
0
 10
199.000000
 20
227.500000
 11
199.000000
 21
112.500000
  0
LINE
  8
0
 10
199.000000
 20
227.500000
 11
190.000000
 21
227.500000
  0
LINE
  8
0
 10
199.999878
 20
226.499924
 11
198.999893
 21
227.499893
  0
LINE
  8
0
 10
199.999939
 20
113.500221
 11
198.999924
 21
112.500198
  0
LINE
  8
0
 10
230.000000
 20
203.000000
 11
230.000000
 21
137.000000
  0
LINE
  8
0
 10
203.000000
 20
216.000000
 11
203.000000
 21
211.234009
  0
LINE
  8
0
 10
202.000000
 20
217.000000
 11
200.000000
 21
217.000000
  0
LINE
  8
0
 10
202.000000
 20
123.000000
 11
200.000000
 21
123.000000
  0
LINE
  8
0
 10
209.999969
 20
204.740753
 11
228.961517
 21
204.038467
  0
LINE
  8
0
 10
228.961472
 20
135.961426
 11
209.999924
 21
135.259155
  0
LINE
  8
0
 10
209.000000
 20
144.765991
 11
200.000000
 21
144.765991
  0
LINE
  8
0
 10
209.000000
 20
128.765991
 11
200.000000
 21
128.765991
  0
LINE
  8
0
 10
210.000000
 20
143.765991
 11
210.000000
 21
129.765991
  0
LINE
  8
0
 10
209.999924
 20
143.765991
 11
208.999893
 21
144.766022
  0
LINE
  8
0
 10
208.999420
 20
128.766525
 11
209.999405
 21
129.766510
  0
LINE
  8
0
 10
209.000000
 20
144.765991
 11
209.000000
 21
128.765991
  0
LINE
  8
0
 10
209.000000
 20
195.234009
 11
200.000000
 21
195.234009
  0
LINE
  8
0
 10
210.000000
 20
210.234009
 11
210.000000
 21
196.234009
  0
LINE
  8
0
 10
208.999939
 20
195.234100
 11
209.999939
 21
196.234100
  0
LINE
  8
0
 10
209.000000
 20
211.234009
 11
209.000000
 21
195.234009
  0
LINE
  8
0
 10
209.999893
 20
210.233917
 11
208.999908
 21
211.233887
  0
LINE
  8
0
 10
209.000000
 20
211.234009
 11
200.000000
 21
211.234009
  0
LINE
  8
0
 10
203.000000
 20
128.765991
 11
203.000000
 21
124.000000
  0
LINE
  8
0
 10
203.000000
 20
195.234009
 11
203.000000
 21
144.765991
  0
LINE
  8
0
 10
425.000000
 20
191.750000
 11
425.000000
 21
148.250000
  0
LINE
  8
0
 10
229.999893
 20
202.999908
 11
228.961456
 21
204.038330
  0
LINE
  8
0
 10
230.000397
 20
136.999603
 11
228.961929
 21
135.961121
  0
LINE
  8
0
 10
228.961548
 20
204.038452
 11
228.961548
 21
135.961548
  0
LINE
  8
0
 10
362.000000
 20
192.500000
 11
362.000000
 21
147.500000
  0
LINE
  8
0
 10
359.000000
 20
192.500000
 11
359.000000
 21
147.500000
  0
LINE
  8
0
 10
340.845306
 20
145.000000
 11
230.000000
 21
145.000000
  0
LINE
  8
0
 10
340.845306
 20
195.000000
 11
230.000000
 21
195.000000
  0
LINE
  8
0
 10
359.000122
 20
147.499680
 11
358.134613
 21
146.999985
  0
LINE
  8
0
 10
359.000214
 20
192.500458
 11
358.134827
 21
193.000092
  0
LINE
  8
0
 10
354.669861
 20
147.000000
 11
354.669861
 21
193.000000
  0
LINE
  8
0
 10
190.000000
 20
112.500000
 11
199.000000
 21
112.500000
  0
LINE
  8
0
 62
     2
 10
-92.999992
 20
191.749969
 11
-91.700981
 21
192.499954
  0
LINE
  8
0
 10
-156.000076
 20
191.750031
 11
-155.250076
 21
192.500031
  0
LINE
  8
0
 10
-155.250000
 20
192.500000
 11
-155.250000
 21
147.500000
  0
LINE
  8
0
 62
     2
 10
-156.000000
 20
148.250000
 11
-93.000000
 21
148.250000
  0
LINE
  8
0
 62
     2
 10
-93.000015
 20
148.250031
 11
-91.700981
 21
147.500031
  0
LINE
  8
0
 10
-156.000229
 20
148.249908
 11
-155.250214
 21
147.499893
  0
LINE
  8
0
 10
424.250000
 20
147.500000
 11
359.000000
 21
147.500000
  0
LINE
  8
0
 62
     2
 10
362.000122
 20
148.249817
 11
360.701141
 21
147.499832
  0
LINE
  8
0
 10
424.250000
 20
192.500000
 11
359.000000
 21
192.500000
  0
LINE
  8
0
 10
425.000153
 20
148.249817
 11
424.250183
 21
147.499863
  0
LINE
  8
0
 62
     2
 10
425.000000
 20
191.750000
 11
362.000000
 21
191.750000
  0
LINE
  8
0
 62
     2
 10
361.999939
 20
191.749756
 11
360.700928
 21
192.499756
  0
LINE
  8
0
 10
425.000397
 20
191.750397
 11
424.250397
 21
192.500397
  0
LINE
  8
0
 10
424.250000
 20
192.500000
 11
424.250000
 21
147.500000
  0
LINE
  8
0
 62
     2
 10
425.000000
 20
148.250000
 11
362.000000
 21
148.250000
  0
LINE
  8
0
 10
-55.250015
 20
89.000046
 11
-56.000023
 21
88.250038
  0
LINE
  8
0
 10
-55.250004
 20
89.000000
 11
-55.250004
 21
69.000000
  0
LINE
  8
0
 10
-55.999996
 20
69.750023
 11
-55.249989
 21
69.000015
  0
LINE
  8
0
 10
224.250000
 20
89.000000
 11
211.100006
 21
89.000000
  0
LINE
  8
0
 10
224.250000
 20
69.000000
 11
211.100006
 21
69.000000
  0
LINE
  8
0
 10
225.000000
 20
88.250000
 11
225.000000
 21
69.750000
  0
LINE
  8
0
 62
     2
 10
225.000000
 20
88.250000
 11
211.100006
 21
88.250000
  0
LINE
  8
0
 62
     2
 10
225.000000
 20
69.750000
 11
211.100006
 21
69.750000
  0
LINE
  8
0
 10
224.249969
 20
88.999962
 11
224.999985
 21
88.249954
  0
LINE
  8
0
 10
224.250000
 20
89.000000
 11
224.250000
 21
69.000000
  0
LINE
  8
0
 10
225.000351
 20
69.749657
 11
224.250336
 21
68.999649
  0
LINE
  8
0
 10
-55.250004
 20
251.000000
 11
-42.100006
 21
251.000000
  0
LINE
  8
0
 10
-55.250000
 20
271.000000
 11
-42.100006
 21
271.000000
  0
LINE
  8
0
 10
-56.000000
 20
251.750000
 11
-56.000000
 21
270.250000
  0
LINE
  8
0
 62
     2
 10
-56.000000
 20
251.750000
 11
-42.100006
 21
251.750000
  0
LINE
  8
0
 62
     2
 10
-56.000000
 20
270.250000
 11
-42.100006
 21
270.250000
  0
LINE
  8
0
 10
-55.250023
 20
251.000031
 11
-55.999989
 21
251.749985
  0
LINE
  8
0
 10
-55.250004
 20
251.000000
 11
-55.250004
 21
271.000000
  0
LINE
  8
0
 10
-55.999992
 20
270.249939
 11
-55.249985
 21
270.999969
  0
LINE
  8
0
 10
224.250000
 20
251.000000
 11
211.100006
 21
251.000000
  0
LINE
  8
0
 10
224.250000
 20
271.000000
 11
211.100006
 21
271.000000
  0
LINE
  8
0
 10
225.000000
 20
251.750000
 11
225.000000
 21
270.250000
  0
LINE
  8
0
 62
     2
 10
225.000000
 20
251.750000
 11
211.100006
 21
251.750000
  0
LINE
  8
0
 62
     2
 10
225.000000
 20
270.250000
 11
211.100006
 21
270.250000
  0
LINE
  8
0
 10
224.250137
 20
251.000000
 11
225.000153
 21
251.750000
  0
LINE
  8
0
 10
224.250000
 20
251.000000
 11
224.250000
 21
271.000000
  0
LINE
  8
0
 10
225.000092
 20
270.250092
 11
224.250137
 21
271.000061
  0
LINE
  8
0
 10
-89.134064
 20
193.000000
 11
-73.000000
 21
193.000000
  0
LINE
  8
0
 10
-72.999985
 20
192.999985
 11
-71.845291
 21
194.999985
  0
LINE
  8
0
 10
-71.845306
 20
145.000000
 11
-61.000000
 21
145.000000
  0
LINE
  8
0
 10
-72.999992
 20
146.999985
 11
-71.845306
 21
144.999985
  0
LINE
  8
0
 10
-89.134064
 20
147.000000
 11
-73.000000
 21
147.000000
  0
LINE
  8
0
 10
-90.000015
 20
147.499939
 11
-89.134071
 21
147.000000
  0
LINE
  8
0
 10
358.134064
 20
147.000000
 11
342.000000
 21
147.000000
  0
LINE
  8
0
 10
341.999939
 20
147.000015
 11
340.845245
 21
145.000000
  0
LINE
  8
0
 10
341.999969
 20
192.999985
 11
340.845276
 21
194.999985
  0
LINE
  8
0
 10
358.134064
 20
193.000000
 11
342.000000
 21
193.000000
  0
LINE
  8
0
  6
CENTER
 62
     2
 10
-2.500000
 20
188.000000
 11
-2.500000
 21
152.000000
  0
LINE
  8
0
 10
-42.100010
 20
276.000000
 11
-26.100010
 21
276.000000
  0
LINE
  8
0
 10
-40.760262
 20
261.000000
 11
-26.100006
 21
261.000000
  0
LINE
  8
0
 10
-42.100006
 20
276.000000
 11
-42.100006
 21
246.000000
  0
LINE
  8
0
 10
-42.100002
 20
246.000000
 11
-26.100002
 21
246.000000
  0
LINE
  8
0
 10
-26.100006
 20
277.500000
 11
-26.100006
 21
244.500000
  0
LINE
  8
0
 10
-42.100010
 20
94.000000
 11
-26.100010
 21
94.000000
  0
LINE
  8
0
 10
-40.760262
 20
79.000000
 11
-26.100006
 21
79.000000
  0
LINE
  8
0
 10
-42.100006
 20
94.000000
 11
-42.100006
 21
64.000000
  0
LINE
  8
0
 10
-42.100002
 20
64.000000
 11
-26.100002
 21
64.000000
  0
LINE
  8
0
 10
-26.100006
 20
95.500000
 11
-26.100006
 21
62.500000
  0
LINE
  8
0
 10
211.099976
 20
246.000000
 11
195.099976
 21
246.000000
  0
LINE
  8
0
 10
209.760223
 20
261.000000
 11
195.099976
 21
261.000000
  0
LINE
  8
0
 10
211.099976
 20
246.000000
 11
211.099976
 21
276.000000
  0
LINE
  8
0
 10
211.099976
 20
276.000000
 11
195.099976
 21
276.000000
  0
LINE
  8
0
 10
195.099976
 20
246.000000
 11
195.099976
 21
277.499878
  0
LINE
  8
0
 10
211.099976
 20
64.000000
 11
195.099976
 21
64.000000
  0
LINE
  8
0
 10
209.760223
 20
79.000000
 11
195.099976
 21
79.000000
  0
LINE
  8
0
 10
211.099976
 20
64.000000
 11
211.099976
 21
94.000000
  0
LINE
  8
0
 10
211.099976
 20
94.000000
 11
195.099976
 21
94.000000
  0
LINE
  8
0
 10
195.099976
 20
62.499878
 11
195.099976
 21
95.499878
  0
LINE
  8
0
  6
CENTER
 62
     2
 10
-65.504944
 20
261.000000
 11
234.137604
 21
261.000000
  0
LINE
  8
0
  6
CENTER
 62
     2
 10
-65.504944
 20
79.000000
 11
234.137604
 21
79.000000
  0
CIRCLE
  8
0
 10
-2.500000
 20
-140.000000
 40
7.950000
  0
CIRCLE
  8
0
  6
DASHED
 62
     2
 10
171.500000
 20
-140.000000
 40
7.950000
  0
CIRCLE
  8
0
 10
-2.500000
 20
-140.000000
 40
5.150000
  0
CIRCLE
  8
0
  6
DASHED
 62
     2
 10
171.500000
 20
-140.000000
 40
5.150000
  0
ARC
  8
0
 10
-33.000000
 20
-186.000000
 40
1.000000
 50
180.000000
 51
270.000000
  0
ARC
  8
0
 10
-33.000000
 20
-94.000000
 40
1.000000
 50
90.000000
 51
180.000000
  0
ARC
  8
0
 10
-73.545532
 20
-140.000000
 40
15.588453
 50
141.057556
 51
218.942398
  0
ARC
  8
0
 10
-104.250000
 20
-140.000000
 40
32.750000
 50
0.000000
 51
17.408016
  0
ARC
  8
0
 10
-104.250000
 20
-140.000000
 40
32.750000
 50
342.591980
 51
0.000000
  0
ARC
  8
0
 10
204.528687
 20
-61.990356
 40
6.571332
 50
318.780792
 51
41.219177
  0
ARC
  8
0
 10
187.257324
 20
-49.000000
 40
23.842716
 50
338.701721
 51
21.298334
  0
ARC
  8
0
 10
204.528687
 20
-36.009644
 40
6.571329
 50
318.780823
 51
41.219193
  0
ARC
  8
0
 10
-35.528656
 20
-36.009644
 40
6.571333
 50
138.780838
 51
221.219131
  0
ARC
  8
0
 10
-18.257294
 20
-49.000000
 40
23.842712
 50
158.701691
 51
201.298309
  0
ARC
  8
0
 10
-35.528671
 20
-61.990356
 40
6.571326
 50
138.780792
 51
221.219208
  0
ARC
  8
0
 10
-35.528656
 20
-218.009644
 40
6.571334
 50
138.780823
 51
221.219162
  0
ARC
  8
0
 10
-18.257294
 20
-231.000000
 40
23.842716
 50
158.701675
 51
201.298294
  0
ARC
  8
0
 10
-35.528671
 20
-243.990356
 40
6.571329
 50
138.780777
 51
221.219208
  0
ARC
  8
0
 10
204.528687
 20
-218.009644
 40
6.571332
 50
318.780792
 51
41.219204
  0
ARC
  8
0
 10
204.528687
 20
-243.990356
 40
6.571332
 50
318.780792
 51
41.219204
  0
ARC
  8
0
 10
187.257324
 20
-231.000000
 40
23.842718
 50
338.701721
 51
21.298334
  0
ARC
  8
0
 10
373.250000
 20
-140.000000
 40
32.750000
 50
179.999969
 51
197.407990
  0
ARC
  8
0
 10
373.250000
 20
-140.000000
 40
32.750004
 50
162.591965
 51
179.999969
  0
ARC
  8
0
 10
202.000000
 20
-186.000000
 40
1.000000
 50
270.000000
 51
0.000000
  0
ARC
  8
0
 10
202.000000
 20
-94.000000
 40
1.000000
 50
0.000000
 51
90.000000
  0
ARC
  8
0
 10
342.545532
 20
-140.000000
 40
15.588460
 50
321.057556
 51
38.942387
  0
CIRCLE
  8
0
 10
-350.000000
 20
-140.000000
 40
57.500000
  0
ARC
  8
0
 10
-316.766022
 20
-173.234070
 40
10.000008
 50
56.944412
 51
213.055389
  0
CIRCLE
  8
0
 10
-316.766022
 20
-173.234070
 40
8.000000
  0
CIRCLE
  8
0
 10
-316.765930
 20
-106.765991
 40
8.000000
  0
CIRCLE
  8
0
 10
-383.234009
 20
-106.765930
 40
8.000000
  0
CIRCLE
  8
0
 10
-383.234070
 20
-173.234009
 40
8.000000
  0
ARC
  8
0
 10
-310.765991
 20
-115.985596
 40
0.999995
 50
31.470470
 51
123.056709
  0
ARC
  8
0
 10
-310.766052
 20
-164.014526
 40
1.000000
 50
236.945236
 51
328.529907
  0
ARC
  8
0
 10
-350.000000
 20
-140.000000
 40
47.000011
 50
328.529846
 51
31.470057
  0
ARC
  8
0
 10
-316.765930
 20
-106.765991
 40
9.999995
 50
146.944366
 51
303.055420
  0
ARC
  8
0
 10
-325.985474
 20
-100.766052
 40
0.999992
 50
326.944397
 51
58.529385
  0
ARC
  8
0
 10
-350.000000
 20
-140.000000
 40
46.999996
 50
58.529835
 51
121.470039
  0
ARC
  8
0
 10
-374.014404
 20
-100.765991
 40
1.000006
 50
121.470619
 51
213.055969
  0
ARC
  8
0
 10
-383.234009
 20
-106.765930
 40
10.000001
 50
236.944382
 51
33.055431
  0
ARC
  8
0
 10
-389.233948
 20
-115.985474
 40
0.999994
 50
56.944996
 51
148.529907
  0
ARC
  8
0
 10
-350.000000
 20
-140.000000
 40
47.000011
 50
148.529846
 51
211.470062
  0
ARC
  8
0
 10
-389.234009
 20
-164.014404
 40
0.999999
 50
211.470840
 51
303.056702
  0
ARC
  8
0
 10
-383.234070
 20
-173.234009
 40
9.999995
 50
326.944366
 51
123.055397
  0
ARC
  8
0
 10
-374.014526
 20
-179.233948
 40
0.999996
 50
146.944031
 51
238.529617
  0
ARC
  8
0
 10
-350.000000
 20
-140.000000
 40
46.999996
 50
238.529831
 51
301.470062
  0
ARC
  8
0
 10
-325.985596
 20
-179.234009
 40
0.999999
 50
301.470856
 51
33.055973
  0
CIRCLE
  8
0
 10
-350.000000
 20
-140.000000
 40
25.000000
  0
CIRCLE
  8
0
 10
-350.000000
 20
-140.000000
 40
22.500000
  0
CIRCLE
  8
0
 10
-350.000000
 20
-140.000000
 40
35.000000
  0
CIRCLE
  8
0
 10
-259.000000
 20
-231.000000
 40
14.500000
  0
CIRCLE
  8
0
 10
-259.000000
 20
-231.000000
 40
10.000000
  0
CIRCLE
  8
0
 10
-259.000000
 20
-49.000000
 40
14.500000
  0
CIRCLE
  8
0
 10
-259.000000
 20
-49.000000
 40
10.000000
  0
CIRCLE
  8
0
 10
-441.000000
 20
-231.000000
 40
14.500000
  0
CIRCLE
  8
0
 10
-441.000000
 20
-231.000000
 40
10.000000
  0
CIRCLE
  8
0
 10
-441.000000
 20
-49.000000
 40
10.000000
  0
CIRCLE
  8
0
 10
-441.000000
 20
-49.000000
 40
14.500000
  0
CIRCLE
  8
0
 62
     2
 10
-350.000000
 20
-140.000000
 40
21.750000
  0
CIRCLE
  8
0
 62
     2
 10
-259.000000
 20
-231.000000
 40
9.250000
  0
CIRCLE
  8
0
 62
     2
 10
-441.000000
 20
-231.000000
 40
9.250000
  0
CIRCLE
  8
0
 62
     2
 10
-259.000000
 20
-49.000000
 40
9.250000
  0
CIRCLE
  8
0
 62
     2
 10
-441.000000
 20
-49.000000
 40
9.250000
  0
ARC
  8
0
 10
-33.000000
 20
124.000000
 40
1.000000
 50
180.000000
 51
270.000000
  0
ARC
  8
0
 10
-33.000000
 20
216.000000
 40
1.000000
 50
90.000000
 51
180.000000
  0
ARC
  8
0
 10
202.000000
 20
124.000000
 40
1.000000
 50
270.000000
 51
0.000000
  0
ARC
  8
0
 10
202.000000
 20
216.000000
 40
1.000000
 50
0.000000
 51
90.000000
  0
CIRCLE
  8
0
 62
     2
 10
171.500000
 20
170.000000
 40
13.220500
  0
CIRCLE
  8
0
 10
171.500000
 20
170.000000
 40
12.058500
  0
CIRCLE
  8
0
 62
     2
 10
-2.500000
 20
170.000000
 40
13.220500
  0
CIRCLE
  8
0
 10
-2.500000
 20
170.000000
 40
12.058500
  0
ARC
  8
0
 10
-20.437363
 20
268.500000
 40
21.662645
 50
159.743835
 51
200.256165
  0
ARC
  8
0
 10
-20.437363
 20
253.500000
 40
21.662638
 50
159.743820
 51
200.256088
  0
ARC
  8
0
 10
-20.437363
 20
86.500000
 40
21.662643
 50
159.743851
 51
200.256134
  0
ARC
  8
0
 10
-20.437363
 20
71.500000
 40
21.662642
 50
159.743805
 51
200.256088
  0
ARC
  8
0
 10
189.437332
 20
253.500000
 40
21.662653
 50
339.743835
 51
20.256088
  0
ARC
  8
0
 10
189.437332
 20
268.500000
 40
21.662638
 50
339.743835
 51
20.256088
  0
ARC
  8
0
 10
189.437332
 20
71.500000
 40
21.662651
 50
339.743866
 51
20.256126
  0
ARC
  8
0
 10
189.437332
 20
86.500000
 40
21.662643
 50
339.743774
 51
20.256069
  0
TEXT
  8
0
 10
-519.785156
 20
375.250000
 40
12.500000
  1
SD CYLINDER
 50
0.000000
 41
1.052632
 51
0.000000
  7
STANDARD
  0
TEXT
  8
0
 10
-542.285156
 20
330.250000
 40
12.500000
  1
MODEL:KA0SDD200*100
 50
0.000000
 41
1.052632
 51
0.000000
  7
STANDARD
  0
TEXT
  8
0
 10
364.214844
 20
375.250000
 40
12.500000
  1
DATE: AUG ,1993
 50
0.000000
 41
1.052632
 51
0.000000
  7
STANDARD
  0
TEXT
  8
0
 10
345.179352
 20
-400.700012
 40
18.000000
  1
KOGANEI CORP.
 50
0.000000
 41
1.052632
 51
0.000000
  7
STANDARD
  0
ENDSEC
  0
EOF
