  0
SECTION
  2
HEADER
  0
ENDSEC
  0
SECTION
  2
TABLES
  0
TABLE
  2
LTYPE
 70
     4
  0
LTYPE
  2
CONTINUOUS
 70
    64
  3
Solid line
 72
    65
 73
     0
 40
0.000000
  0
LTYPE
  2
DASHED
 70
    64
  3
__ __ __ __ __ __ __ __ __ __ __ __ __ __ __
 72
    65
 73
     2
 40
3.500000
 49
2.000000
 49
-1.500000
  0
LTYPE
  2
CENTER
 70
    64
  3
____ _ ____ _ ____ _ ____ _ ____ _ ____ _ ____
 72
    65
 73
     4
 40
17.500000
 49
13.000000
 49
-1.500000
 49
1.500000
 49
-1.500000
  0
LTYPE
  2
PHANTOM
 70
    64
  3
_____ _ _ _____ _ _ _____ _ _ _____ _ _ ____  
 72
    65
 73
     6
 40
15.500000
 49
8.000000
 49
-1.500000
 49
1.500000
 49
-1.500000
 49
1.500000
 49
-1.500000
  0
LTYPE
  2
DASHED1
 70
    64
  3
__ __ __ __ __ __ __ __ __ __ __ __ __ __ __
 72
    65
 73
     2
 40
1.500000
 49
1.000000
 49
-0.500000
  0
LTYPE
  2
DASHED2
 70
    64
  3
__ __ __ __ __ __ __ __ __ __ __ __ __ __ __
 72
    65
 73
     2
 40
3.500000
 49
2.500000
 49
-1.000000
  0
LTYPE
  2
DASHED3
 70
    64
  3
__ __ __ __ __ __ __ __ __ __ __ __ __ __ __
 72
    65
 73
     2
 40
6.000000
 49
4.000000
 49
-2.000000
  0
LTYPE
  2
DASHED4
 70
    64
  3
__ __ __ __ __ __ __ __ __ __ __ __ __ __ __
 72
    65
 73
     2
 40
12.000000
 49
10.000000
 49
-2.000000
  0
LTYPE
  2
DASHED5
 70
    64
  3
__ __ __ __ __ __ __ __ __ __ __ __ __ __ __
 72
    65
 73
     2
 40
17.000000
 49
15.000000
 49
-2.000000
  0
LTYPE
  2
DASHED6
 70
    64
  3
__ __ __ __ __ __ __ __ __ __ __ __ __ __ __
 72
    65
 73
     2
 40
29.000000
 49
27.000000
 49
-2.000000
  0
LTYPE
  2
PHANTOM1
 70
    64
  3
_____ _ _ _____ _ _ _____ _ _ _____ _ _ ____  
 72
    65
 73
     6
 40
31.000000
 49
25.000000
 49
-1.500000
 49
1.000000
 49
-1.000000
 49
1.000000
 49
-1.500000
  0
LTYPE
  2
PHANTOM2
 70
    64
  3
_____ _ _ _____ _ _ _____ _ _ _____ _ _ ____  
 72
    65
 73
     6
 40
36.000000
 49
27.000000
 49
-1.500000
 49
2.500000
 49
-1.000000
 49
2.500000
 49
-1.500000
  0
LTYPE
  2
PHANTOM3
 70
    64
  3
_____ _ _ _____ _ _ _____ _ _ _____ _ _ ____  
 72
    65
 73
     6
 40
78.000000
 49
64.000000
 49
-2.000000
 49
4.000000
 49
-2.000000
 49
4.000000
 49
-2.000000
  0
LTYPE
  2
CENTER1
 70
    64
  3
____ _ ____ _ ____ _ ____ _ ____ _ ____ _ ____
 72
    65
 73
     4
 40
19.000000
 49
14.000000
 49
-1.000000
 49
3.000000
 49
-1.000000
  0
LTYPE
  2
CENTER2
 70
    64
  3
____ _ ____ _ ____ _ ____ _ ____ _ ____ _ ____
 72
    65
 73
     4
 40
28.500000
 49
25.000000
 49
-1.000000
 49
1.500000
 49
-1.000000
  0
LTYPE
  2
CENTER3
 70
    64
  3
____ _ ____ _ ____ _ ____ _ ____ _ ____ _ ____
 72
    65
 73
     4
 40
31.500000
 49
27.000000
 49
-1.000000
 49
2.500000
 49
-1.000000
  0
LTYPE
  2
CENTER4
 70
    64
  3
____ _ ____ _ ____ _ ____ _ ____ _ ____ _ ____
 72
    65
 73
     4
 40
50.000000
 49
45.000000
 49
-1.000000
 49
3.000000
 49
-1.000000
  0
LTYPE
  2
CENTER5
 70
    64
  3
____ _ ____ _ ____ _ ____ _ ____ _ ____ _ ____
 72
    65
 73
     4
 40
100.000000
 49
92.000000
 49
-2.000000
 49
4.000000
 49
-2.000000
  0
LTYPE
  2
SBK1
 70
    64
  3
______ _ _ _ ______ _ _ _ ______ _ _ _ _____  
 72
    65
 73
     8
 40
60.500000
 49
45.000000
 49
-2.000000
 49
2.500000
 49
-2.000000
 49
2.500000
 49
-2.000000
 49
2.500000
 49
-2.000000
  0
LTYPE
  2
SBK2
 70
    64
  3
______ _ _ _ ______ _ _ _ ______ _ _ _ _____  
 72
    65
 73
     8
 40
84.000000
 49
64.000000
 49
-2.000000
 49
4.000000
 49
-2.000000
 49
4.000000
 49
-2.000000
 49
4.000000
 49
-2.000000
  0
LTYPE
  2
STCH
 70
    64
  3
__ __ __ __ __ __ __ __ __ __ __ __ __ __ __
 72
    65
 73
     2
 40
3.000000
 49
1.000000
 49
-2.000000
  0
LTYPE
  2
MTCH
 70
    64
  3
_____ _ _ _____ _ _ _____ _ _ _____ _ _ ____  
 72
    65
 73
     6
 40
80.000000
 49
66.000000
 49
-2.000000
 49
4.000000
 49
-2.000000
 49
4.000000
 49
-2.000000
  0
ENDTAB
  0
TABLE
  2
LAYER
 70
     1
  0
LAYER
  2
0
 70
     0
 62
     7
  6
CONTINUOUS
  0
ENDTAB
  0
TABLE
  2
STYLE
 70
     1
  0
STYLE
  2
STANDARD
 70
     0
 40
0.000000
 41
1.000000
 50
0.000000
 71
     0
 42
0.200000
  3
txt
  4
BIGFONT
  0
ENDTAB
  0
TABLE
  2
VIEW
 70
     0
  0
ENDTAB
  0
ENDSEC
  0
SECTION
  2
BLOCKS
  0
ENDSEC
  0
SECTION
  2
ENTITIES
  0
LINE
  8
0
 10
399.799988
 20
276.250000
 11
399.799988
 21
-276.750000
  0
LINE
  8
0
 10
-399.250000
 20
276.250000
 11
-399.250000
 21
-276.750000
  0
LINE
  8
0
 10
-399.250000
 20
276.250000
 11
399.799988
 21
276.250000
  0
LINE
  8
0
 10
-399.250000
 20
-276.750000
 11
399.799988
 21
-276.750000
  0
LINE
  8
0
 10
239.799988
 20
-251.750000
 11
399.799988
 21
-251.750000
  0
LINE
  8
0
 10
239.799988
 20
251.250000
 11
399.799988
 21
251.250000
  0
LINE
  8
0
 10
-399.250000
 20
251.250000
 11
-239.250000
 21
251.250000
  0
LINE
  8
0
 10
239.799988
 20
-251.750000
 11
239.799988
 21
-276.750000
  0
LINE
  8
0
 10
239.799988
 20
251.250000
 11
239.799988
 21
276.250000
  0
LINE
  8
0
 10
-239.250000
 20
276.250000
 11
-239.250000
 21
251.250000
  0
LINE
  8
0
 10
63.827148
 20
-48.667656
 11
63.827148
 21
-193.667664
  0
LINE
  8
0
 10
58.627136
 20
-77.167656
 11
58.627136
 21
-165.167664
  0
LINE
  8
0
 10
59.627136
 20
-76.369362
 11
59.627136
 21
-165.965942
  0
LINE
  8
0
 10
58.627174
 20
-77.167618
 11
59.425419
 21
-76.369354
  0
LINE
  8
0
 10
63.827148
 20
-48.667656
 11
98.827148
 21
-48.667656
  0
LINE
  8
0
  6
CENTER
 62
     2
 10
31.992737
 20
-63.667656
 11
292.027161
 21
-63.667656
  0
LINE
  8
0
 10
36.827171
 20
-69.667641
 11
37.827164
 21
-70.667648
  0
LINE
  8
0
 10
36.827175
 20
-57.667686
 11
37.827187
 21
-56.667698
  0
LINE
  8
0
 10
37.827148
 20
-70.667656
 11
49.327148
 21
-70.667656
  0
LINE
  8
0
 10
50.309631
 20
-50.965950
 11
60.327148
 21
-50.965950
  0
LINE
  8
0
 10
50.309631
 20
-57.316811
 11
60.327148
 21
-57.316811
  0
LINE
  8
0
 10
50.309631
 20
-70.018517
 11
60.327148
 21
-70.018517
  0
LINE
  8
0
 10
50.309631
 20
-76.369362
 11
60.327148
 21
-76.369362
  0
LINE
  8
0
 10
60.327148
 20
-50.965950
 11
60.327148
 21
-76.369362
  0
LINE
  8
0
 10
49.327148
 20
-52.667656
 11
49.327148
 21
-74.667656
  0
LINE
  8
0
 10
49.327171
 20
-52.667629
 11
50.309639
 21
-50.965946
  0
LINE
  8
0
 10
49.327229
 20
-74.667664
 11
50.309708
 21
-76.369377
  0
LINE
  8
0
 10
36.827148
 20
-57.667656
 11
36.827148
 21
-69.667656
  0
LINE
  8
0
 10
37.827148
 20
-56.667656
 11
37.827148
 21
-70.667656
  0
LINE
  8
0
 10
37.827148
 20
-56.667656
 11
49.327148
 21
-56.667656
  0
LINE
  8
0
 10
60.327148
 20
-51.667656
 11
63.827148
 21
-51.667656
  0
LINE
  8
0
 10
60.327148
 20
-75.667656
 11
63.827148
 21
-75.667656
  0
LINE
  8
0
 10
60.327148
 20
-76.167656
 11
63.827148
 21
-76.167656
  0
LINE
  8
0
  6
DASHED
 62
     2
 10
69.327110
 20
-48.667690
 11
70.827095
 21
-50.167683
  0
LINE
  8
0
  6
DASHED
 62
     2
 10
69.327080
 20
-48.667698
 11
69.702316
 21
-59.411522
  0
LINE
  8
0
 62
     2
 10
36.827148
 20
-69.267654
 11
49.327148
 21
-69.267654
  0
LINE
  8
0
 62
     2
 10
36.827148
 20
-58.067657
 11
49.327148
 21
-58.067657
  0
LINE
  8
0
  6
CENTER
 62
     2
 10
-60.672852
 20
-121.167664
 11
265.327148
 21
-121.167664
  0
LINE
  8
0
 10
14.827148
 20
-112.449860
 11
14.827148
 21
-129.885452
  0
LINE
  8
0
 10
8.023315
 20
-101.167656
 11
8.023315
 21
-112.449860
  0
LINE
  8
0
 10
8.023315
 20
-129.885452
 11
8.023315
 21
-141.167664
  0
LINE
  8
0
 10
25.827148
 20
-93.167656
 11
25.827148
 21
-149.167664
  0
LINE
  8
0
 10
26.827148
 20
-92.167656
 11
26.827148
 21
-150.167664
  0
LINE
  8
0
 10
25.827131
 20
-93.167648
 11
26.827139
 21
-92.167656
  0
LINE
  8
0
 10
25.827244
 20
-149.167572
 11
26.827248
 21
-150.167572
  0
LINE
  8
0
 10
50.627136
 20
-88.951157
 11
50.627136
 21
-100.351151
  0
LINE
  8
0
 10
50.627136
 20
-141.984161
 11
50.627136
 21
-153.384155
  0
LINE
  8
0
 10
26.827106
 20
-92.167671
 11
50.627098
 21
-91.215675
  0
LINE
  8
0
 10
26.827196
 20
-150.167770
 11
50.627163
 21
-151.119766
  0
LINE
  8
0
 10
51.827148
 20
-84.667656
 11
51.827148
 21
-88.151154
  0
LINE
  8
0
 10
98.827148
 20
-48.667656
 11
98.827148
 21
-193.667664
  0
LINE
  8
0
 10
63.827148
 20
-193.667664
 11
98.827148
 21
-193.667664
  0
LINE
  8
0
 10
275.344666
 20
-191.369171
 11
265.327148
 21
-191.369171
  0
LINE
  8
0
 10
275.344666
 20
-185.018494
 11
265.327148
 21
-185.018494
  0
LINE
  8
0
 10
275.344666
 20
-172.316803
 11
265.327148
 21
-172.316803
  0
LINE
  8
0
 10
275.344666
 20
-165.965942
 11
265.327148
 21
-165.965942
  0
LINE
  8
0
 10
265.327148
 20
-191.369354
 11
265.327148
 21
-165.965942
  0
LINE
  8
0
 10
276.327148
 20
-189.667664
 11
276.327148
 21
-167.667664
  0
LINE
  8
0
 10
276.327454
 20
-189.667877
 11
275.344910
 21
-191.369568
  0
LINE
  8
0
 10
276.326843
 20
-167.667847
 11
275.344391
 21
-165.966156
  0
LINE
  8
0
 10
288.827148
 20
-184.668030
 11
288.827148
 21
-172.668030
  0
LINE
  8
0
 10
287.827148
 20
-185.668030
 11
287.827148
 21
-171.668030
  0
LINE
  8
0
 10
287.827148
 20
-185.667664
 11
276.327148
 21
-185.667664
  0
LINE
  8
0
 10
287.827148
 20
-171.667664
 11
276.327148
 21
-171.667664
  0
LINE
  8
0
 10
288.826935
 20
-184.667953
 11
287.826935
 21
-185.667984
  0
LINE
  8
0
 10
288.826721
 20
-172.668427
 11
287.826752
 21
-171.668442
  0
LINE
  8
0
  6
CENTER
 62
     2
 10
31.327148
 20
-178.667664
 11
293.627136
 21
-178.667664
  0
LINE
  8
0
 10
37.827148
 20
-185.667664
 11
49.327148
 21
-185.667664
  0
LINE
  8
0
 10
36.827126
 20
-172.667633
 11
37.827126
 21
-171.667633
  0
LINE
  8
0
 10
36.827255
 20
-184.667633
 11
37.827255
 21
-185.667633
  0
LINE
  8
0
 10
50.309631
 20
-165.965942
 11
60.327148
 21
-165.965942
  0
LINE
  8
0
 10
50.309631
 20
-172.316803
 11
60.327148
 21
-172.316803
  0
LINE
  8
0
 10
50.309631
 20
-185.018524
 11
60.327148
 21
-185.018524
  0
LINE
  8
0
 10
50.309631
 20
-191.369354
 11
60.327148
 21
-191.369354
  0
LINE
  8
0
 10
60.327148
 20
-165.965942
 11
60.327148
 21
-191.369354
  0
LINE
  8
0
 10
49.327148
 20
-167.667664
 11
49.327148
 21
-189.667664
  0
LINE
  8
0
 10
49.327068
 20
-167.667603
 11
50.309559
 21
-165.965897
  0
LINE
  8
0
 10
49.327122
 20
-189.667694
 11
50.309589
 21
-191.369385
  0
LINE
  8
0
 10
36.827148
 20
-172.667664
 11
36.827148
 21
-184.667664
  0
LINE
  8
0
 10
37.827148
 20
-171.667664
 11
37.827148
 21
-185.667664
  0
LINE
  8
0
 10
37.827148
 20
-171.667664
 11
49.327148
 21
-171.667664
  0
LINE
  8
0
 10
58.627121
 20
-165.167633
 11
59.425426
 21
-165.965927
  0
LINE
  8
0
  6
CENTER
 62
     2
 10
79.827148
 20
-44.572227
 11
79.827148
 21
-132.467651
  0
LINE
  8
0
 10
240.732056
 20
-120.417664
 11
250.922241
 21
-120.417664
  0
LINE
  8
0
 10
240.732056
 20
-121.917664
 11
250.922241
 21
-121.917664
  0
LINE
  8
0
 10
98.827148
 20
-56.667656
 11
226.827148
 21
-56.667656
  0
LINE
  8
0
 10
98.827148
 20
-185.667664
 11
226.827148
 21
-185.667664
  0
LINE
  8
0
 10
98.827148
 20
-70.667656
 11
226.827148
 21
-70.667656
  0
LINE
  8
0
 10
98.827148
 20
-171.667664
 11
226.827148
 21
-171.667664
  0
LINE
  8
0
  6
CENTER
 62
     2
 10
245.827148
 20
-44.715279
 11
245.827148
 21
-134.167664
  0
LINE
  8
0
 10
261.827148
 20
-48.667656
 11
261.827148
 21
-193.667664
  0
LINE
  8
0
 10
226.827148
 20
-48.667656
 11
226.827148
 21
-193.667664
  0
LINE
  8
0
 10
226.827148
 20
-48.667656
 11
261.827148
 21
-48.667656
  0
LINE
  8
0
 10
226.827148
 20
-193.667664
 11
261.827148
 21
-193.667664
  0
LINE
  8
0
 10
74.732056
 20
-120.417664
 11
84.922241
 21
-120.417664
  0
LINE
  8
0
 10
74.732056
 20
-121.917664
 11
84.922241
 21
-121.917664
  0
LINE
  8
0
 10
288.826874
 20
-57.668205
 11
287.826904
 21
-56.668228
  0
LINE
  8
0
 10
288.826752
 20
-69.667580
 11
287.826782
 21
-70.667564
  0
LINE
  8
0
 10
287.827148
 20
-56.667656
 11
276.327148
 21
-56.667656
  0
LINE
  8
0
 10
275.344666
 20
-76.369179
 11
265.327148
 21
-76.369179
  0
LINE
  8
0
 10
275.344666
 20
-70.018501
 11
265.327148
 21
-70.018501
  0
LINE
  8
0
 10
275.344666
 20
-57.316795
 11
265.327148
 21
-57.316795
  0
LINE
  8
0
 10
275.344666
 20
-50.965950
 11
265.327148
 21
-50.965950
  0
LINE
  8
0
 10
265.327148
 20
-76.369362
 11
265.327148
 21
-50.965950
  0
LINE
  8
0
 10
276.327148
 20
-74.667664
 11
276.327148
 21
-52.667656
  0
LINE
  8
0
 10
276.327667
 20
-74.667908
 11
275.345093
 21
-76.369637
  0
LINE
  8
0
 10
276.327179
 20
-52.667652
 11
275.344696
 21
-50.965958
  0
LINE
  8
0
 10
288.827148
 20
-69.668030
 11
288.827148
 21
-57.668030
  0
LINE
  8
0
 10
287.827148
 20
-70.668030
 11
287.827148
 21
-56.668030
  0
LINE
  8
0
 10
287.827148
 20
-70.667656
 11
276.327148
 21
-70.667656
  0
LINE
  8
0
 10
52.827148
 20
-83.667656
 11
58.627136
 21
-83.667656
  0
LINE
  8
0
 10
52.827148
 20
-158.667664
 11
58.627136
 21
-158.667664
  0
LINE
  8
0
 10
51.827148
 20
-101.151154
 11
51.827148
 21
-141.184158
  0
LINE
  8
0
 10
51.827148
 20
-154.184158
 11
51.827148
 21
-157.667664
  0
LINE
  8
0
 10
51.427124
 20
-154.184158
 11
58.627136
 21
-154.184158
  0
LINE
  8
0
 10
51.427124
 20
-141.184158
 11
58.627136
 21
-141.184158
  0
LINE
  8
0
 10
51.427124
 20
-88.151154
 11
58.627136
 21
-88.151154
  0
LINE
  8
0
 10
51.427124
 20
-101.151154
 11
58.627136
 21
-101.151154
  0
LINE
  8
0
 10
50.627087
 20
-88.951157
 11
51.427094
 21
-88.151154
  0
LINE
  8
0
 10
50.627151
 20
-100.351143
 11
51.427162
 21
-101.151154
  0
LINE
  8
0
 10
51.427086
 20
-141.184113
 11
50.627079
 21
-141.984116
  0
LINE
  8
0
 10
50.627098
 20
-153.384171
 11
51.427101
 21
-154.184174
  0
LINE
  8
0
 10
51.427124
 20
-88.151154
 11
51.427124
 21
-101.151154
  0
LINE
  8
0
 10
51.427124
 20
-141.184158
 11
51.427124
 21
-154.184158
  0
LINE
  8
0
 10
261.827148
 20
-166.667664
 11
265.327148
 21
-166.667664
  0
LINE
  8
0
 10
261.827148
 20
-190.667664
 11
265.327148
 21
-190.667664
  0
LINE
  8
0
 10
60.327148
 20
-166.667664
 11
63.827148
 21
-166.667664
  0
LINE
  8
0
 10
60.327148
 20
-190.667664
 11
63.827148
 21
-190.667664
  0
LINE
  8
0
 10
261.827148
 20
-51.667656
 11
265.327148
 21
-51.667656
  0
LINE
  8
0
 10
261.827148
 20
-75.667656
 11
265.327148
 21
-75.667656
  0
LINE
  8
0
 10
60.327148
 20
-166.167664
 11
63.827148
 21
-166.167664
  0
LINE
  8
0
  6
DASHED
 62
     2
 10
70.827118
 20
-50.167702
 11
88.827148
 21
-50.167702
  0
LINE
  8
0
  6
DASHED
 62
     2
 10
90.327164
 20
-48.667645
 11
88.827179
 21
-50.167641
  0
LINE
  8
0
  6
DASHED
 62
     2
 10
90.326920
 20
-48.667633
 11
89.927238
 21
-60.114090
  0
LINE
  8
0
  6
DASHED
 62
     2
 10
88.827148
 20
-60.017662
 11
88.827148
 21
-50.167656
  0
LINE
  8
0
  6
DASHED
 62
     2
 10
70.827698
 20
-50.167671
 11
70.827698
 21
-58.817665
  0
LINE
  8
0
  6
DASHED
 62
     2
 10
235.327301
 20
-48.667683
 11
236.827087
 21
-50.167736
  0
LINE
  8
0
  6
DASHED
 62
     2
 10
236.827148
 20
-50.168129
 11
254.827362
 21
-50.168129
  0
LINE
  8
0
  6
DASHED
 62
     2
 10
254.827118
 20
-50.167362
 11
256.327087
 21
-48.667362
  0
LINE
  8
0
  6
DASHED
 62
     2
 10
256.327515
 20
-48.667633
 11
255.927795
 21
-60.114117
  0
LINE
  8
0
  6
DASHED
 62
     2
 10
254.827164
 20
-60.017670
 11
254.827377
 21
-50.167645
  0
LINE
  8
0
  6
DASHED
 62
     2
 10
236.827148
 20
-50.167656
 11
236.827148
 21
-58.817665
  0
LINE
  8
0
  6
DASHED
 62
     2
 10
235.702896
 20
-59.411469
 11
235.327652
 21
-48.667603
  0
LINE
  8
0
 62
     2
 10
276.327148
 20
-58.067657
 11
288.827148
 21
-58.067657
  0
LINE
  8
0
 62
     2
 10
276.327148
 20
-69.267654
 11
288.827148
 21
-69.267654
  0
LINE
  8
0
 62
     2
 10
36.827148
 20
-173.067657
 11
49.327148
 21
-173.067657
  0
LINE
  8
0
 62
     2
 10
36.827148
 20
-184.267654
 11
49.327148
 21
-184.267654
  0
LINE
  8
0
 62
     2
 10
288.827148
 20
-173.067657
 11
276.327148
 21
-173.067657
  0
LINE
  8
0
 62
     2
 10
288.827148
 20
-184.267654
 11
276.327148
 21
-184.267654
  0
LINE
  8
0
 10
8.023315
 20
-101.167656
 11
25.827148
 21
-101.167656
  0
LINE
  8
0
 10
2.827148
 20
-103.167656
 11
2.827148
 21
-139.167664
  0
LINE
  8
0
 10
2.827143
 20
-103.167641
 11
8.023309
 21
-101.167641
  0
LINE
  8
0
 10
2.827147
 20
-139.167633
 11
8.023314
 21
-141.167633
  0
LINE
  8
0
 10
8.023315
 20
-141.167664
 11
25.827148
 21
-141.167664
  0
LINE
  8
0
 10
8.023315
 20
-112.449860
 11
14.827148
 21
-112.449860
  0
LINE
  8
0
 10
8.023315
 20
-129.885452
 11
14.827148
 21
-129.885452
  0
LINE
  8
0
 62
     2
 10
14.827177
 20
-129.885391
 11
8.023348
 21
-112.449814
  0
LINE
  8
0
 62
     2
 10
14.827094
 20
-112.449821
 11
8.023259
 21
-129.885422
  0
LINE
  8
0
 10
98.827148
 20
-54.167656
 11
226.827148
 21
-54.167656
  0
LINE
  8
0
 10
98.827148
 20
-188.167648
 11
226.827148
 21
-188.167648
  0
LINE
  8
0
 10
-55.422844
 20
-139.167664
 11
2.827148
 21
-139.167664
  0
LINE
  8
0
 10
-55.422844
 20
-103.167656
 11
2.827148
 21
-103.167656
  0
LINE
  8
0
 10
-0.172852
 20
-103.167656
 11
-0.172852
 21
-139.167664
  0
LINE
  8
0
 62
     2
 10
-56.172852
 20
-138.417664
 11
-0.172852
 21
-138.417664
  0
LINE
  8
0
 10
-55.422886
 20
-139.167709
 11
-56.172882
 21
-138.417709
  0
LINE
  8
0
 62
     2
 10
-0.172895
 20
-138.417755
 11
1.434176
 21
-139.167725
  0
LINE
  8
0
 10
-56.172852
 20
-103.917664
 11
-56.172852
 21
-138.417664
  0
LINE
  8
0
 10
-55.422844
 20
-103.167648
 11
-55.422844
 21
-139.167664
  0
LINE
  8
0
 62
     2
 10
-56.172852
 20
-103.917664
 11
-0.172852
 21
-103.917664
  0
LINE
  8
0
 62
     2
 10
-0.172883
 20
-103.917603
 11
1.434182
 21
-103.167641
  0
LINE
  8
0
 10
-55.422852
 20
-103.167671
 11
-56.172859
 21
-103.917679
  0
LINE
  8
0
  6
CENTER
 62
     2
 10
-262.672852
 20
-121.167664
 11
-108.422852
 21
-121.167664
  0
LINE
  8
0
  6
CENTER
 62
     2
 10
-186.172852
 20
-44.667656
 11
-186.172852
 21
-197.417664
  0
LINE
  8
0
 10
-113.672852
 20
-48.667656
 11
-113.672852
 21
-193.667664
  0
LINE
  8
0
 10
-258.672852
 20
-48.667656
 11
-258.672852
 21
-193.667664
  0
LINE
  8
0
 10
-258.672852
 20
-48.667656
 11
-113.672852
 21
-48.667656
  0
LINE
  8
0
 10
-258.672852
 20
-193.667664
 11
-113.672852
 21
-193.667664
  0
LINE
  8
0
  6
CENTER
 62
     2
 10
-128.672852
 20
-49.167656
 11
-128.672852
 21
-78.167656
  0
LINE
  8
0
  6
CENTER
 62
     2
 10
-243.672852
 20
-48.667656
 11
-243.672852
 21
-77.167656
  0
LINE
  8
0
  6
CENTER
 62
     2
 10
-256.922852
 20
-63.667656
 11
-229.922852
 21
-63.667656
  0
LINE
  8
0
  6
CENTER
 62
     2
 10
-257.172852
 20
-178.667664
 11
-230.172852
 21
-178.667664
  0
LINE
  8
0
 10
-232.672852
 20
-172.316803
 11
-232.672852
 21
-185.018524
  0
LINE
  8
0
 10
-254.672852
 20
-172.316803
 11
-254.672852
 21
-185.018524
  0
LINE
  8
0
 10
-254.672607
 20
-172.317001
 11
-243.672638
 21
-165.966202
  0
LINE
  8
0
 10
-243.672638
 20
-191.369690
 11
-232.672577
 21
-185.018799
  0
LINE
  8
0
 10
-243.672546
 20
-165.965530
 11
-232.672653
 21
-172.316330
  0
LINE
  8
0
 10
-254.672821
 20
-185.018478
 11
-243.672836
 21
-191.369324
  0
LINE
  8
0
  6
CENTER
 62
     2
 10
-243.672852
 20
-163.667664
 11
-243.672852
 21
-193.417664
  0
LINE
  8
0
  6
CENTER
 62
     2
 10
-140.922852
 20
-178.667664
 11
-114.672852
 21
-178.667664
  0
LINE
  8
0
  6
CENTER
 62
     2
 10
-128.672852
 20
-162.917664
 11
-128.672852
 21
-192.167664
  0
LINE
  8
0
  6
CENTER
 62
     2
 10
-141.922852
 20
-63.667656
 11
-115.672852
 21
-63.667656
  0
LINE
  8
0
 10
-213.585983
 20
-144.338272
 11
-210.239899
 21
-145.234848
  0
LINE
  8
0
 10
-215.138947
 20
-150.133774
 11
-211.792877
 21
-151.030365
  0
LINE
  8
0
 10
-216.035309
 20
-146.787506
 11
-215.138733
 21
-150.133575
  0
LINE
  8
0
 10
-210.239685
 20
-145.234634
 11
-209.343124
 21
-148.580658
  0
LINE
  8
0
 10
-211.792694
 20
-151.030304
 11
-209.343231
 21
-148.580841
  0
LINE
  8
0
 10
-216.035400
 20
-146.787659
 11
-213.585922
 21
-144.338181
  0
LINE
  8
0
 10
-211.792679
 20
-91.304970
 11
-209.343185
 21
-93.754463
  0
LINE
  8
0
 10
-209.343384
 20
-93.754517
 11
-210.239960
 21
-97.100594
  0
LINE
  8
0
 10
-215.139191
 20
-92.201599
 11
-216.035767
 21
-95.547653
  0
LINE
  8
0
 10
-211.792816
 20
-91.305054
 11
-215.138885
 21
-92.201630
  0
LINE
  8
0
 10
-210.239914
 20
-97.100609
 11
-213.585937
 21
-97.997169
  0
LINE
  8
0
 10
-216.035324
 20
-95.547592
 11
-213.585846
 21
-97.997070
  0
LINE
  8
0
 10
-158.759659
 20
-144.337982
 11
-156.310165
 21
-146.787476
  0
LINE
  8
0
 10
-156.310394
 20
-146.787552
 11
-157.206970
 21
-150.133652
  0
LINE
  8
0
 10
-162.106033
 20
-145.234634
 11
-163.002609
 21
-148.580688
  0
LINE
  8
0
 10
-158.759735
 20
-144.338074
 11
-162.105804
 21
-145.234650
  0
LINE
  8
0
 10
-157.206940
 20
-150.133621
 11
-160.552948
 21
-151.030182
  0
LINE
  8
0
 10
-163.002365
 20
-148.580597
 11
-160.552887
 21
-151.030075
  0
LINE
  8
0
 10
-163.002350
 20
-93.754669
 11
-160.552841
 21
-91.305176
  0
LINE
  8
0
 10
-160.552933
 20
-91.305161
 11
-157.206863
 21
-92.201736
  0
LINE
  8
0
 10
-162.105850
 20
-97.100677
 11
-158.759781
 21
-97.997253
  0
LINE
  8
0
 10
-163.002289
 20
-93.754532
 11
-162.105713
 21
-97.100616
  0
LINE
  8
0
 10
-157.206757
 20
-92.201660
 11
-156.310196
 21
-95.547676
  0
LINE
  8
0
 10
-158.759613
 20
-97.997284
 11
-156.310135
 21
-95.547806
  0
LINE
  8
0
 10
-117.672852
 20
-172.316803
 11
-117.672852
 21
-185.018524
  0
LINE
  8
0
 10
-139.672852
 20
-172.316803
 11
-139.672852
 21
-185.018524
  0
LINE
  8
0
 10
-139.672745
 20
-172.316818
 11
-128.672745
 21
-165.966003
  0
LINE
  8
0
 10
-128.672821
 20
-191.369370
 11
-117.672806
 21
-185.018509
  0
LINE
  8
0
 10
-128.672623
 20
-165.965683
 11
-117.672699
 21
-172.316498
  0
LINE
  8
0
 10
-139.672791
 20
-185.018478
 11
-128.672806
 21
-191.369308
  0
LINE
  8
0
 10
-117.672852
 20
-57.316811
 11
-117.672852
 21
-70.018517
  0
LINE
  8
0
 10
-139.672852
 20
-57.316811
 11
-139.672852
 21
-70.018517
  0
LINE
  8
0
 10
-139.672638
 20
-57.317135
 11
-128.672607
 21
-50.966297
  0
LINE
  8
0
 10
-128.672546
 20
-76.369827
 11
-117.672523
 21
-70.018959
  0
LINE
  8
0
 10
-128.672806
 20
-50.965900
 11
-117.672852
 21
-57.316746
  0
LINE
  8
0
 10
-139.672791
 20
-70.018494
 11
-128.672821
 21
-76.369316
  0
LINE
  8
0
 10
-232.672852
 20
-57.316811
 11
-232.672852
 21
-70.018517
  0
LINE
  8
0
 10
-254.672852
 20
-57.316811
 11
-254.672852
 21
-70.018517
  0
LINE
  8
0
 10
-254.672455
 20
-57.317310
 11
-243.672440
 21
-50.966473
  0
LINE
  8
0
 10
-243.672409
 20
-76.370041
 11
-232.672394
 21
-70.019173
  0
LINE
  8
0
 10
-243.672684
 20
-50.965782
 11
-232.672760
 21
-57.316608
  0
LINE
  8
0
 10
-254.672791
 20
-70.018501
 11
-243.672791
 21
-76.369339
  0
LINE
  8
0
 10
-204.172852
 20
-112.449860
 11
-204.172852
 21
-129.885452
  0
LINE
  8
0
 10
-168.172852
 20
-112.449860
 11
-168.172852
 21
-129.885452
  0
LINE
  8
0
  6
CENTER
 62
     2
 10
-60.672852
 20
108.832336
 11
266.748535
 21
108.832336
  0
LINE
  8
0
 10
8.023315
 20
126.832336
 11
8.023315
 21
90.832336
  0
LINE
  8
0
 10
25.827148
 20
136.832336
 11
25.827148
 21
80.832336
  0
LINE
  8
0
 10
26.827148
 20
137.832336
 11
26.827148
 21
79.832336
  0
LINE
  8
0
 10
25.827082
 20
136.832397
 11
26.827087
 21
137.832397
  0
LINE
  8
0
 10
25.827158
 20
80.832291
 11
26.827162
 21
79.832298
  0
LINE
  8
0
 10
63.827148
 20
181.332336
 11
63.827148
 21
36.332344
  0
LINE
  8
0
 10
58.627136
 20
152.832336
 11
58.627136
 21
64.832336
  0
LINE
  8
0
 10
59.627136
 20
153.832336
 11
59.627136
 21
64.034058
  0
LINE
  8
0
 10
58.627274
 20
152.832260
 11
59.627262
 21
153.832275
  0
LINE
  8
0
 10
50.627136
 20
141.048843
 11
50.627136
 21
129.648849
  0
LINE
  8
0
 10
50.627136
 20
88.015839
 11
50.627136
 21
76.615845
  0
LINE
  8
0
 10
26.827110
 20
137.832245
 11
50.627098
 21
138.784241
  0
LINE
  8
0
 10
26.827206
 20
79.832375
 11
50.627163
 21
78.880379
  0
LINE
  8
0
 10
51.827148
 20
145.332336
 11
51.827148
 21
141.848846
  0
LINE
  8
0
 10
98.827148
 20
181.332336
 11
98.827148
 21
36.332344
  0
LINE
  8
0
 10
63.827148
 20
181.332336
 11
98.827148
 21
181.332336
  0
LINE
  8
0
 10
63.827148
 20
36.332344
 11
98.827148
 21
36.332344
  0
LINE
  8
0
  6
CENTER
 62
     2
 10
31.992737
 20
166.332336
 11
292.027161
 21
166.332336
  0
LINE
  8
0
 10
288.827148
 20
45.331970
 11
288.827148
 21
57.331970
  0
LINE
  8
0
 10
287.827148
 20
44.331970
 11
287.827148
 21
58.331970
  0
LINE
  8
0
 10
287.827148
 20
44.332344
 11
276.327148
 21
44.332344
  0
LINE
  8
0
 10
287.827148
 20
58.332336
 11
276.327148
 21
58.332336
  0
LINE
  8
0
 10
288.826935
 20
45.332092
 11
287.826935
 21
44.332069
  0
LINE
  8
0
 10
288.826538
 20
57.331451
 11
287.826569
 21
58.331432
  0
LINE
  8
0
  6
CENTER
 62
     2
 10
31.327148
 20
51.332344
 11
293.627136
 21
51.332344
  0
LINE
  8
0
 10
37.827148
 20
44.332344
 11
49.327148
 21
44.332344
  0
LINE
  8
0
 10
36.827137
 20
57.332325
 11
37.827137
 21
58.332325
  0
LINE
  8
0
 10
36.827221
 20
45.332344
 11
37.827225
 21
44.332344
  0
LINE
  8
0
 10
60.327148
 20
63.332336
 11
60.327148
 21
39.332344
  0
LINE
  8
0
 10
36.827148
 20
57.332344
 11
36.827148
 21
45.332344
  0
LINE
  8
0
 10
37.827148
 20
58.332336
 11
37.827148
 21
44.332344
  0
LINE
  8
0
 10
37.827148
 20
58.332336
 11
49.327148
 21
58.332336
  0
LINE
  8
0
 10
58.627098
 20
64.832344
 11
59.627140
 21
63.832321
  0
LINE
  8
0
  6
CENTER
 62
     2
 10
79.827148
 20
120.422073
 11
79.827148
 21
97.532349
  0
LINE
  8
0
 10
98.827148
 20
173.332336
 11
226.827148
 21
173.332336
  0
LINE
  8
0
 10
98.827148
 20
44.332344
 11
226.827148
 21
44.332344
  0
LINE
  8
0
 10
98.827148
 20
159.332336
 11
226.827148
 21
159.332336
  0
LINE
  8
0
 10
98.827148
 20
58.332336
 11
226.827148
 21
58.332336
  0
LINE
  8
0
  6
CENTER
 62
     2
 10
245.827148
 20
121.909103
 11
245.827148
 21
95.832336
  0
LINE
  8
0
 10
261.827148
 20
181.332336
 11
261.827148
 21
36.332344
  0
LINE
  8
0
 10
226.827148
 20
181.332336
 11
226.827148
 21
36.332344
  0
LINE
  8
0
 10
226.827148
 20
181.332336
 11
261.827148
 21
181.332336
  0
LINE
  8
0
 10
226.827148
 20
36.332336
 11
261.827148
 21
36.332336
  0
LINE
  8
0
 10
36.827240
 20
160.332397
 11
37.827232
 21
159.332397
  0
LINE
  8
0
 10
36.827202
 20
172.332275
 11
37.827213
 21
173.332260
  0
LINE
  8
0
 10
37.827148
 20
159.332336
 11
49.327148
 21
159.332336
  0
LINE
  8
0
 10
36.827148
 20
172.332336
 11
36.827148
 21
160.332336
  0
LINE
  8
0
 10
37.827148
 20
173.332336
 11
37.827148
 21
159.332336
  0
LINE
  8
0
 10
37.827148
 20
173.332336
 11
49.327148
 21
173.332336
  0
LINE
  8
0
 10
288.826843
 20
172.331741
 11
287.826874
 21
173.331726
  0
LINE
  8
0
 10
288.826813
 20
160.332306
 11
287.826843
 21
159.332321
  0
LINE
  8
0
 10
287.827148
 20
173.332336
 11
276.327148
 21
173.332336
  0
LINE
  8
0
 10
288.827148
 20
160.331970
 11
288.827148
 21
172.331970
  0
LINE
  8
0
 10
287.827148
 20
159.331970
 11
287.827148
 21
173.331970
  0
LINE
  8
0
 10
287.827148
 20
159.332336
 11
276.327148
 21
159.332336
  0
LINE
  8
0
 10
52.827148
 20
146.332336
 11
58.627136
 21
146.332336
  0
LINE
  8
0
 10
52.827148
 20
71.332336
 11
58.627136
 21
71.332336
  0
LINE
  8
0
 10
51.827148
 20
128.848846
 11
51.827148
 21
88.815842
  0
LINE
  8
0
 10
51.827148
 20
75.815842
 11
51.827148
 21
72.332336
  0
LINE
  8
0
 10
51.427124
 20
75.815842
 11
58.627136
 21
75.815842
  0
LINE
  8
0
 10
51.427124
 20
88.815842
 11
58.627136
 21
88.815842
  0
LINE
  8
0
 10
51.427124
 20
141.848846
 11
58.627136
 21
141.848846
  0
LINE
  8
0
 10
51.427124
 20
128.848846
 11
58.627136
 21
128.848846
  0
LINE
  8
0
 10
50.627045
 20
141.048874
 11
51.427052
 21
141.848877
  0
LINE
  8
0
 10
50.627129
 20
129.648819
 11
51.427139
 21
128.848801
  0
LINE
  8
0
 10
51.427105
 20
88.815849
 11
50.627098
 21
88.015846
  0
LINE
  8
0
 10
50.627151
 20
76.615868
 11
51.427155
 21
75.815857
  0
LINE
  8
0
 10
51.427124
 20
141.848846
 11
51.427124
 21
128.848846
  0
LINE
  8
0
 10
51.427124
 20
88.815842
 11
51.427124
 21
75.815842
  0
LINE
  8
0
 10
261.827148
 20
63.332336
 11
265.327148
 21
63.332336
  0
LINE
  8
0
 10
261.827148
 20
39.332336
 11
265.327148
 21
39.332336
  0
LINE
  8
0
 10
60.327148
 20
63.332336
 11
63.827148
 21
63.332336
  0
LINE
  8
0
 10
60.327148
 20
39.332344
 11
63.827148
 21
39.332344
  0
LINE
  8
0
 10
60.327148
 20
178.332336
 11
63.827148
 21
178.332336
  0
LINE
  8
0
 10
60.327148
 20
154.332336
 11
63.827148
 21
154.332336
  0
LINE
  8
0
 10
261.827148
 20
178.332336
 11
265.327148
 21
178.332336
  0
LINE
  8
0
 10
261.827148
 20
154.332336
 11
265.327148
 21
154.332336
  0
LINE
  8
0
 10
59.627148
 20
63.832336
 11
63.827148
 21
63.832336
  0
LINE
  8
0
 10
59.627136
 20
153.832336
 11
63.827148
 21
153.832336
  0
LINE
  8
0
 62
     2
 10
36.827148
 20
160.732346
 11
49.327148
 21
160.732346
  0
LINE
  8
0
 62
     2
 10
36.827148
 20
171.932343
 11
49.327148
 21
171.932343
  0
LINE
  8
0
 62
     2
 10
276.327148
 20
171.932343
 11
288.827148
 21
171.932343
  0
LINE
  8
0
 62
     2
 10
276.327148
 20
160.732346
 11
288.827148
 21
160.732346
  0
LINE
  8
0
 62
     2
 10
36.827148
 20
56.932343
 11
49.327148
 21
56.932343
  0
LINE
  8
0
 62
     2
 10
36.827148
 20
45.732346
 11
49.327148
 21
45.732346
  0
LINE
  8
0
 62
     2
 10
288.827148
 20
56.932343
 11
276.327148
 21
56.932343
  0
LINE
  8
0
 62
     2
 10
288.827148
 20
45.732346
 11
276.327148
 21
45.732346
  0
LINE
  8
0
 10
15.981850
 20
128.832336
 11
25.827148
 21
128.832336
  0
LINE
  8
0
 10
2.827148
 20
126.832336
 11
2.827148
 21
90.832336
  0
LINE
  8
0
 10
15.981850
 20
88.832336
 11
25.827148
 21
88.832336
  0
LINE
  8
0
 10
98.827148
 20
175.832336
 11
226.827148
 21
175.832336
  0
LINE
  8
0
 10
98.827148
 20
41.832352
 11
226.827148
 21
41.832352
  0
LINE
  8
0
 10
-55.422844
 20
90.832336
 11
2.827148
 21
90.832336
  0
LINE
  8
0
 10
-55.422844
 20
126.832336
 11
2.827148
 21
126.832336
  0
LINE
  8
0
 10
-0.172852
 20
126.832336
 11
-0.172852
 21
90.832336
  0
LINE
  8
0
 10
-56.172852
 20
126.082336
 11
-56.172852
 21
91.582336
  0
LINE
  8
0
 62
     2
 10
-56.172852
 20
126.082336
 11
-0.172852
 21
126.082336
  0
LINE
  8
0
 62
     2
 10
-0.172880
 20
126.082352
 11
1.434185
 21
126.832314
  0
LINE
  8
0
 10
49.327145
 20
62.332344
 11
60.327145
 21
62.332344
  0
LINE
  8
0
 10
50.309631
 20
51.332344
 11
60.327148
 21
51.332344
  0
LINE
  8
0
 10
49.327148
 20
62.332340
 11
49.327148
 21
40.332336
  0
LINE
  8
0
 10
49.327152
 20
40.332344
 11
60.327152
 21
40.332344
  0
LINE
  8
0
 10
276.327148
 20
62.332344
 11
265.327148
 21
62.332344
  0
LINE
  8
0
 10
275.344666
 20
51.332344
 11
265.327148
 21
51.332344
  0
LINE
  8
0
 10
276.327148
 20
62.332340
 11
276.327148
 21
40.332336
  0
LINE
  8
0
 10
276.327148
 20
40.332344
 11
265.327148
 21
40.332344
  0
LINE
  8
0
 10
49.327145
 20
155.332336
 11
60.327145
 21
155.332336
  0
LINE
  8
0
 10
50.309631
 20
166.332336
 11
60.327148
 21
166.332336
  0
LINE
  8
0
 10
49.327148
 20
155.332336
 11
49.327148
 21
177.332336
  0
LINE
  8
0
 10
49.327152
 20
177.332336
 11
60.327152
 21
177.332336
  0
LINE
  8
0
 10
276.327148
 20
155.332336
 11
265.327148
 21
155.332336
  0
LINE
  8
0
 10
275.344666
 20
166.332336
 11
265.327148
 21
166.332336
  0
LINE
  8
0
 10
276.327148
 20
155.332336
 11
276.327148
 21
177.332336
  0
LINE
  8
0
 10
276.327148
 20
177.332336
 11
265.327148
 21
177.332336
  0
LINE
  8
0
 10
265.327148
 20
63.332336
 11
265.327148
 21
39.332336
  0
LINE
  8
0
 10
265.327148
 20
178.332336
 11
265.327148
 21
154.332336
  0
LINE
  8
0
 10
60.327148
 20
178.332336
 11
60.327148
 21
154.332336
  0
LINE
  8
0
 10
2.827148
 20
90.832336
 11
14.827148
 21
90.832336
  0
LINE
  8
0
 10
2.827148
 20
126.832336
 11
14.827148
 21
126.832336
  0
LINE
  8
0
 10
14.827159
 20
126.832314
 11
15.981860
 21
128.832321
  0
LINE
  8
0
 10
14.827143
 20
90.832344
 11
15.981843
 21
88.832336
  0
LINE
  8
0
 10
-55.422928
 20
126.832413
 11
-56.172935
 21
126.082405
  0
LINE
  8
0
 10
-55.422844
 20
126.832352
 11
-55.422844
 21
90.832336
  0
LINE
  8
0
 10
-55.422871
 20
90.832329
 11
-56.172871
 21
91.582329
  0
LINE
  8
0
 62
     2
 10
-0.172869
 20
91.582291
 11
1.434195
 21
90.832321
  0
LINE
  8
0
 62
     2
 10
-56.172852
 20
91.582336
 11
-0.172852
 21
91.582336
  0
ARC
  8
0
 10
52.827148
 20
-84.667656
 40
1.000000
 50
90.000000
 51
180.000000
  0
ARC
  8
0
 10
52.827148
 20
-157.667664
 40
1.000000
 50
180.000000
 51
270.000000
  0
CIRCLE
  8
0
 10
79.827148
 20
-121.167664
 40
7.950000
  0
CIRCLE
  8
0
 10
245.827148
 20
-121.167664
 40
7.950000
  0
CIRCLE
  8
0
 10
79.827148
 20
-121.167664
 40
5.150000
  0
CIRCLE
  8
0
 10
245.827148
 20
-121.167664
 40
5.150000
  0
ARC
  8
0
 10
-3.172852
 20
-121.167664
 40
20.000004
 50
334.158051
 51
25.841928
  0
ARC
  8
0
 10
12.738312
 20
-121.167656
 40
9.911164
 50
118.406631
 51
241.593369
  0
ARC
  8
0
 10
-216.893494
 20
-101.457428
 40
0.999999
 50
58.297192
 51
147.315781
  0
CIRCLE
  8
0
 10
-186.172852
 20
-121.167664
 40
18.000000
  0
CIRCLE
  8
0
 10
-186.172852
 20
-121.167664
 40
20.000000
  0
CIRCLE
  8
0
 10
-186.172852
 20
-121.167664
 40
30.000000
  0
ARC
  8
0
 10
-186.172852
 20
-121.167664
 40
37.500000
 50
0.000000
 51
32.684067
  0
ARC
  8
0
 10
-212.689362
 20
-147.684158
 40
7.000000
 50
0.000000
 51
121.703087
  0
ARC
  8
0
 10
-212.689362
 20
-94.651154
 40
7.000000
 50
0.000000
 51
31.702862
  0
ARC
  8
0
 10
-159.656342
 20
-94.651154
 40
7.000000
 50
148.297089
 51
301.702911
  0
ARC
  8
0
 10
-186.172852
 20
-121.167664
 40
37.499996
 50
57.315914
 51
122.684113
  0
ARC
  8
0
 10
-166.462616
 20
-90.447037
 40
0.999999
 50
328.297180
 51
57.315781
  0
ARC
  8
0
 10
-155.452209
 20
-101.457428
 40
1.000000
 50
32.684219
 51
121.702805
  0
ARC
  8
0
 10
-186.172852
 20
-121.167664
 40
37.499996
 50
327.315948
 51
0.000000
  0
ARC
  8
0
 10
-159.656342
 20
-147.684158
 40
7.000000
 50
58.297085
 51
211.702911
  0
ARC
  8
0
 10
-155.452209
 20
-140.877884
 40
0.999999
 50
238.297195
 51
327.315765
  0
ARC
  8
0
 10
-166.462616
 20
-151.888275
 40
1.000000
 50
302.684235
 51
31.702808
  0
ARC
  8
0
 10
-186.172852
 20
-121.167664
 40
37.500000
 50
237.315887
 51
302.684082
  0
ARC
  8
0
 10
-212.689362
 20
-147.684158
 40
7.000000
 50
328.297089
 51
0.000000
  0
ARC
  8
0
 10
-205.883087
 20
-151.888275
 40
0.999999
 50
148.297195
 51
237.315781
  0
ARC
  8
0
 10
-216.893494
 20
-140.877884
 40
1.000000
 50
212.684219
 51
301.702820
  0
ARC
  8
0
 10
-186.172852
 20
-121.167664
 40
37.499996
 50
147.315948
 51
212.684021
  0
ARC
  8
0
 10
-212.689362
 20
-94.651154
 40
7.000001
 50
238.296951
 51
0.000000
  0
ARC
  8
0
 10
-205.883087
 20
-90.447037
 40
1.000000
 50
122.684219
 51
211.703186
  0
CIRCLE
  8
0
 10
-186.172852
 20
-121.167664
 40
45.000000
  0
CIRCLE
  8
0
 10
-243.672852
 20
-178.667664
 40
7.000000
  0
CIRCLE
  8
0
 10
-212.689362
 20
-147.684158
 40
6.500000
  0
CIRCLE
  8
0
 10
-159.656342
 20
-147.684158
 40
6.500000
  0
CIRCLE
  8
0
 10
-159.656342
 20
-94.651154
 40
6.500000
  0
CIRCLE
  8
0
 10
-212.689362
 20
-94.651154
 40
6.500000
  0
CIRCLE
  8
0
 10
-243.672852
 20
-178.667664
 40
10.500000
  0
CIRCLE
  8
0
 10
-128.672852
 20
-178.667664
 40
7.000000
  0
CIRCLE
  8
0
 10
-128.672852
 20
-178.667664
 40
10.500000
  0
CIRCLE
  8
0
 10
-128.672852
 20
-63.667656
 40
7.000000
  0
CIRCLE
  8
0
 10
-128.672852
 20
-63.667656
 40
10.500000
  0
CIRCLE
  8
0
 10
-243.672852
 20
-63.667656
 40
7.000000
  0
CIRCLE
  8
0
 10
-243.672852
 20
-63.667656
 40
10.500000
  0
CIRCLE
  8
0
 62
     2
 10
-128.672852
 20
-63.667656
 40
5.600000
  0
CIRCLE
  8
0
 62
     2
 10
-243.672852
 20
-63.667656
 40
5.600000
  0
CIRCLE
  8
0
 62
     2
 10
-128.672852
 20
-178.667664
 40
5.600000
  0
CIRCLE
  8
0
 62
     2
 10
-243.672852
 20
-178.667664
 40
5.600000
  0
CIRCLE
  8
0
 62
     2
 10
-186.172852
 20
-121.167664
 40
17.250000
  0
ARC
  8
0
 10
52.827148
 20
145.332336
 40
1.000000
 50
90.000000
 51
180.000000
  0
ARC
  8
0
 10
52.827148
 20
72.332336
 40
1.000000
 50
180.000000
 51
270.000000
  0
ARC
  8
0
 10
65.213097
 20
56.832344
 40
15.885947
 50
159.743866
 51
200.256119
  0
ARC
  8
0
 10
65.213097
 20
45.832344
 40
15.885948
 50
159.743805
 51
200.256058
  0
ARC
  8
0
 10
260.441193
 20
45.832344
 40
15.885948
 50
339.743896
 51
20.256153
  0
ARC
  8
0
 10
260.441193
 20
56.832344
 40
15.885953
 50
339.743835
 51
20.256102
  0
ARC
  8
0
 10
65.213097
 20
171.832336
 40
15.885949
 50
159.743835
 51
200.256104
  0
ARC
  8
0
 10
65.213097
 20
160.832336
 40
15.885951
 50
159.743790
 51
200.256042
  0
ARC
  8
0
 10
260.441193
 20
171.832336
 40
15.885959
 50
339.743805
 51
20.256050
  0
ARC
  8
0
 10
260.441193
 20
160.832336
 40
15.885953
 50
339.743835
 51
20.256102
  0
CIRCLE
  8
0
 62
     2
 10
79.827148
 20
108.832336
 40
10.477500
  0
CIRCLE
  8
0
 62
     2
 10
245.827148
 20
108.832336
 40
10.477500
  0
CIRCLE
  8
0
 10
79.827148
 20
108.832336
 40
9.315500
  0
CIRCLE
  8
0
 10
245.827148
 20
108.832336
 40
9.315500
  0
POLYLINE
  8
0
 66
     1
  0
VERTEX
  8
0
 10
50.309631
 20
-50.965950
  0
VERTEX
  8
0
 10
49.910156
 20
-51.702568
  0
VERTEX
  8
0
 10
49.599754
 20
-52.488251
  0
VERTEX
  8
0
 10
49.398674
 20
-53.306637
  0
VERTEX
  8
0
 10
49.327148
 20
-54.141380
  0
VERTEX
  8
0
 10
49.398674
 20
-54.976124
  0
VERTEX
  8
0
 10
49.599754
 20
-55.794510
  0
VERTEX
  8
0
 10
49.910156
 20
-56.580193
  0
VERTEX
  8
0
 10
50.309631
 20
-57.316811
  0
SEQEND
  0
POLYLINE
  8
0
 66
     1
  0
VERTEX
  8
0
 10
50.309631
 20
-57.316811
  0
VERTEX
  8
0
 10
50.055843
 20
-58.200016
  0
VERTEX
  8
0
 10
49.837959
 20
-59.094326
  0
VERTEX
  8
0
 10
49.657124
 20
-59.997887
  0
VERTEX
  8
0
 10
49.514477
 20
-60.908852
  0
VERTEX
  8
0
 10
49.411171
 20
-61.825367
  0
VERTEX
  8
0
 10
49.348343
 20
-62.745586
  0
VERTEX
  8
0
 10
49.327148
 20
-63.667656
  0
VERTEX
  8
0
 10
49.348343
 20
-64.589729
  0
VERTEX
  8
0
 10
49.411167
 20
-65.509949
  0
VERTEX
  8
0
 10
49.514477
 20
-66.426468
  0
VERTEX
  8
0
 10
49.657120
 20
-67.337433
  0
VERTEX
  8
0
 10
49.837959
 20
-68.240997
  0
VERTEX
  8
0
 10
50.055843
 20
-69.135307
  0
VERTEX
  8
0
 10
50.309631
 20
-70.018517
  0
SEQEND
  0
POLYLINE
  8
0
 66
     1
  0
VERTEX
  8
0
 10
50.309631
 20
-70.018517
  0
VERTEX
  8
0
 10
49.910156
 20
-70.755135
  0
VERTEX
  8
0
 10
49.599754
 20
-71.540810
  0
VERTEX
  8
0
 10
49.398674
 20
-72.359200
  0
VERTEX
  8
0
 10
49.327148
 20
-73.193939
  0
VERTEX
  8
0
 10
49.398674
 20
-74.028679
  0
VERTEX
  8
0
 10
49.599754
 20
-74.847069
  0
VERTEX
  8
0
 10
49.910156
 20
-75.632744
  0
VERTEX
  8
0
 10
50.309631
 20
-76.369362
  0
SEQEND
  0
POLYLINE
  8
0
 66
     1
  0
VERTEX
  8
0
 10
275.344666
 20
-191.369370
  0
VERTEX
  8
0
 10
275.744141
 20
-190.632751
  0
VERTEX
  8
0
 10
276.054535
 20
-189.847076
  0
VERTEX
  8
0
 10
276.255615
 20
-189.028687
  0
VERTEX
  8
0
 10
276.327148
 20
-188.193939
  0
VERTEX
  8
0
 10
276.255615
 20
-187.359192
  0
VERTEX
  8
0
 10
276.054535
 20
-186.540802
  0
VERTEX
  8
0
 10
275.744141
 20
-185.755112
  0
VERTEX
  8
0
 10
275.344666
 20
-185.018494
  0
SEQEND
  0
POLYLINE
  8
0
 66
     1
  0
VERTEX
  8
0
 10
275.344666
 20
-185.018494
  0
VERTEX
  8
0
 10
275.598450
 20
-184.135284
  0
VERTEX
  8
0
 10
275.816345
 20
-183.240982
  0
VERTEX
  8
0
 10
275.997162
 20
-182.337418
  0
VERTEX
  8
0
 10
276.139832
 20
-181.426468
  0
VERTEX
  8
0
 10
276.243134
 20
-180.509949
  0
VERTEX
  8
0
 10
276.305939
 20
-179.589737
  0
VERTEX
  8
0
 10
276.327148
 20
-178.667664
  0
VERTEX
  8
0
 10
276.305939
 20
-177.745590
  0
VERTEX
  8
0
 10
276.243134
 20
-176.825378
  0
VERTEX
  8
0
 10
276.139832
 20
-175.908859
  0
VERTEX
  8
0
 10
275.997162
 20
-174.997879
  0
VERTEX
  8
0
 10
275.816345
 20
-174.094315
  0
VERTEX
  8
0
 10
275.598450
 20
-173.200012
  0
VERTEX
  8
0
 10
275.344666
 20
-172.316803
  0
SEQEND
  0
POLYLINE
  8
0
 66
     1
  0
VERTEX
  8
0
 10
275.344666
 20
-172.316803
  0
VERTEX
  8
0
 10
275.744141
 20
-171.580185
  0
VERTEX
  8
0
 10
276.054535
 20
-170.794510
  0
VERTEX
  8
0
 10
276.255615
 20
-169.976120
  0
VERTEX
  8
0
 10
276.327148
 20
-169.141388
  0
VERTEX
  8
0
 10
276.255615
 20
-168.306641
  0
VERTEX
  8
0
 10
276.054535
 20
-167.488251
  0
VERTEX
  8
0
 10
275.744141
 20
-166.702560
  0
VERTEX
  8
0
 10
275.344666
 20
-165.965942
  0
SEQEND
  0
POLYLINE
  8
0
 66
     1
  0
VERTEX
  8
0
 10
50.309631
 20
-165.965942
  0
VERTEX
  8
0
 10
49.910156
 20
-166.702560
  0
VERTEX
  8
0
 10
49.599754
 20
-167.488251
  0
VERTEX
  8
0
 10
49.398674
 20
-168.306641
  0
VERTEX
  8
0
 10
49.327148
 20
-169.141388
  0
VERTEX
  8
0
 10
49.398674
 20
-169.976135
  0
VERTEX
  8
0
 10
49.599754
 20
-170.794510
  0
VERTEX
  8
0
 10
49.910156
 20
-171.580185
  0
VERTEX
  8
0
 10
50.309631
 20
-172.316803
  0
SEQEND
  0
POLYLINE
  8
0
 66
     1
  0
VERTEX
  8
0
 10
50.309631
 20
-185.018524
  0
VERTEX
  8
0
 10
49.910156
 20
-185.755142
  0
VERTEX
  8
0
 10
49.599754
 20
-186.540817
  0
VERTEX
  8
0
 10
49.398674
 20
-187.359207
  0
VERTEX
  8
0
 10
49.327148
 20
-188.193939
  0
VERTEX
  8
0
 10
49.398674
 20
-189.028671
  0
VERTEX
  8
0
 10
49.599754
 20
-189.847061
  0
VERTEX
  8
0
 10
49.910156
 20
-190.632736
  0
VERTEX
  8
0
 10
50.309631
 20
-191.369354
  0
SEQEND
  0
POLYLINE
  8
0
 66
     1
  0
VERTEX
  8
0
 10
50.309631
 20
-172.316803
  0
VERTEX
  8
0
 10
50.055843
 20
-173.200012
  0
VERTEX
  8
0
 10
49.837959
 20
-174.094315
  0
VERTEX
  8
0
 10
49.657124
 20
-174.997879
  0
VERTEX
  8
0
 10
49.514477
 20
-175.908844
  0
VERTEX
  8
0
 10
49.411171
 20
-176.825378
  0
VERTEX
  8
0
 10
49.348343
 20
-177.745590
  0
VERTEX
  8
0
 10
49.327148
 20
-178.667664
  0
VERTEX
  8
0
 10
49.348343
 20
-179.589737
  0
VERTEX
  8
0
 10
49.411167
 20
-180.509949
  0
VERTEX
  8
0
 10
49.514477
 20
-181.426468
  0
VERTEX
  8
0
 10
49.657120
 20
-182.337448
  0
VERTEX
  8
0
 10
49.837959
 20
-183.241013
  0
VERTEX
  8
0
 10
50.055843
 20
-184.135315
  0
VERTEX
  8
0
 10
50.309631
 20
-185.018524
  0
SEQEND
  0
POLYLINE
  8
0
 66
     1
  0
VERTEX
  8
0
 10
275.344666
 20
-76.369370
  0
VERTEX
  8
0
 10
275.744141
 20
-75.632751
  0
VERTEX
  8
0
 10
276.054535
 20
-74.847069
  0
VERTEX
  8
0
 10
276.255615
 20
-74.028679
  0
VERTEX
  8
0
 10
276.327148
 20
-73.193939
  0
VERTEX
  8
0
 10
276.255615
 20
-72.359200
  0
VERTEX
  8
0
 10
276.054535
 20
-71.540802
  0
VERTEX
  8
0
 10
275.744141
 20
-70.755119
  0
VERTEX
  8
0
 10
275.344666
 20
-70.018501
  0
SEQEND
  0
POLYLINE
  8
0
 66
     1
  0
VERTEX
  8
0
 10
275.344666
 20
-70.018501
  0
VERTEX
  8
0
 10
275.598450
 20
-69.135300
  0
VERTEX
  8
0
 10
275.816345
 20
-68.240990
  0
VERTEX
  8
0
 10
275.997162
 20
-67.337425
  0
VERTEX
  8
0
 10
276.139832
 20
-66.426460
  0
VERTEX
  8
0
 10
276.243134
 20
-65.509941
  0
VERTEX
  8
0
 10
276.305939
 20
-64.589729
  0
VERTEX
  8
0
 10
276.327148
 20
-63.667656
  0
VERTEX
  8
0
 10
276.305939
 20
-62.745586
  0
VERTEX
  8
0
 10
276.243134
 20
-61.825363
  0
VERTEX
  8
0
 10
276.139832
 20
-60.908844
  0
VERTEX
  8
0
 10
275.997162
 20
-59.997879
  0
VERTEX
  8
0
 10
275.816345
 20
-59.094315
  0
VERTEX
  8
0
 10
275.598450
 20
-58.200001
  0
VERTEX
  8
0
 10
275.344666
 20
-57.316795
  0
SEQEND
  0
POLYLINE
  8
0
 66
     1
  0
VERTEX
  8
0
 10
275.344666
 20
-57.316795
  0
VERTEX
  8
0
 10
275.744141
 20
-56.580181
  0
VERTEX
  8
0
 10
276.054535
 20
-55.794502
  0
VERTEX
  8
0
 10
276.255615
 20
-54.976120
  0
VERTEX
  8
0
 10
276.327148
 20
-54.141380
  0
VERTEX
  8
0
 10
276.255615
 20
-53.306641
  0
VERTEX
  8
0
 10
276.054535
 20
-52.488251
  0
VERTEX
  8
0
 10
275.744141
 20
-51.702568
  0
VERTEX
  8
0
 10
275.344666
 20
-50.965950
  0
SEQEND
  0
TEXT
  8
0
 10
-369.785309
 20
256.649994
 40
9.000000
  1
SD CYLINDER
 50
0.000000
 41
1.052632
 51
0.000000
  7
STANDARD
  0
TEXT
  8
0
 10
242.014816
 20
-274.500000
 40
12.500000
  1
KOGANEI CORP.
 50
0.000000
 41
1.052632
 51
0.000000
  7
STANDARD
  0
TEXT
  8
0
 10
251.264664
 20
256.649994
 40
9.000000
  1
DATE: AUG ,1993
 50
0.000000
 41
1.052632
 51
0.000000
  7
STANDARD
  0
TEXT
  8
0
 10
-384.785309
 20
224.149994
 40
9.000000
  1
MODEL:KA0SDZ125*100
 50
0.000000
 41
1.052632
 51
0.000000
  7
STANDARD
  0
ENDSEC
  0
EOF
