  0
SECTION
  2
HEADER
  0
ENDSEC
  0
SECTION
  2
TABLES
  0
TABLE
  2
LTYPE
 70
     4
  0
LTYPE
  2
CONTINUOUS
 70
    64
  3
Solid line
 72
    65
 73
     0
 40
0.000000
  0
LTYPE
  2
DASHED
 70
    64
  3
__ __ __ __ __ __ __ __ __ __ __ __ __ __ __
 72
    65
 73
     2
 40
3.500000
 49
2.000000
 49
-1.500000
  0
LTYPE
  2
CENTER
 70
    64
  3
____ _ ____ _ ____ _ ____ _ ____ _ ____ _ ____
 72
    65
 73
     4
 40
17.500000
 49
13.000000
 49
-1.500000
 49
1.500000
 49
-1.500000
  0
LTYPE
  2
PHANTOM
 70
    64
  3
_____ _ _ _____ _ _ _____ _ _ _____ _ _ ____  
 72
    65
 73
     6
 40
15.500000
 49
8.000000
 49
-1.500000
 49
1.500000
 49
-1.500000
 49
1.500000
 49
-1.500000
  0
LTYPE
  2
DASHED1
 70
    64
  3
__ __ __ __ __ __ __ __ __ __ __ __ __ __ __
 72
    65
 73
     2
 40
1.500000
 49
1.000000
 49
-0.500000
  0
LTYPE
  2
DASHED2
 70
    64
  3
__ __ __ __ __ __ __ __ __ __ __ __ __ __ __
 72
    65
 73
     2
 40
3.500000
 49
2.500000
 49
-1.000000
  0
LTYPE
  2
DASHED3
 70
    64
  3
__ __ __ __ __ __ __ __ __ __ __ __ __ __ __
 72
    65
 73
     2
 40
6.000000
 49
4.000000
 49
-2.000000
  0
LTYPE
  2
DASHED4
 70
    64
  3
__ __ __ __ __ __ __ __ __ __ __ __ __ __ __
 72
    65
 73
     2
 40
12.000000
 49
10.000000
 49
-2.000000
  0
LTYPE
  2
DASHED5
 70
    64
  3
__ __ __ __ __ __ __ __ __ __ __ __ __ __ __
 72
    65
 73
     2
 40
17.000000
 49
15.000000
 49
-2.000000
  0
LTYPE
  2
DASHED6
 70
    64
  3
__ __ __ __ __ __ __ __ __ __ __ __ __ __ __
 72
    65
 73
     2
 40
29.000000
 49
27.000000
 49
-2.000000
  0
LTYPE
  2
PHANTOM1
 70
    64
  3
_____ _ _ _____ _ _ _____ _ _ _____ _ _ ____  
 72
    65
 73
     6
 40
31.000000
 49
25.000000
 49
-1.500000
 49
1.000000
 49
-1.000000
 49
1.000000
 49
-1.500000
  0
LTYPE
  2
PHANTOM2
 70
    64
  3
_____ _ _ _____ _ _ _____ _ _ _____ _ _ ____  
 72
    65
 73
     6
 40
36.000000
 49
27.000000
 49
-1.500000
 49
2.500000
 49
-1.000000
 49
2.500000
 49
-1.500000
  0
LTYPE
  2
PHANTOM3
 70
    64
  3
_____ _ _ _____ _ _ _____ _ _ _____ _ _ ____  
 72
    65
 73
     6
 40
78.000000
 49
64.000000
 49
-2.000000
 49
4.000000
 49
-2.000000
 49
4.000000
 49
-2.000000
  0
LTYPE
  2
CENTER1
 70
    64
  3
____ _ ____ _ ____ _ ____ _ ____ _ ____ _ ____
 72
    65
 73
     4
 40
19.000000
 49
14.000000
 49
-1.000000
 49
3.000000
 49
-1.000000
  0
LTYPE
  2
CENTER2
 70
    64
  3
____ _ ____ _ ____ _ ____ _ ____ _ ____ _ ____
 72
    65
 73
     4
 40
28.500000
 49
25.000000
 49
-1.000000
 49
1.500000
 49
-1.000000
  0
LTYPE
  2
CENTER3
 70
    64
  3
____ _ ____ _ ____ _ ____ _ ____ _ ____ _ ____
 72
    65
 73
     4
 40
31.500000
 49
27.000000
 49
-1.000000
 49
2.500000
 49
-1.000000
  0
LTYPE
  2
CENTER4
 70
    64
  3
____ _ ____ _ ____ _ ____ _ ____ _ ____ _ ____
 72
    65
 73
     4
 40
50.000000
 49
45.000000
 49
-1.000000
 49
3.000000
 49
-1.000000
  0
LTYPE
  2
CENTER5
 70
    64
  3
____ _ ____ _ ____ _ ____ _ ____ _ ____ _ ____
 72
    65
 73
     4
 40
100.000000
 49
92.000000
 49
-2.000000
 49
4.000000
 49
-2.000000
  0
LTYPE
  2
SBK1
 70
    64
  3
______ _ _ _ ______ _ _ _ ______ _ _ _ _____  
 72
    65
 73
     8
 40
60.500000
 49
45.000000
 49
-2.000000
 49
2.500000
 49
-2.000000
 49
2.500000
 49
-2.000000
 49
2.500000
 49
-2.000000
  0
LTYPE
  2
SBK2
 70
    64
  3
______ _ _ _ ______ _ _ _ ______ _ _ _ _____  
 72
    65
 73
     8
 40
84.000000
 49
64.000000
 49
-2.000000
 49
4.000000
 49
-2.000000
 49
4.000000
 49
-2.000000
 49
4.000000
 49
-2.000000
  0
LTYPE
  2
STCH
 70
    64
  3
__ __ __ __ __ __ __ __ __ __ __ __ __ __ __
 72
    65
 73
     2
 40
3.000000
 49
1.000000
 49
-2.000000
  0
LTYPE
  2
MTCH
 70
    64
  3
_____ _ _ _____ _ _ _____ _ _ _____ _ _ ____  
 72
    65
 73
     6
 40
80.000000
 49
66.000000
 49
-2.000000
 49
4.000000
 49
-2.000000
 49
4.000000
 49
-2.000000
  0
ENDTAB
  0
TABLE
  2
LAYER
 70
     1
  0
LAYER
  2
0
 70
     0
 62
     7
  6
CONTINUOUS
  0
ENDTAB
  0
TABLE
  2
STYLE
 70
     1
  0
STYLE
  2
STANDARD
 70
     0
 40
0.000000
 41
1.000000
 50
0.000000
 71
     0
 42
0.200000
  3
txt
  4
BIGFONT
  0
ENDTAB
  0
TABLE
  2
VIEW
 70
     0
  0
ENDTAB
  0
ENDSEC
  0
SECTION
  2
BLOCKS
  0
ENDSEC
  0
SECTION
  2
ENTITIES
  0
LINE
  8
0
 10
399.799988
 20
276.250000
 11
399.799988
 21
-276.750000
  0
LINE
  8
0
 10
-399.250000
 20
276.250000
 11
-399.250000
 21
-276.750000
  0
LINE
  8
0
 10
-399.250000
 20
276.250000
 11
399.799988
 21
276.250000
  0
LINE
  8
0
 10
-399.250000
 20
-276.750000
 11
399.799988
 21
-276.750000
  0
LINE
  8
0
 10
239.799988
 20
-251.750000
 11
399.799988
 21
-251.750000
  0
LINE
  8
0
 10
239.799988
 20
251.250000
 11
399.799988
 21
251.250000
  0
LINE
  8
0
 10
-399.250000
 20
251.250000
 11
-239.250000
 21
251.250000
  0
LINE
  8
0
 10
239.799988
 20
-251.750000
 11
239.799988
 21
-276.750000
  0
LINE
  8
0
 10
239.799988
 20
251.250000
 11
239.799988
 21
276.250000
  0
LINE
  8
0
 10
-239.250000
 20
276.250000
 11
-239.250000
 21
251.250000
  0
LINE
  8
0
  6
CENTER
 62
     2
 10
-54.875824
 20
-130.000000
 11
307.999908
 21
-130.000000
  0
LINE
  8
0
 10
85.000000
 20
-39.000000
 11
85.000000
 21
-221.000000
  0
LINE
  8
0
  6
CENTER
 62
     2
 10
52.839630
 20
-58.000000
 11
326.284790
 21
-58.000000
  0
LINE
  8
0
  6
CENTER
 62
     2
 10
52.500000
 20
-202.000000
 11
322.799896
 21
-202.000000
  0
LINE
  8
0
  6
CENTER
 62
     2
 10
103.500000
 20
-33.750000
 11
103.500000
 21
-141.300003
  0
LINE
  8
0
 10
267.404816
 20
-129.250000
 11
277.595001
 21
-129.250000
  0
LINE
  8
0
 10
267.404816
 20
-130.750000
 11
277.595001
 21
-130.750000
  0
LINE
  8
0
  6
CENTER
 62
     2
 10
272.499908
 20
-34.368591
 11
272.499908
 21
-143.000000
  0
LINE
  8
0
 10
290.999908
 20
-39.000000
 11
290.999908
 21
-221.000000
  0
LINE
  8
0
 10
98.404907
 20
-129.250000
 11
108.595093
 21
-129.250000
  0
LINE
  8
0
 10
98.404907
 20
-130.750000
 11
108.595093
 21
-130.750000
  0
LINE
  8
0
 10
124.000000
 20
-39.000000
 11
124.000000
 21
-221.000000
  0
LINE
  8
0
 10
251.999908
 20
-39.000000
 11
251.999908
 21
-221.000000
  0
LINE
  8
0
 10
85.000000
 20
-221.000000
 11
124.000000
 21
-221.000000
  0
LINE
  8
0
 10
85.000000
 20
-39.000000
 11
124.000000
 21
-39.000000
  0
LINE
  8
0
 10
251.999908
 20
-39.000000
 11
290.999908
 21
-39.000000
  0
LINE
  8
0
 10
251.999908
 20
-221.000000
 11
290.999908
 21
-221.000000
  0
LINE
  8
0
  6
DASHED
 62
     2
 10
116.720711
 20
-39.000023
 11
116.228218
 21
-53.100037
  0
LINE
  8
0
  6
DASHED
 62
     2
 10
90.772163
 20
-53.100021
 11
90.279503
 21
-38.999996
  0
LINE
  8
0
  6
DASHED
 62
     2
 10
92.000000
 20
-40.500000
 11
115.000000
 21
-40.500000
  0
LINE
  8
0
  6
DASHED
 62
     2
 10
92.000000
 20
-40.500000
 11
92.000000
 21
-53.100006
  0
LINE
  8
0
  6
DASHED
 62
     2
 10
115.000000
 20
-40.500000
 11
115.000000
 21
-53.100006
  0
LINE
  8
0
  6
DASHED
 62
     2
 10
116.720505
 20
-39.000034
 11
115.000015
 21
-40.500034
  0
LINE
  8
0
  6
DASHED
 62
     2
 10
90.279633
 20
-38.999886
 11
92.000122
 21
-40.499886
  0
LINE
  8
0
  6
DASHED
 62
     2
 10
260.999908
 20
-40.500000
 11
260.999908
 21
-53.100006
  0
LINE
  8
0
  6
DASHED
 62
     2
 10
259.279633
 20
-38.999741
 11
261.000122
 21
-40.499741
  0
LINE
  8
0
  6
DASHED
 62
     2
 10
283.999847
 20
-53.350021
 11
284.000031
 21
-43.499985
  0
LINE
  8
0
  6
DASHED
 62
     2
 10
285.720520
 20
-39.000179
 11
284.000031
 21
-40.500183
  0
LINE
  8
0
  6
DASHED
 62
     2
 10
283.999908
 20
-40.500000
 11
283.999908
 21
-53.100006
  0
LINE
  8
0
  6
DASHED
 62
     2
 10
285.721039
 20
-39.000046
 11
285.228546
 21
-53.100060
  0
LINE
  8
0
  6
DASHED
 62
     2
 10
259.772034
 20
-53.100002
 11
259.279388
 21
-38.999996
  0
LINE
  8
0
  6
DASHED
 62
     2
 10
260.999908
 20
-40.500000
 11
283.999908
 21
-40.500000
  0
LINE
  8
0
 10
124.000000
 20
-215.000000
 11
251.999908
 21
-215.000000
  0
LINE
  8
0
 10
124.000000
 20
-45.000000
 11
251.999908
 21
-45.000000
  0
LINE
  8
0
 10
124.000000
 20
-66.000000
 11
251.999908
 21
-66.000000
  0
LINE
  8
0
 10
124.000000
 20
-50.000000
 11
251.999908
 21
-50.000000
  0
LINE
  8
0
 10
81.000000
 20
-215.499863
 11
85.000000
 21
-215.499863
  0
LINE
  8
0
 10
81.000000
 20
-188.499863
 11
85.000000
 21
-188.499863
  0
LINE
  8
0
 10
80.999908
 20
-188.149994
 11
80.999908
 21
-215.850006
  0
LINE
  8
0
 10
67.999908
 20
-190.500000
 11
67.999908
 21
-213.500000
  0
LINE
  8
0
 10
69.356781
 20
-215.849854
 11
81.000000
 21
-215.849854
  0
LINE
  8
0
 10
69.356781
 20
-188.149857
 11
81.000000
 21
-188.149857
  0
LINE
  8
0
 10
69.356781
 20
-195.074860
 11
81.000000
 21
-195.074860
  0
LINE
  8
0
 10
69.356781
 20
-208.924866
 11
81.000000
 21
-208.924866
  0
LINE
  8
0
 10
68.000046
 20
-190.500031
 11
69.356827
 21
-188.150009
  0
LINE
  8
0
 10
67.999969
 20
-213.499985
 11
69.356743
 21
-215.849991
  0
LINE
  8
0
 10
55.500000
 20
-209.999863
 11
68.000000
 21
-209.999863
  0
LINE
  8
0
 10
55.500000
 20
-193.999863
 11
68.000000
 21
-193.999863
  0
LINE
  8
0
 10
54.499908
 20
-195.000000
 11
54.499908
 21
-209.000000
  0
LINE
  8
0
 10
55.500038
 20
-193.999969
 11
54.500034
 21
-194.999985
  0
LINE
  8
0
 10
54.500057
 20
-208.999939
 11
55.500053
 21
-209.999939
  0
LINE
  8
0
 10
55.499878
 20
-194.000000
 11
55.499878
 21
-210.000000
  0
LINE
  8
0
 10
81.000000
 20
-71.500000
 11
85.000000
 21
-71.500000
  0
LINE
  8
0
 10
81.000000
 20
-44.500000
 11
85.000000
 21
-44.500000
  0
LINE
  8
0
 10
81.000000
 20
-44.149994
 11
81.000000
 21
-71.850006
  0
LINE
  8
0
 10
68.000000
 20
-46.500000
 11
68.000000
 21
-69.500000
  0
LINE
  8
0
 10
69.356773
 20
-71.850006
 11
81.000000
 21
-71.850006
  0
LINE
  8
0
 10
69.356773
 20
-44.149994
 11
81.000000
 21
-44.149994
  0
LINE
  8
0
 10
69.356773
 20
-51.074997
 11
81.000000
 21
-51.074997
  0
LINE
  8
0
 10
69.356773
 20
-64.925003
 11
81.000000
 21
-64.925003
  0
LINE
  8
0
 10
68.000000
 20
-46.499977
 11
69.356773
 21
-44.149979
  0
LINE
  8
0
 10
68.000046
 20
-69.499992
 11
69.356819
 21
-71.849991
  0
LINE
  8
0
 10
55.499996
 20
-66.000000
 11
68.000000
 21
-66.000000
  0
LINE
  8
0
 10
55.500000
 20
-50.000000
 11
68.000000
 21
-50.000000
  0
LINE
  8
0
 10
54.500000
 20
-51.000000
 11
54.500000
 21
-65.000000
  0
LINE
  8
0
 10
55.499992
 20
-50.000000
 11
54.499989
 21
-51.000004
  0
LINE
  8
0
 10
54.499981
 20
-65.000023
 11
55.499981
 21
-66.000031
  0
LINE
  8
0
 10
55.499962
 20
-50.000000
 11
55.499962
 21
-66.000000
  0
LINE
  8
0
 10
294.999908
 20
-44.500137
 11
290.999908
 21
-44.500137
  0
LINE
  8
0
 10
294.999908
 20
-71.500137
 11
290.999908
 21
-71.500137
  0
LINE
  8
0
 10
295.000000
 20
-71.850006
 11
295.000000
 21
-44.149994
  0
LINE
  8
0
 10
308.000000
 20
-69.500000
 11
308.000000
 21
-46.500000
  0
LINE
  8
0
 10
306.643127
 20
-44.150146
 11
294.999908
 21
-44.150146
  0
LINE
  8
0
 10
306.643127
 20
-71.850143
 11
294.999908
 21
-71.850143
  0
LINE
  8
0
 10
306.643127
 20
-64.925140
 11
294.999908
 21
-64.925140
  0
LINE
  8
0
 10
306.643127
 20
-51.075134
 11
294.999908
 21
-51.075134
  0
LINE
  8
0
 10
308.000153
 20
-69.500221
 11
306.643372
 21
-71.850235
  0
LINE
  8
0
 10
307.999939
 20
-46.499882
 11
306.643188
 21
-44.149879
  0
LINE
  8
0
 10
320.499908
 20
-50.000137
 11
307.999908
 21
-50.000137
  0
LINE
  8
0
 10
320.499908
 20
-66.000137
 11
307.999908
 21
-66.000137
  0
LINE
  8
0
 10
321.500000
 20
-65.000000
 11
321.500000
 21
-51.000000
  0
LINE
  8
0
 10
320.499786
 20
-65.999931
 11
321.499786
 21
-64.999931
  0
LINE
  8
0
 10
321.499695
 20
-51.000172
 11
320.499725
 21
-50.000168
  0
LINE
  8
0
 10
320.500031
 20
-66.000000
 11
320.500031
 21
-50.000000
  0
LINE
  8
0
 10
294.999908
 20
-188.500137
 11
290.999908
 21
-188.500137
  0
LINE
  8
0
 10
294.999908
 20
-215.500137
 11
290.999908
 21
-215.500137
  0
LINE
  8
0
 10
295.000000
 20
-215.850006
 11
295.000000
 21
-188.149994
  0
LINE
  8
0
 10
308.000000
 20
-213.500000
 11
308.000000
 21
-190.500000
  0
LINE
  8
0
 10
306.643127
 20
-188.150146
 11
294.999908
 21
-188.150146
  0
LINE
  8
0
 10
306.643127
 20
-215.850143
 11
294.999908
 21
-215.850143
  0
LINE
  8
0
 10
306.643127
 20
-208.925140
 11
294.999908
 21
-208.925140
  0
LINE
  8
0
 10
306.643127
 20
-195.075134
 11
294.999908
 21
-195.075134
  0
LINE
  8
0
 10
308.000153
 20
-213.500259
 11
306.643372
 21
-215.850281
  0
LINE
  8
0
 10
308.000000
 20
-190.499878
 11
306.643250
 21
-188.149918
  0
LINE
  8
0
 10
320.499908
 20
-194.000137
 11
307.999908
 21
-194.000137
  0
LINE
  8
0
 10
320.499908
 20
-210.000137
 11
307.999908
 21
-210.000137
  0
LINE
  8
0
 10
321.500000
 20
-209.000000
 11
321.500000
 21
-195.000000
  0
LINE
  8
0
 10
320.499725
 20
-209.999863
 11
321.499725
 21
-208.999863
  0
LINE
  8
0
 10
321.499847
 20
-195.000015
 11
320.499847
 21
-194.000046
  0
LINE
  8
0
 10
320.500031
 20
-210.000000
 11
320.500031
 21
-194.000000
  0
LINE
  8
0
 10
124.000000
 20
-210.000000
 11
251.999908
 21
-210.000000
  0
LINE
  8
0
 10
124.000000
 20
-194.000000
 11
251.999908
 21
-194.000000
  0
LINE
  8
0
 62
     2
 10
54.499908
 20
-195.399872
 11
68.000000
 21
-195.399872
  0
LINE
  8
0
 62
     2
 10
54.499908
 20
-208.599869
 11
68.000000
 21
-208.599869
  0
LINE
  8
0
 62
     2
 10
54.500000
 20
-51.399994
 11
68.000000
 21
-51.399994
  0
LINE
  8
0
 62
     2
 10
54.500000
 20
-64.599998
 11
68.000000
 21
-64.599998
  0
LINE
  8
0
 62
     2
 10
321.500000
 20
-51.400131
 11
307.999908
 21
-51.400131
  0
LINE
  8
0
 62
     2
 10
321.500000
 20
-64.600136
 11
307.999908
 21
-64.600136
  0
LINE
  8
0
 62
     2
 10
321.500000
 20
-195.400131
 11
307.999908
 21
-195.400131
  0
LINE
  8
0
 62
     2
 10
321.500000
 20
-208.600143
 11
307.999908
 21
-208.600143
  0
LINE
  8
0
 10
75.000000
 20
-73.500000
 11
75.000000
 21
-186.500000
  0
LINE
  8
0
 10
76.000000
 20
-72.500000
 11
76.000000
 21
-187.500000
  0
LINE
  8
0
 10
76.000000
 20
-187.500000
 11
85.000000
 21
-187.500000
  0
LINE
  8
0
 10
76.000000
 20
-72.500000
 11
85.000000
 21
-72.500000
  0
LINE
  8
0
 10
74.999985
 20
-73.499977
 11
75.999985
 21
-72.499977
  0
LINE
  8
0
 10
75.000008
 20
-186.500000
 11
76.000008
 21
-187.500000
  0
LINE
  8
0
 10
45.000000
 20
-97.000000
 11
45.000000
 21
-163.000000
  0
LINE
  8
0
 10
72.000000
 20
-83.000000
 11
72.000000
 21
-88.766029
  0
LINE
  8
0
 10
72.000000
 20
-83.000000
 11
75.000000
 21
-83.000000
  0
LINE
  8
0
 10
72.000000
 20
-177.000000
 11
75.000000
 21
-177.000000
  0
LINE
  8
0
 10
64.999985
 20
-95.259247
 11
46.038448
 21
-95.961525
  0
LINE
  8
0
 10
46.038467
 20
-164.038330
 11
65.000008
 21
-164.740616
  0
LINE
  8
0
 10
66.000000
 20
-155.233978
 11
75.000000
 21
-155.233978
  0
LINE
  8
0
 10
66.000000
 20
-171.233978
 11
75.000000
 21
-171.233978
  0
LINE
  8
0
 10
65.000000
 20
-156.233978
 11
65.000000
 21
-170.233978
  0
LINE
  8
0
 10
64.999962
 20
-156.233917
 11
65.999954
 21
-155.233917
  0
LINE
  8
0
 10
66.000008
 20
-171.234009
 11
65.000008
 21
-170.234009
  0
LINE
  8
0
 10
66.000008
 20
-155.233978
 11
66.000008
 21
-171.233978
  0
LINE
  8
0
 10
66.000000
 20
-104.766029
 11
75.000000
 21
-104.766029
  0
LINE
  8
0
 10
65.000000
 20
-89.766029
 11
65.000000
 21
-103.766029
  0
LINE
  8
0
 10
65.999992
 20
-104.766045
 11
64.999992
 21
-103.766045
  0
LINE
  8
0
 10
66.000008
 20
-88.766022
 11
66.000008
 21
-104.766022
  0
LINE
  8
0
 10
64.999992
 20
-89.765999
 11
65.999985
 21
-88.766006
  0
LINE
  8
0
 10
66.000000
 20
-88.766029
 11
75.000000
 21
-88.766029
  0
LINE
  8
0
 10
72.000000
 20
-171.233978
 11
72.000000
 21
-177.000000
  0
LINE
  8
0
 10
72.000000
 20
-104.766029
 11
72.000000
 21
-155.233978
  0
LINE
  8
0
 10
20.330124
 20
-120.726379
 11
33.000000
 21
-120.726379
  0
LINE
  8
0
 10
20.330124
 20
-139.273621
 11
33.000000
 21
-139.273621
  0
LINE
  8
0
 10
-50.000000
 20
-110.750000
 11
-50.000000
 21
-149.250000
  0
LINE
  8
0
 10
-49.250000
 20
-150.000000
 11
16.000000
 21
-150.000000
  0
LINE
  8
0
 10
-49.250000
 20
-110.000000
 11
16.000000
 21
-110.000000
  0
LINE
  8
0
 10
20.330124
 20
-152.500000
 11
45.000000
 21
-152.500000
  0
LINE
  8
0
 10
20.330124
 20
-107.500000
 11
45.000000
 21
-107.500000
  0
LINE
  8
0
 10
13.000000
 20
-110.000000
 11
13.000000
 21
-150.000000
  0
LINE
  8
0
 10
16.000000
 20
-110.000000
 11
16.000000
 21
-150.000000
  0
LINE
  8
0
 10
16.000004
 20
-110.000031
 11
20.330132
 21
-107.500031
  0
LINE
  8
0
 10
15.999993
 20
-150.000092
 11
20.330120
 21
-152.500092
  0
LINE
  8
0
 10
20.330124
 20
-152.500000
 11
20.330124
 21
-139.273621
  0
LINE
  8
0
 10
33.000000
 20
-120.726379
 11
33.000000
 21
-139.273621
  0
LINE
  8
0
 10
20.330124
 20
-120.726379
 11
20.330124
 21
-107.500000
  0
LINE
  8
0
 62
     2
 10
32.999996
 20
-120.726372
 11
20.330126
 21
-139.273605
  0
LINE
  8
0
 62
     2
 10
20.330118
 20
-120.726379
 11
32.999989
 21
-139.273621
  0
LINE
  8
0
 10
44.999989
 20
-97.000023
 11
46.038452
 21
-95.961555
  0
LINE
  8
0
 10
45.000061
 20
-162.999924
 11
46.038517
 21
-164.038376
  0
LINE
  8
0
 10
46.038460
 20
-95.961548
 11
46.038460
 21
-164.038467
  0
LINE
  8
0
 62
     2
 10
-50.000000
 20
-149.250000
 11
13.000000
 21
-149.250000
  0
LINE
  8
0
 62
     2
 10
-50.000000
 20
-110.750000
 11
13.000000
 21
-110.750000
  0
LINE
  8
0
 10
-49.999992
 20
-110.750000
 11
-49.249996
 21
-110.000000
  0
LINE
  8
0
 10
-49.250000
 20
-110.000000
 11
-49.250000
 21
-150.000000
  0
LINE
  8
0
 62
     2
 10
13.000005
 20
-110.750023
 11
14.299035
 21
-110.000023
  0
LINE
  8
0
 62
     2
 10
12.999982
 20
-149.250015
 11
14.299028
 21
-150.000015
  0
LINE
  8
0
 10
-50.000023
 20
-149.250031
 11
-49.250031
 21
-150.000031
  0
LINE
  8
0
  6
CENTER
 62
     2
 10
-332.826416
 20
-130.000000
 11
-133.090500
 21
-130.000000
  0
LINE
  8
0
  6
CENTER
 62
     2
 10
-235.000000
 20
-33.827896
 11
-235.000000
 21
-227.810089
  0
LINE
  8
0
 10
-326.000000
 20
-39.000000
 11
-144.000000
 21
-39.000000
  0
LINE
  8
0
 10
-326.000000
 20
-221.000000
 11
-144.000000
 21
-221.000000
  0
LINE
  8
0
 10
-144.000000
 20
-39.000000
 11
-144.000000
 21
-221.000000
  0
LINE
  8
0
 10
-326.000000
 20
-39.000000
 11
-326.000000
 21
-221.000000
  0
LINE
  8
0
  6
CENTER
 62
     2
 10
-307.000000
 20
-187.213333
 11
-307.000000
 21
-217.026672
  0
LINE
  8
0
  6
CENTER
 62
     2
 10
-321.455475
 20
-202.000000
 11
-293.569427
 21
-202.000000
  0
LINE
  8
0
 10
-319.000000
 20
-195.071793
 11
-319.000000
 21
-208.928192
  0
LINE
  8
0
 10
-295.000000
 20
-195.071793
 11
-295.000000
 21
-208.928192
  0
LINE
  8
0
 10
-295.000061
 20
-208.928192
 11
-307.000031
 21
-215.856384
  0
LINE
  8
0
 10
-307.000031
 20
-188.143539
 11
-319.000031
 21
-195.071747
  0
LINE
  8
0
 10
-318.999908
 20
-208.928162
 11
-306.999908
 21
-215.856354
  0
LINE
  8
0
 10
-306.999969
 20
-188.143509
 11
-294.999969
 21
-195.071716
  0
LINE
  8
0
 10
-318.999969
 20
-64.928139
 11
-306.999969
 21
-71.856323
  0
LINE
  8
0
 10
-306.999969
 20
-44.143578
 11
-294.999908
 21
-51.071800
  0
LINE
  8
0
  6
CENTER
 62
     2
 10
-307.000000
 20
-43.213333
 11
-307.000000
 21
-73.026665
  0
LINE
  8
0
  6
CENTER
 62
     2
 10
-321.455475
 20
-58.000000
 11
-293.569427
 21
-58.000000
  0
LINE
  8
0
 10
-319.000000
 20
-51.071793
 11
-319.000000
 21
-64.928192
  0
LINE
  8
0
 10
-295.000000
 20
-51.071793
 11
-295.000000
 21
-64.928192
  0
LINE
  8
0
 10
-295.000092
 20
-64.928139
 11
-307.000092
 21
-71.856354
  0
LINE
  8
0
 10
-307.000061
 20
-44.143490
 11
-319.000061
 21
-51.071705
  0
LINE
  8
0
 10
-174.999969
 20
-64.928185
 11
-163.000000
 21
-71.856369
  0
LINE
  8
0
 10
-162.999985
 20
-44.143585
 11
-150.999985
 21
-51.071781
  0
LINE
  8
0
  6
CENTER
 62
     2
 10
-163.000000
 20
-43.213333
 11
-163.000000
 21
-73.026665
  0
LINE
  8
0
  6
CENTER
 62
     2
 10
-177.455475
 20
-58.000000
 11
-149.569427
 21
-58.000000
  0
LINE
  8
0
 10
-175.000000
 20
-51.071793
 11
-175.000000
 21
-64.928192
  0
LINE
  8
0
 10
-151.000000
 20
-51.071793
 11
-151.000000
 21
-64.928192
  0
LINE
  8
0
 10
-151.000061
 20
-64.928131
 11
-163.000046
 21
-71.856331
  0
LINE
  8
0
 10
-163.000061
 20
-44.143528
 11
-175.000061
 21
-51.071743
  0
LINE
  8
0
 10
-174.999954
 20
-208.928146
 11
-162.999969
 21
-215.856323
  0
LINE
  8
0
 10
-162.999969
 20
-188.143524
 11
-150.999954
 21
-195.071732
  0
LINE
  8
0
  6
CENTER
 62
     2
 10
-163.000000
 20
-187.213333
 11
-163.000000
 21
-217.026672
  0
LINE
  8
0
  6
CENTER
 62
     2
 10
-177.455475
 20
-202.000000
 11
-149.569427
 21
-202.000000
  0
LINE
  8
0
 10
-175.000000
 20
-195.071793
 11
-175.000000
 21
-208.928192
  0
LINE
  8
0
 10
-151.000000
 20
-195.071793
 11
-151.000000
 21
-208.928192
  0
LINE
  8
0
 10
-151.000000
 20
-208.928192
 11
-163.000000
 21
-215.856400
  0
LINE
  8
0
 10
-163.000015
 20
-188.143555
 11
-175.000015
 21
-195.071762
  0
LINE
  8
0
 10
-214.500000
 20
-120.726379
 11
-214.500000
 21
-139.273621
  0
LINE
  8
0
 10
-255.500000
 20
-120.726379
 11
-255.500000
 21
-139.273621
  0
LINE
  8
0
 10
-200.570496
 20
-158.772568
 11
-197.304535
 21
-162.038528
  0
LINE
  8
0
 10
-206.227432
 20
-164.429443
 11
-202.961426
 21
-167.695465
  0
LINE
  8
0
 10
-197.304993
 20
-162.038513
 11
-198.500427
 21
-166.499954
  0
LINE
  8
0
 10
-205.032333
 20
-159.967957
 11
-206.227768
 21
-164.429367
  0
LINE
  8
0
 10
-202.961441
 20
-167.695587
 11
-198.499985
 21
-166.500137
  0
LINE
  8
0
 10
-205.031921
 20
-159.968170
 11
-200.570526
 21
-158.772736
  0
LINE
  8
0
 10
-206.227249
 20
-95.570717
 11
-202.961288
 21
-92.304749
  0
LINE
  8
0
 10
-200.570389
 20
-101.227501
 11
-197.304398
 21
-97.961517
  0
LINE
  8
0
 10
-202.961380
 20
-92.304604
 11
-198.499924
 21
-93.500053
  0
LINE
  8
0
 10
-205.031906
 20
-100.032021
 11
-200.570511
 21
-101.227448
  0
LINE
  8
0
 10
-197.304504
 20
-97.961487
 11
-198.499939
 21
-93.500069
  0
LINE
  8
0
 10
-205.031937
 20
-100.032036
 11
-206.227371
 21
-95.570610
  0
LINE
  8
0
 10
-269.429352
 20
-101.227249
 11
-272.695312
 21
-97.961281
  0
LINE
  8
0
 10
-263.772461
 20
-95.570457
 11
-267.038452
 21
-92.304443
  0
LINE
  8
0
 10
-272.695648
 20
-97.961357
 11
-271.500214
 21
-93.499939
  0
LINE
  8
0
 10
-264.968079
 20
-100.031929
 11
-263.772644
 21
-95.570503
  0
LINE
  8
0
 10
-267.038513
 20
-92.304611
 11
-271.499908
 21
-93.500038
  0
LINE
  8
0
 10
-264.968079
 20
-100.032005
 11
-269.429474
 21
-101.227432
  0
LINE
  8
0
 10
-263.772583
 20
-164.429535
 11
-267.038544
 21
-167.695496
  0
LINE
  8
0
 10
-269.429352
 20
-158.772598
 11
-272.695374
 21
-162.038605
  0
LINE
  8
0
 10
-267.038605
 20
-167.695496
 11
-271.500061
 21
-166.500046
  0
LINE
  8
0
 10
-264.967987
 20
-159.968094
 11
-269.429443
 21
-158.772644
  0
LINE
  8
0
 10
-272.695160
 20
-162.038437
 11
-271.499725
 21
-166.499878
  0
LINE
  8
0
 10
-264.967743
 20
-159.967896
 11
-263.772308
 21
-164.429306
  0
LINE
  8
0
  6
CENTER
 62
     2
 10
-54.875824
 20
120.000000
 11
307.999908
 21
120.000000
  0
LINE
  8
0
 10
85.000000
 20
211.000000
 11
85.000000
 21
29.000000
  0
LINE
  8
0
  6
CENTER
 62
     2
 10
52.839630
 20
192.000000
 11
326.284790
 21
192.000000
  0
LINE
  8
0
  6
CENTER
 62
     2
 10
52.500000
 20
48.000000
 11
322.799896
 21
48.000000
  0
LINE
  8
0
  6
CENTER
 62
     2
 10
103.500000
 20
140.926300
 11
103.500000
 21
99.800438
  0
LINE
  8
0
 10
290.999908
 20
211.000000
 11
290.999908
 21
29.000000
  0
LINE
  8
0
 10
124.000000
 20
211.000000
 11
124.000000
 21
29.000000
  0
LINE
  8
0
 10
251.999908
 20
211.000000
 11
251.999908
 21
29.000000
  0
LINE
  8
0
 10
85.000000
 20
29.000000
 11
124.000000
 21
29.000000
  0
LINE
  8
0
 10
85.000000
 20
211.000000
 11
124.000000
 21
211.000000
  0
LINE
  8
0
 10
251.999908
 20
211.000000
 11
290.999908
 21
211.000000
  0
LINE
  8
0
 10
251.999908
 20
29.000000
 11
290.999908
 21
29.000000
  0
LINE
  8
0
 10
124.000000
 20
35.000000
 11
251.999908
 21
35.000000
  0
LINE
  8
0
 10
124.000000
 20
205.000000
 11
251.999908
 21
205.000000
  0
LINE
  8
0
 10
124.000000
 20
184.000000
 11
251.999908
 21
184.000000
  0
LINE
  8
0
 10
124.000000
 20
200.000000
 11
251.999908
 21
200.000000
  0
LINE
  8
0
 10
81.000000
 20
34.500137
 11
85.000000
 21
34.500137
  0
LINE
  8
0
 10
81.000000
 20
61.500137
 11
85.000000
 21
61.500137
  0
LINE
  8
0
 10
55.500000
 20
40.000137
 11
68.000000
 21
40.000137
  0
LINE
  8
0
 10
55.500000
 20
56.000137
 11
68.000000
 21
56.000137
  0
LINE
  8
0
 10
54.499908
 20
55.000000
 11
54.499908
 21
41.000000
  0
LINE
  8
0
 10
55.500038
 20
56.000015
 11
54.500038
 21
55.000015
  0
LINE
  8
0
 10
54.500061
 20
41.000050
 11
55.500061
 21
40.000046
  0
LINE
  8
0
 10
55.499878
 20
56.000000
 11
55.499878
 21
40.000000
  0
LINE
  8
0
 10
81.000000
 20
178.500000
 11
85.000000
 21
178.500000
  0
LINE
  8
0
 10
81.000000
 20
205.500000
 11
85.000000
 21
205.500000
  0
LINE
  8
0
 10
55.499996
 20
184.000000
 11
68.000000
 21
184.000000
  0
LINE
  8
0
 10
55.500000
 20
200.000000
 11
68.000000
 21
200.000000
  0
LINE
  8
0
 10
54.500000
 20
199.000000
 11
54.500000
 21
185.000000
  0
LINE
  8
0
 10
55.499992
 20
199.999985
 11
54.499992
 21
198.999985
  0
LINE
  8
0
 10
54.499981
 20
184.999954
 11
55.499981
 21
183.999954
  0
LINE
  8
0
 10
55.499962
 20
200.000000
 11
55.499962
 21
184.000000
  0
LINE
  8
0
 10
294.999908
 20
205.499863
 11
290.999908
 21
205.499863
  0
LINE
  8
0
 10
294.999908
 20
178.499863
 11
290.999908
 21
178.499863
  0
LINE
  8
0
 10
320.499908
 20
199.999863
 11
307.999908
 21
199.999863
  0
LINE
  8
0
 10
320.499908
 20
183.999863
 11
307.999908
 21
183.999863
  0
LINE
  8
0
 10
321.500000
 20
185.000000
 11
321.500000
 21
199.000000
  0
LINE
  8
0
 10
320.499786
 20
184.000076
 11
321.499756
 21
185.000061
  0
LINE
  8
0
 10
321.499725
 20
198.999786
 11
320.499725
 21
199.999802
  0
LINE
  8
0
 10
320.500031
 20
184.000000
 11
320.500031
 21
200.000000
  0
LINE
  8
0
 10
294.999908
 20
61.499863
 11
290.999908
 21
61.499863
  0
LINE
  8
0
 10
294.999908
 20
34.499863
 11
290.999908
 21
34.499863
  0
LINE
  8
0
 10
320.499908
 20
55.999863
 11
307.999908
 21
55.999863
  0
LINE
  8
0
 10
320.499908
 20
39.999863
 11
307.999908
 21
39.999863
  0
LINE
  8
0
 10
321.500000
 20
41.000000
 11
321.500000
 21
55.000000
  0
LINE
  8
0
 10
320.499664
 20
40.000172
 11
321.499695
 21
41.000195
  0
LINE
  8
0
 10
321.499786
 20
54.999950
 11
320.499817
 21
55.999935
  0
LINE
  8
0
 10
320.500031
 20
40.000000
 11
320.500031
 21
56.000000
  0
LINE
  8
0
 10
124.000000
 20
40.000000
 11
251.999908
 21
40.000000
  0
LINE
  8
0
 10
124.000000
 20
56.000000
 11
251.999908
 21
56.000000
  0
LINE
  8
0
 62
     2
 10
54.499908
 20
54.600128
 11
68.000000
 21
54.600128
  0
LINE
  8
0
 62
     2
 10
54.499908
 20
41.400131
 11
68.000000
 21
41.400131
  0
LINE
  8
0
 62
     2
 10
54.500000
 20
198.600006
 11
68.000000
 21
198.600006
  0
LINE
  8
0
 62
     2
 10
54.500000
 20
185.399994
 11
68.000000
 21
185.399994
  0
LINE
  8
0
 62
     2
 10
321.500000
 20
198.599869
 11
307.999908
 21
198.599869
  0
LINE
  8
0
 62
     2
 10
321.500000
 20
185.399872
 11
307.999908
 21
185.399872
  0
LINE
  8
0
 62
     2
 10
321.500000
 20
54.599869
 11
307.999908
 21
54.599869
  0
LINE
  8
0
 62
     2
 10
321.500000
 20
41.399857
 11
307.999908
 21
41.399857
  0
LINE
  8
0
 10
75.000000
 20
176.500000
 11
75.000000
 21
63.500000
  0
LINE
  8
0
 10
76.000000
 20
177.500000
 11
76.000000
 21
62.500000
  0
LINE
  8
0
 10
76.000000
 20
62.500000
 11
85.000000
 21
62.500000
  0
LINE
  8
0
 10
76.000000
 20
177.500000
 11
85.000000
 21
177.500000
  0
LINE
  8
0
 10
74.999992
 20
176.499985
 11
75.999992
 21
177.499985
  0
LINE
  8
0
 10
75.000015
 20
63.499985
 11
76.000015
 21
62.499981
  0
LINE
  8
0
 10
45.000000
 20
153.000000
 11
45.000000
 21
87.000000
  0
LINE
  8
0
 10
72.000000
 20
167.000000
 11
72.000000
 21
161.233978
  0
LINE
  8
0
 10
72.000000
 20
167.000000
 11
75.000000
 21
167.000000
  0
LINE
  8
0
 10
72.000000
 20
73.000000
 11
75.000000
 21
73.000000
  0
LINE
  8
0
 10
64.999985
 20
154.740662
 11
46.038456
 21
154.038376
  0
LINE
  8
0
 10
46.038464
 20
85.961624
 11
65.000000
 21
85.259346
  0
LINE
  8
0
 10
66.000000
 20
94.766022
 11
75.000000
 21
94.766022
  0
LINE
  8
0
 10
66.000000
 20
78.766022
 11
75.000000
 21
78.766022
  0
LINE
  8
0
 10
65.000000
 20
93.766022
 11
65.000000
 21
79.766022
  0
LINE
  8
0
 10
64.999969
 20
93.766083
 11
65.999969
 21
94.766083
  0
LINE
  8
0
 10
66.000008
 20
78.765976
 11
65.000008
 21
79.765976
  0
LINE
  8
0
 10
66.000008
 20
94.766022
 11
66.000008
 21
78.766022
  0
LINE
  8
0
 10
66.000000
 20
145.233978
 11
75.000000
 21
145.233978
  0
LINE
  8
0
 10
65.000000
 20
160.233978
 11
65.000000
 21
146.233978
  0
LINE
  8
0
 10
65.999992
 20
145.233948
 11
64.999992
 21
146.233948
  0
LINE
  8
0
 10
66.000008
 20
161.233978
 11
66.000008
 21
145.233978
  0
LINE
  8
0
 10
65.000000
 20
160.233963
 11
66.000000
 21
161.233963
  0
LINE
  8
0
 10
66.000000
 20
161.233978
 11
75.000000
 21
161.233978
  0
LINE
  8
0
 10
72.000000
 20
78.766022
 11
72.000000
 21
73.000000
  0
LINE
  8
0
 10
72.000000
 20
145.233978
 11
72.000000
 21
94.766022
  0
LINE
  8
0
 10
-50.000000
 20
139.250000
 11
-50.000000
 21
100.750000
  0
LINE
  8
0
 10
-49.250000
 20
100.000000
 11
16.000000
 21
100.000000
  0
LINE
  8
0
 10
-49.250000
 20
140.000000
 11
16.000000
 21
140.000000
  0
LINE
  8
0
 10
34.154694
 20
97.500000
 11
45.000000
 21
97.500000
  0
LINE
  8
0
 10
34.154701
 20
142.500000
 11
45.000000
 21
142.500000
  0
LINE
  8
0
 10
13.000000
 20
140.000000
 11
13.000000
 21
100.000000
  0
LINE
  8
0
 10
16.000000
 20
140.000000
 11
16.000000
 21
100.000000
  0
LINE
  8
0
 10
16.000002
 20
140.000000
 11
16.866055
 21
140.500015
  0
LINE
  8
0
 10
15.999996
 20
99.999954
 11
16.865915
 21
99.500015
  0
LINE
  8
0
 10
20.330124
 20
99.500000
 11
20.330124
 21
140.500000
  0
LINE
  8
0
 10
44.999996
 20
152.999985
 11
46.038460
 21
154.038452
  0
LINE
  8
0
 10
45.000027
 20
87.000008
 11
46.038483
 21
85.961555
  0
LINE
  8
0
 10
46.038460
 20
154.038452
 11
46.038460
 21
85.961533
  0
LINE
  8
0
 62
     2
 10
-50.000000
 20
100.750000
 11
13.000000
 21
100.750000
  0
LINE
  8
0
 62
     2
 10
-50.000000
 20
139.250000
 11
13.000000
 21
139.250000
  0
LINE
  8
0
 10
-49.999996
 20
139.249969
 11
-49.250000
 21
139.999969
  0
LINE
  8
0
 10
-49.250000
 20
140.000000
 11
-49.250000
 21
100.000000
  0
LINE
  8
0
 62
     2
 10
12.999981
 20
139.250031
 11
14.299018
 21
140.000031
  0
LINE
  8
0
 62
     2
 10
13.000000
 20
100.750031
 11
14.299047
 21
100.000031
  0
LINE
  8
0
 10
-50.000015
 20
100.750008
 11
-49.250015
 21
99.999992
  0
LINE
  8
0
 10
68.000000
 20
204.000000
 11
81.000000
 21
204.000000
  0
LINE
  8
0
 10
69.071793
 20
192.000000
 11
81.000000
 21
192.000000
  0
LINE
  8
0
 10
68.000000
 20
204.000000
 11
68.000000
 21
180.000000
  0
LINE
  8
0
 10
68.000000
 20
180.000000
 11
81.000000
 21
180.000000
  0
LINE
  8
0
 10
81.000000
 20
205.500000
 11
81.000000
 21
178.500000
  0
LINE
  8
0
 10
68.000000
 20
60.000000
 11
81.000000
 21
60.000000
  0
LINE
  8
0
 10
69.071793
 20
48.000000
 11
81.000000
 21
48.000000
  0
LINE
  8
0
 10
68.000000
 20
59.999996
 11
68.000000
 21
36.000000
  0
LINE
  8
0
 10
68.000000
 20
36.000000
 11
81.000000
 21
36.000000
  0
LINE
  8
0
 10
81.000000
 20
61.500137
 11
81.000000
 21
34.500137
  0
LINE
  8
0
 10
307.999908
 20
204.000000
 11
294.999908
 21
204.000000
  0
LINE
  8
0
 10
307.999908
 20
204.000000
 11
307.999908
 21
180.000000
  0
LINE
  8
0
 10
306.928101
 20
192.000000
 11
294.999908
 21
192.000000
  0
LINE
  8
0
 10
307.999908
 20
180.000000
 11
294.999908
 21
180.000000
  0
LINE
  8
0
 10
294.999908
 20
205.500000
 11
294.999908
 21
178.500000
  0
LINE
  8
0
 10
307.999908
 20
60.000000
 11
294.999908
 21
60.000000
  0
LINE
  8
0
 10
307.999908
 20
59.999996
 11
307.999908
 21
36.000000
  0
LINE
  8
0
 10
306.928101
 20
48.000000
 11
294.999908
 21
48.000000
  0
LINE
  8
0
 10
307.999908
 20
36.000000
 11
294.999908
 21
36.000000
  0
LINE
  8
0
 10
294.999908
 20
61.500137
 11
294.999908
 21
34.500137
  0
LINE
  8
0
  6
CENTER
 62
     2
 10
272.499908
 20
140.926300
 11
272.499908
 21
99.800438
  0
LINE
  8
0
 10
16.865906
 20
99.500000
 11
33.000000
 21
99.500000
  0
LINE
  8
0
 10
16.866058
 20
140.500000
 11
33.000000
 21
140.500000
  0
LINE
  8
0
 10
33.000004
 20
140.499985
 11
34.154709
 21
142.500000
  0
LINE
  8
0
 10
32.999996
 20
99.499992
 11
34.154694
 21
97.499992
  0
CIRCLE
  8
0
 10
103.500000
 20
-130.000000
 40
7.950000
  0
CIRCLE
  8
0
 10
272.499908
 20
-130.000000
 40
7.950000
  0
CIRCLE
  8
0
 10
103.500000
 20
-130.000000
 40
5.150000
  0
CIRCLE
  8
0
 10
272.499908
 20
-130.000000
 40
5.150000
  0
ARC
  8
0
 10
73.096527
 20
-191.612488
 40
5.096536
 50
137.204651
 51
222.795410
  0
ARC
  8
0
 10
86.351044
 20
-202.000000
 40
18.351048
 50
157.829620
 51
202.170425
  0
ARC
  8
0
 10
73.096527
 20
-212.387497
 40
5.096536
 50
137.204651
 51
222.795410
  0
ARC
  8
0
 10
73.096535
 20
-68.387497
 40
5.096536
 50
137.204651
 51
222.795349
  0
ARC
  8
0
 10
86.351051
 20
-58.000000
 40
18.351051
 50
157.829590
 51
202.170395
  0
ARC
  8
0
 10
73.096535
 20
-47.612488
 40
5.096536
 50
137.204651
 51
222.795441
  0
ARC
  8
0
 10
302.903381
 20
-47.612503
 40
5.096522
 50
317.204559
 51
42.795471
  0
ARC
  8
0
 10
289.648865
 20
-58.000000
 40
18.351065
 50
337.829620
 51
22.170425
  0
ARC
  8
0
 10
302.903381
 20
-68.387512
 40
5.096525
 50
317.204529
 51
42.795536
  0
ARC
  8
0
 10
302.903381
 20
-191.612503
 40
5.096525
 50
317.204529
 51
42.795471
  0
ARC
  8
0
 10
289.648865
 20
-202.000000
 40
18.351061
 50
337.829651
 51
22.170437
  0
ARC
  8
0
 10
302.903381
 20
-212.387512
 40
5.096525
 50
317.204529
 51
42.795471
  0
ARC
  8
0
 10
31.011108
 20
-130.000000
 40
14.145085
 50
139.034286
 51
220.965714
  0
ARC
  8
0
 10
5.083321
 20
-130.000000
 40
29.416679
 50
0.000000
 51
18.375933
  0
ARC
  8
0
 10
5.083321
 20
-130.000000
 40
29.416679
 50
341.624054
 51
0.000000
  0
CIRCLE
  8
0
 10
-307.000000
 20
-202.000000
 40
8.000000
  0
CIRCLE
  8
0
 10
-163.000000
 20
-202.000000
 40
8.000000
  0
CIRCLE
  8
0
 10
-163.000000
 20
-58.000000
 40
8.000000
  0
CIRCLE
  8
0
 10
-307.000000
 20
-58.000000
 40
8.000000
  0
CIRCLE
  8
0
 10
-307.000000
 20
-202.000000
 40
11.500000
  0
CIRCLE
  8
0
 10
-307.000000
 20
-58.000000
 40
11.500000
  0
CIRCLE
  8
0
 10
-163.000000
 20
-58.000000
 40
11.500000
  0
CIRCLE
  8
0
 10
-163.000000
 20
-202.000000
 40
11.500000
  0
CIRCLE
  8
0
 10
-235.000000
 20
-130.000000
 40
20.000000
  0
CIRCLE
  8
0
 62
     2
 10
-307.000000
 20
-202.000000
 40
6.600000
  0
CIRCLE
  8
0
 62
     2
 10
-163.000000
 20
-202.000000
 40
6.600000
  0
CIRCLE
  8
0
 62
     2
 10
-163.000000
 20
-58.000000
 40
6.600000
  0
CIRCLE
  8
0
 62
     2
 10
-307.000000
 20
-58.000000
 40
6.600000
  0
CIRCLE
  8
0
 10
-235.000000
 20
-130.000000
 40
57.500000
  0
CIRCLE
  8
0
 10
-235.000000
 20
-130.000000
 40
35.000000
  0
CIRCLE
  8
0
 10
-235.000000
 20
-130.000000
 40
22.500000
  0
ARC
  8
0
 10
-201.766022
 20
-163.234070
 40
10.000008
 50
56.944412
 51
213.055389
  0
CIRCLE
  8
0
 10
-201.766022
 20
-163.234070
 40
8.000000
  0
CIRCLE
  8
0
 10
-201.765930
 20
-96.766022
 40
8.000000
  0
CIRCLE
  8
0
 10
-268.233978
 20
-96.765930
 40
8.000000
  0
CIRCLE
  8
0
 10
-268.234070
 20
-163.233978
 40
8.000000
  0
ARC
  8
0
 10
-195.765991
 20
-105.985596
 40
0.999995
 50
31.470470
 51
123.055977
  0
ARC
  8
0
 10
-195.766052
 20
-154.014526
 40
1.000009
 50
236.944504
 51
328.530365
  0
ARC
  8
0
 10
-235.000000
 20
-130.000000
 40
46.999996
 50
328.529846
 51
31.470057
  0
ARC
  8
0
 10
-201.765930
 20
-96.766022
 40
9.999995
 50
146.944366
 51
303.055420
  0
ARC
  8
0
 10
-210.985474
 20
-90.766052
 40
1.000005
 50
326.944855
 51
58.530128
  0
ARC
  8
0
 10
-235.000000
 20
-130.000000
 40
46.999996
 50
58.529835
 51
121.470039
  0
ARC
  8
0
 10
-259.014404
 20
-90.765991
 40
1.000006
 50
121.470619
 51
213.055969
  0
ARC
  8
0
 10
-268.233978
 20
-96.765930
 40
10.000001
 50
236.944382
 51
33.055431
  0
ARC
  8
0
 10
-274.233948
 20
-105.985489
 40
0.999994
 50
56.944996
 51
148.529907
  0
ARC
  8
0
 10
-235.000000
 20
-130.000000
 40
47.000011
 50
148.529846
 51
211.470062
  0
ARC
  8
0
 10
-274.234009
 20
-154.014404
 40
0.999999
 50
211.470840
 51
303.056702
  0
ARC
  8
0
 10
-268.234070
 20
-163.233978
 40
9.999995
 50
326.944366
 51
123.055397
  0
ARC
  8
0
 10
-259.014526
 20
-169.233948
 40
0.999996
 50
146.944031
 51
238.529617
  0
ARC
  8
0
 10
-235.000000
 20
-130.000000
 40
46.999996
 50
238.529831
 51
301.470062
  0
ARC
  8
0
 10
-210.985596
 20
-169.234009
 40
0.999999
 50
301.470856
 51
33.055973
  0
CIRCLE
  8
0
 62
     2
 10
-235.000000
 20
-130.000000
 40
19.250000
  0
ARC
  8
0
 10
85.330116
 20
198.000000
 40
17.330120
 50
159.743835
 51
200.256119
  0
ARC
  8
0
 10
85.330116
 20
186.000000
 40
17.330118
 50
159.743774
 51
200.256058
  0
ARC
  8
0
 10
85.330116
 20
54.000000
 40
17.330120
 50
159.743851
 51
200.256134
  0
ARC
  8
0
 10
85.330116
 20
42.000000
 40
17.330118
 50
159.743790
 51
200.256073
  0
ARC
  8
0
 10
290.669800
 20
198.000000
 40
17.330128
 50
339.743835
 51
20.256109
  0
ARC
  8
0
 10
290.669800
 20
186.000000
 40
17.330122
 50
339.743896
 51
20.256157
  0
ARC
  8
0
 10
290.669800
 20
54.000000
 40
17.330128
 50
339.743835
 51
20.256109
  0
ARC
  8
0
 10
290.669800
 20
42.000000
 40
17.330122
 50
339.743896
 51
20.256157
  0
CIRCLE
  8
0
 62
     2
 10
103.500000
 20
120.000000
 40
13.220500
  0
CIRCLE
  8
0
 10
103.500000
 20
120.000000
 40
12.058500
  0
CIRCLE
  8
0
 62
     2
 10
272.499908
 20
120.000000
 40
13.220500
  0
CIRCLE
  8
0
 10
272.499908
 20
120.000000
 40
12.058500
  0
TEXT
  8
0
 10
-369.785309
 20
256.649994
 40
9.000000
  1
SD CYLINDER
 50
0.000000
 41
1.052632
 51
0.000000
  7
STANDARD
  0
TEXT
  8
0
 10
242.014816
 20
-274.500000
 40
12.500000
  1
KOGANEI CORP.
 50
0.000000
 41
1.052632
 51
0.000000
  7
STANDARD
  0
TEXT
  8
0
 10
251.264664
 20
256.649994
 40
9.000000
  1
DATE: AUG ,1993
 50
0.000000
 41
1.052632
 51
0.000000
  7
STANDARD
  0
TEXT
  8
0
 10
-384.785309
 20
224.149994
 40
9.000000
  1
MODEL:KA0SDZ160*100
 50
0.000000
 41
1.052632
 51
0.000000
  7
STANDARD
  0
ENDSEC
  0
EOF
