  0
SECTION
  2
HEADER
  0
ENDSEC
  0
SECTION
  2
TABLES
  0
TABLE
  2
LTYPE
 70
     4
  0
LTYPE
  2
CONTINUOUS
 70
    64
  3
Solid line
 72
    65
 73
     0
 40
0.000000
  0
LTYPE
  2
DASHED
 70
    64
  3
__ __ __ __ __ __ __ __ __ __ __ __ __ __ __
 72
    65
 73
     2
 40
3.500000
 49
2.000000
 49
-1.500000
  0
LTYPE
  2
CENTER
 70
    64
  3
____ _ ____ _ ____ _ ____ _ ____ _ ____ _ ____
 72
    65
 73
     4
 40
17.500000
 49
13.000000
 49
-1.500000
 49
1.500000
 49
-1.500000
  0
LTYPE
  2
PHANTOM
 70
    64
  3
_____ _ _ _____ _ _ _____ _ _ _____ _ _ ____  
 72
    65
 73
     6
 40
15.500000
 49
8.000000
 49
-1.500000
 49
1.500000
 49
-1.500000
 49
1.500000
 49
-1.500000
  0
LTYPE
  2
DASHED1
 70
    64
  3
__ __ __ __ __ __ __ __ __ __ __ __ __ __ __
 72
    65
 73
     2
 40
1.500000
 49
1.000000
 49
-0.500000
  0
LTYPE
  2
DASHED2
 70
    64
  3
__ __ __ __ __ __ __ __ __ __ __ __ __ __ __
 72
    65
 73
     2
 40
3.500000
 49
2.500000
 49
-1.000000
  0
LTYPE
  2
DASHED3
 70
    64
  3
__ __ __ __ __ __ __ __ __ __ __ __ __ __ __
 72
    65
 73
     2
 40
6.000000
 49
4.000000
 49
-2.000000
  0
LTYPE
  2
DASHED4
 70
    64
  3
__ __ __ __ __ __ __ __ __ __ __ __ __ __ __
 72
    65
 73
     2
 40
12.000000
 49
10.000000
 49
-2.000000
  0
LTYPE
  2
DASHED5
 70
    64
  3
__ __ __ __ __ __ __ __ __ __ __ __ __ __ __
 72
    65
 73
     2
 40
17.000000
 49
15.000000
 49
-2.000000
  0
LTYPE
  2
DASHED6
 70
    64
  3
__ __ __ __ __ __ __ __ __ __ __ __ __ __ __
 72
    65
 73
     2
 40
29.000000
 49
27.000000
 49
-2.000000
  0
LTYPE
  2
PHANTOM1
 70
    64
  3
_____ _ _ _____ _ _ _____ _ _ _____ _ _ ____  
 72
    65
 73
     6
 40
31.000000
 49
25.000000
 49
-1.500000
 49
1.000000
 49
-1.000000
 49
1.000000
 49
-1.500000
  0
LTYPE
  2
PHANTOM2
 70
    64
  3
_____ _ _ _____ _ _ _____ _ _ _____ _ _ ____  
 72
    65
 73
     6
 40
36.000000
 49
27.000000
 49
-1.500000
 49
2.500000
 49
-1.000000
 49
2.500000
 49
-1.500000
  0
LTYPE
  2
PHANTOM3
 70
    64
  3
_____ _ _ _____ _ _ _____ _ _ _____ _ _ ____  
 72
    65
 73
     6
 40
78.000000
 49
64.000000
 49
-2.000000
 49
4.000000
 49
-2.000000
 49
4.000000
 49
-2.000000
  0
LTYPE
  2
CENTER1
 70
    64
  3
____ _ ____ _ ____ _ ____ _ ____ _ ____ _ ____
 72
    65
 73
     4
 40
19.000000
 49
14.000000
 49
-1.000000
 49
3.000000
 49
-1.000000
  0
LTYPE
  2
CENTER2
 70
    64
  3
____ _ ____ _ ____ _ ____ _ ____ _ ____ _ ____
 72
    65
 73
     4
 40
28.500000
 49
25.000000
 49
-1.000000
 49
1.500000
 49
-1.000000
  0
LTYPE
  2
CENTER3
 70
    64
  3
____ _ ____ _ ____ _ ____ _ ____ _ ____ _ ____
 72
    65
 73
     4
 40
31.500000
 49
27.000000
 49
-1.000000
 49
2.500000
 49
-1.000000
  0
LTYPE
  2
CENTER4
 70
    64
  3
____ _ ____ _ ____ _ ____ _ ____ _ ____ _ ____
 72
    65
 73
     4
 40
50.000000
 49
45.000000
 49
-1.000000
 49
3.000000
 49
-1.000000
  0
LTYPE
  2
CENTER5
 70
    64
  3
____ _ ____ _ ____ _ ____ _ ____ _ ____ _ ____
 72
    65
 73
     4
 40
100.000000
 49
92.000000
 49
-2.000000
 49
4.000000
 49
-2.000000
  0
LTYPE
  2
SBK1
 70
    64
  3
______ _ _ _ ______ _ _ _ ______ _ _ _ _____  
 72
    65
 73
     8
 40
60.500000
 49
45.000000
 49
-2.000000
 49
2.500000
 49
-2.000000
 49
2.500000
 49
-2.000000
 49
2.500000
 49
-2.000000
  0
LTYPE
  2
SBK2
 70
    64
  3
______ _ _ _ ______ _ _ _ ______ _ _ _ _____  
 72
    65
 73
     8
 40
84.000000
 49
64.000000
 49
-2.000000
 49
4.000000
 49
-2.000000
 49
4.000000
 49
-2.000000
 49
4.000000
 49
-2.000000
  0
LTYPE
  2
STCH
 70
    64
  3
__ __ __ __ __ __ __ __ __ __ __ __ __ __ __
 72
    65
 73
     2
 40
3.000000
 49
1.000000
 49
-2.000000
  0
LTYPE
  2
MTCH
 70
    64
  3
_____ _ _ _____ _ _ _____ _ _ _____ _ _ ____  
 72
    65
 73
     6
 40
80.000000
 49
66.000000
 49
-2.000000
 49
4.000000
 49
-2.000000
 49
4.000000
 49
-2.000000
  0
ENDTAB
  0
TABLE
  2
LAYER
 70
     1
  0
LAYER
  2
0
 70
     0
 62
     7
  6
CONTINUOUS
  0
ENDTAB
  0
TABLE
  2
STYLE
 70
     1
  0
STYLE
  2
STANDARD
 70
     0
 40
0.000000
 41
1.000000
 50
0.000000
 71
     0
 42
0.200000
  3
txt
  4
BIGFONT
  0
ENDTAB
  0
TABLE
  2
VIEW
 70
     0
  0
ENDTAB
  0
ENDSEC
  0
SECTION
  2
BLOCKS
  0
ENDSEC
  0
SECTION
  2
ENTITIES
  0
LINE
  8
0
 10
399.799988
 20
276.250000
 11
399.799988
 21
-276.750000
  0
LINE
  8
0
 10
-399.250000
 20
276.250000
 11
-399.250000
 21
-276.750000
  0
LINE
  8
0
 10
-399.250000
 20
276.250000
 11
399.799988
 21
276.250000
  0
LINE
  8
0
 10
-399.250000
 20
-276.750000
 11
399.799988
 21
-276.750000
  0
LINE
  8
0
 10
239.799988
 20
-251.750000
 11
399.799988
 21
-251.750000
  0
LINE
  8
0
 10
239.799988
 20
251.250000
 11
399.799988
 21
251.250000
  0
LINE
  8
0
 10
-399.250000
 20
251.250000
 11
-239.250000
 21
251.250000
  0
LINE
  8
0
 10
239.799988
 20
-251.750000
 11
239.799988
 21
-276.750000
  0
LINE
  8
0
 10
239.799988
 20
251.250000
 11
239.799988
 21
276.250000
  0
LINE
  8
0
 10
-239.250000
 20
276.250000
 11
-239.250000
 21
251.250000
  0
LINE
  8
0
  6
CENTER
 62
     2
 10
-41.873260
 20
-120.000000
 11
314.399994
 21
-120.000000
  0
LINE
  8
0
 10
100.000000
 20
-18.000000
 11
100.000000
 21
-222.000000
  0
LINE
  8
0
  6
CENTER
 62
     2
 10
118.500000
 20
-12.759338
 11
118.500000
 21
-131.299988
  0
LINE
  8
0
 10
287.404877
 20
-119.250000
 11
297.595062
 21
-119.250000
  0
LINE
  8
0
 10
287.404877
 20
-120.750000
 11
297.595062
 21
-120.750000
  0
LINE
  8
0
  6
CENTER
 62
     2
 10
292.499969
 20
-11.510620
 11
292.499969
 21
-133.000000
  0
LINE
  8
0
 10
310.999969
 20
-18.000000
 11
310.999969
 21
-222.000000
  0
LINE
  8
0
 10
113.404907
 20
-119.250000
 11
123.595093
 21
-119.250000
  0
LINE
  8
0
 10
113.404907
 20
-120.750000
 11
123.595093
 21
-120.750000
  0
LINE
  8
0
 10
139.000000
 20
-18.000000
 11
139.000000
 21
-222.000000
  0
LINE
  8
0
 10
271.999969
 20
-18.000000
 11
271.999969
 21
-222.000000
  0
LINE
  8
0
  6
DASHED
 62
     2
 10
305.720825
 20
-18.000051
 11
305.228333
 21
-32.100037
  0
LINE
  8
0
  6
DASHED
 62
     2
 10
279.772095
 20
-32.100044
 11
279.279419
 21
-18.000006
  0
LINE
  8
0
  6
DASHED
 62
     2
 10
280.999969
 20
-19.500000
 11
303.999969
 21
-19.500000
  0
LINE
  8
0
  6
DASHED
 62
     2
 10
280.999969
 20
-19.500000
 11
280.999969
 21
-32.099976
  0
LINE
  8
0
  6
DASHED
 62
     2
 10
303.999969
 20
-19.500000
 11
303.999969
 21
-32.099976
  0
LINE
  8
0
  6
DASHED
 62
     2
 10
305.720520
 20
-18.000132
 11
304.000031
 21
-19.500113
  0
LINE
  8
0
  6
DASHED
 62
     2
 10
279.279724
 20
-17.999714
 11
281.000183
 21
-19.499695
  0
LINE
  8
0
 10
100.000000
 20
-18.000000
 11
139.000000
 21
-18.000000
  0
LINE
  8
0
  6
CENTER
 62
     2
 10
58.630562
 20
-39.000000
 11
353.682465
 21
-39.000000
  0
LINE
  8
0
 10
81.755318
 20
-23.415283
 11
95.400002
 21
-23.415283
  0
LINE
  8
0
 10
81.822128
 20
-54.592224
 11
95.400002
 21
-54.592224
  0
LINE
  8
0
 10
95.400002
 20
-54.000000
 11
100.000000
 21
-54.000000
  0
LINE
  8
0
 10
95.400002
 20
-24.000000
 11
100.000000
 21
-24.000000
  0
LINE
  8
0
 10
95.400002
 20
-23.415283
 11
95.400002
 21
-54.592224
  0
LINE
  8
0
 10
80.400002
 20
-25.762817
 11
80.400002
 21
-52.129028
  0
LINE
  8
0
 10
81.772018
 20
-31.209534
 11
95.400002
 21
-31.209534
  0
LINE
  8
0
 10
81.805428
 20
-46.797974
 11
95.400002
 21
-46.797974
  0
LINE
  8
0
 10
81.755318
 20
-23.415331
 11
80.400002
 21
-25.762808
  0
LINE
  8
0
 10
80.400017
 20
-52.128876
 11
81.822166
 21
-54.592113
  0
LINE
  8
0
 10
66.000000
 20
-30.000000
 11
80.400002
 21
-30.000000
  0
LINE
  8
0
 10
66.000000
 20
-48.000000
 11
80.400002
 21
-48.000000
  0
LINE
  8
0
 10
65.000000
 20
-31.000000
 11
65.000000
 21
-47.000000
  0
LINE
  8
0
 10
65.999985
 20
-30.000013
 11
64.999962
 21
-31.000036
  0
LINE
  8
0
 10
65.000015
 20
-47.000015
 11
65.999992
 21
-47.999992
  0
LINE
  8
0
 10
65.999985
 20
-30.000000
 11
65.999985
 21
-48.000000
  0
LINE
  8
0
 10
81.755318
 20
-185.415283
 11
95.400002
 21
-185.415283
  0
LINE
  8
0
 10
81.822128
 20
-216.592224
 11
95.400002
 21
-216.592224
  0
LINE
  8
0
 10
95.400002
 20
-216.000000
 11
100.000000
 21
-216.000000
  0
LINE
  8
0
 10
95.400002
 20
-186.000000
 11
100.000000
 21
-186.000000
  0
LINE
  8
0
 10
95.400002
 20
-185.415283
 11
95.400002
 21
-216.592224
  0
LINE
  8
0
 10
80.400002
 20
-187.762817
 11
80.400002
 21
-214.129028
  0
LINE
  8
0
 10
81.772018
 20
-193.209534
 11
95.400002
 21
-193.209534
  0
LINE
  8
0
 10
81.805428
 20
-208.797974
 11
95.400002
 21
-208.797974
  0
LINE
  8
0
 10
81.755287
 20
-185.415375
 11
80.399971
 21
-187.762863
  0
LINE
  8
0
 10
80.399963
 20
-214.128967
 11
81.822083
 21
-216.592148
  0
LINE
  8
0
 10
66.000000
 20
-192.000000
 11
80.400002
 21
-192.000000
  0
LINE
  8
0
 10
66.000000
 20
-210.000000
 11
80.400002
 21
-210.000000
  0
LINE
  8
0
 10
65.000000
 20
-193.000000
 11
65.000000
 21
-209.000000
  0
LINE
  8
0
 10
65.999985
 20
-192.000015
 11
64.999985
 21
-193.000015
  0
LINE
  8
0
 10
65.000046
 20
-208.999969
 11
66.000061
 21
-209.999985
  0
LINE
  8
0
 10
65.999985
 20
-192.000000
 11
65.999985
 21
-210.000000
  0
LINE
  8
0
 10
329.244659
 20
-216.584717
 11
315.599976
 21
-216.584717
  0
LINE
  8
0
 10
329.177826
 20
-185.407837
 11
315.599976
 21
-185.407837
  0
LINE
  8
0
 10
315.599976
 20
-186.000061
 11
310.999969
 21
-186.000061
  0
LINE
  8
0
 10
315.599976
 20
-216.000061
 11
310.999969
 21
-216.000061
  0
LINE
  8
0
 10
315.600006
 20
-216.584717
 11
315.600006
 21
-185.407776
  0
LINE
  8
0
 10
330.600006
 20
-214.237183
 11
330.600006
 21
-187.870972
  0
LINE
  8
0
 10
329.227936
 20
-208.790527
 11
315.599976
 21
-208.790527
  0
LINE
  8
0
 10
329.194550
 20
-193.202026
 11
315.599976
 21
-193.202026
  0
LINE
  8
0
 10
329.244812
 20
-216.584778
 11
330.600128
 21
-214.237305
  0
LINE
  8
0
 10
330.600006
 20
-187.871048
 11
329.177856
 21
-185.407806
  0
LINE
  8
0
 10
344.999969
 20
-210.000061
 11
330.599976
 21
-210.000061
  0
LINE
  8
0
 10
344.999969
 20
-192.000061
 11
330.599976
 21
-192.000061
  0
LINE
  8
0
 10
346.000000
 20
-209.000000
 11
346.000000
 21
-193.000000
  0
LINE
  8
0
 10
344.999847
 20
-209.999832
 11
345.999847
 21
-208.999832
  0
LINE
  8
0
 10
345.999939
 20
-193.000000
 11
344.999908
 21
-191.999985
  0
LINE
  8
0
 10
345.000000
 20
-210.000000
 11
345.000000
 21
-192.000000
  0
LINE
  8
0
 10
345.000000
 20
-48.000000
 11
345.000000
 21
-30.000000
  0
LINE
  8
0
 10
329.244659
 20
-54.584717
 11
315.599976
 21
-54.584717
  0
LINE
  8
0
 10
329.177826
 20
-23.407837
 11
315.599976
 21
-23.407837
  0
LINE
  8
0
 10
315.599976
 20
-24.000061
 11
310.999969
 21
-24.000061
  0
LINE
  8
0
 10
315.599976
 20
-54.000061
 11
310.999969
 21
-54.000061
  0
LINE
  8
0
 10
315.600006
 20
-54.584717
 11
315.600006
 21
-23.407776
  0
LINE
  8
0
 10
330.600006
 20
-52.237183
 11
330.600006
 21
-25.870972
  0
LINE
  8
0
 10
329.227936
 20
-46.790527
 11
315.599976
 21
-46.790527
  0
LINE
  8
0
 10
329.194550
 20
-31.202026
 11
315.599976
 21
-31.202026
  0
LINE
  8
0
 10
329.244751
 20
-54.584774
 11
330.600067
 21
-52.237297
  0
LINE
  8
0
 10
330.600098
 20
-25.871027
 11
329.177979
 21
-23.407845
  0
LINE
  8
0
 10
344.999969
 20
-48.000061
 11
330.599976
 21
-48.000061
  0
LINE
  8
0
 10
344.999969
 20
-30.000061
 11
330.599976
 21
-30.000061
  0
LINE
  8
0
 10
346.000000
 20
-47.000000
 11
346.000000
 21
-31.000000
  0
LINE
  8
0
 10
344.999878
 20
-47.999969
 11
345.999878
 21
-46.999969
  0
LINE
  8
0
 10
345.999847
 20
-30.999969
 11
344.999878
 21
-29.999989
  0
LINE
  8
0
  6
CENTER
 62
     2
 10
58.630562
 20
-201.000000
 11
351.216583
 21
-201.000000
  0
LINE
  8
0
 10
139.000000
 20
-48.000000
 11
271.999969
 21
-48.000000
  0
LINE
  8
0
 10
139.000000
 20
-30.000000
 11
271.999969
 21
-30.000000
  0
LINE
  8
0
 10
139.000000
 20
-210.000000
 11
271.999969
 21
-210.000000
  0
LINE
  8
0
 10
139.000000
 20
-192.000000
 11
271.999969
 21
-192.000000
  0
LINE
  8
0
 10
271.999969
 20
-18.000000
 11
310.999969
 21
-18.000000
  0
LINE
  8
0
  6
DASHED
 62
     2
 10
105.279625
 20
-17.999853
 11
107.000137
 21
-19.499874
  0
LINE
  8
0
  6
DASHED
 62
     2
 10
131.720688
 20
-18.000029
 11
131.228195
 21
-32.100075
  0
LINE
  8
0
  6
DASHED
 62
     2
 10
105.772141
 20
-32.100014
 11
105.279472
 21
-17.999977
  0
LINE
  8
0
  6
DASHED
 62
     2
 10
107.000000
 20
-19.500000
 11
130.000000
 21
-19.500000
  0
LINE
  8
0
  6
DASHED
 62
     2
 10
107.000000
 20
-19.500000
 11
107.000000
 21
-32.099976
  0
LINE
  8
0
  6
DASHED
 62
     2
 10
130.000000
 20
-19.500000
 11
130.000000
 21
-32.099976
  0
LINE
  8
0
  6
DASHED
 62
     2
 10
131.720459
 20
-17.999960
 11
129.999969
 21
-19.499962
  0
LINE
  8
0
 10
100.000000
 20
-222.000000
 11
139.000000
 21
-222.000000
  0
LINE
  8
0
 10
271.999969
 20
-222.000000
 11
310.999969
 21
-222.000000
  0
LINE
  8
0
 10
139.000000
 20
-216.500000
 11
271.999969
 21
-216.500000
  0
LINE
  8
0
 10
139.000000
 20
-23.500000
 11
271.999969
 21
-23.500000
  0
LINE
  8
0
 62
     2
 10
65.000000
 20
-208.599976
 11
80.400002
 21
-208.599976
  0
LINE
  8
0
 62
     2
 10
65.000000
 20
-193.400024
 11
80.400002
 21
-193.400024
  0
LINE
  8
0
 62
     2
 10
65.000000
 20
-46.599976
 11
80.400002
 21
-46.599976
  0
LINE
  8
0
 62
     2
 10
65.000000
 20
-31.400024
 11
80.400002
 21
-31.400024
  0
LINE
  8
0
 62
     2
 10
346.000000
 20
-31.400024
 11
330.599976
 21
-31.400024
  0
LINE
  8
0
 62
     2
 10
346.000000
 20
-46.600037
 11
330.599976
 21
-46.600037
  0
LINE
  8
0
 62
     2
 10
346.000000
 20
-208.600037
 11
330.599976
 21
-208.600037
  0
LINE
  8
0
 62
     2
 10
346.000000
 20
-193.400024
 11
330.599976
 21
-193.400024
  0
LINE
  8
0
 10
90.000000
 20
-63.500000
 11
90.000000
 21
-176.500000
  0
LINE
  8
0
 10
91.000000
 20
-62.500000
 11
91.000000
 21
-177.500000
  0
LINE
  8
0
 10
91.000000
 20
-177.500000
 11
100.000000
 21
-177.500000
  0
LINE
  8
0
 10
91.000000
 20
-62.500000
 11
100.000000
 21
-62.500000
  0
LINE
  8
0
 10
89.999969
 20
-63.500023
 11
90.999969
 21
-62.500019
  0
LINE
  8
0
 10
90.000008
 20
-176.500000
 11
91.000031
 21
-177.500031
  0
LINE
  8
0
 10
60.000000
 20
-87.000000
 11
60.000000
 21
-153.000000
  0
LINE
  8
0
 10
87.000000
 20
-74.000000
 11
87.000000
 21
-78.765991
  0
LINE
  8
0
 10
88.000000
 20
-73.000000
 11
90.000000
 21
-73.000000
  0
LINE
  8
0
 10
88.000000
 20
-167.000000
 11
90.000000
 21
-167.000000
  0
LINE
  8
0
 10
80.000015
 20
-85.259377
 11
61.038467
 21
-85.961655
  0
LINE
  8
0
 10
61.038445
 20
-154.038422
 11
79.999985
 21
-154.740707
  0
LINE
  8
0
 10
81.000000
 20
-145.234009
 11
90.000000
 21
-145.234009
  0
LINE
  8
0
 10
81.000000
 20
-161.234009
 11
90.000000
 21
-161.234009
  0
LINE
  8
0
 10
80.000000
 20
-146.234009
 11
80.000000
 21
-160.234009
  0
LINE
  8
0
 10
79.999969
 20
-146.233963
 11
80.999969
 21
-145.233963
  0
LINE
  8
0
 10
80.999977
 20
-161.233978
 11
79.999992
 21
-160.234009
  0
LINE
  8
0
 10
81.000000
 20
-145.234009
 11
81.000000
 21
-161.234009
  0
LINE
  8
0
 10
81.000000
 20
-94.765991
 11
90.000000
 21
-94.765991
  0
LINE
  8
0
 10
80.000000
 20
-79.765991
 11
80.000000
 21
-93.765991
  0
LINE
  8
0
 10
81.000008
 20
-94.766060
 11
80.000008
 21
-93.766060
  0
LINE
  8
0
 10
81.000000
 20
-78.765991
 11
81.000000
 21
-94.765991
  0
LINE
  8
0
 10
79.999985
 20
-79.766037
 11
80.999985
 21
-78.766037
  0
LINE
  8
0
 10
81.000000
 20
-78.765991
 11
90.000000
 21
-78.765991
  0
LINE
  8
0
 10
87.000000
 20
-161.234009
 11
87.000000
 21
-166.000000
  0
LINE
  8
0
 10
87.000000
 20
-94.765991
 11
87.000000
 21
-145.234009
  0
LINE
  8
0
 10
-35.000000
 20
-98.250000
 11
-35.000000
 21
-141.750000
  0
LINE
  8
0
 10
60.000000
 20
-87.000023
 11
61.038452
 21
-85.961563
  0
LINE
  8
0
 10
59.999928
 20
-153.000015
 11
61.038403
 21
-154.038483
  0
LINE
  8
0
 10
61.038452
 20
-85.961548
 11
61.038452
 21
-154.038452
  0
LINE
  8
0
 10
-34.250000
 20
-142.500000
 11
30.580109
 21
-142.500000
  0
LINE
  8
0
 10
28.000000
 20
-97.500000
 11
28.000000
 21
-142.500000
  0
LINE
  8
0
 10
31.000000
 20
-97.500000
 11
31.000000
 21
-142.500000
  0
LINE
  8
0
 10
35.330124
 20
-145.000000
 11
60.000000
 21
-145.000000
  0
LINE
  8
0
 10
35.330124
 20
-95.000000
 11
60.000000
 21
-95.000000
  0
LINE
  8
0
 10
31.000015
 20
-142.499954
 11
35.330143
 21
-144.999954
  0
LINE
  8
0
 10
30.999964
 20
-97.499977
 11
35.330093
 21
-94.999977
  0
LINE
  8
0
 10
-34.250000
 20
-97.500000
 11
31.000000
 21
-97.500000
  0
LINE
  8
0
 10
35.330124
 20
-145.000000
 11
35.330124
 21
-129.797974
  0
LINE
  8
0
 10
35.330124
 20
-110.202026
 11
35.330124
 21
-95.000000
  0
LINE
  8
0
 10
35.330139
 20
-110.202026
 11
48.000000
 21
-110.202026
  0
LINE
  8
0
 10
35.330124
 20
-129.797974
 11
48.000000
 21
-129.797974
  0
LINE
  8
0
 10
48.000000
 20
-110.202026
 11
48.000000
 21
-129.797974
  0
LINE
  8
0
 62
     2
 10
35.330074
 20
-129.798004
 11
47.999950
 21
-110.202080
  0
LINE
  8
0
 62
     2
 10
35.330177
 20
-110.202034
 11
48.000061
 21
-129.797974
  0
LINE
  8
0
 62
     2
 10
-35.000000
 20
-98.250000
 11
28.000000
 21
-98.250000
  0
LINE
  8
0
 62
     2
 10
27.999994
 20
-98.250015
 11
29.607233
 21
-97.499969
  0
LINE
  8
0
 10
-35.000015
 20
-98.249939
 11
-34.250027
 21
-97.499962
  0
LINE
  8
0
 10
-34.250000
 20
-97.500000
 11
-34.250000
 21
-142.500000
  0
LINE
  8
0
 10
-34.999870
 20
-141.749878
 11
-34.249859
 21
-142.499878
  0
LINE
  8
0
 62
     2
 10
-35.000000
 20
-141.750000
 11
28.000000
 21
-141.750000
  0
LINE
  8
0
 62
     2
 10
28.000021
 20
-141.749924
 11
29.607244
 21
-142.499954
  0
LINE
  8
0
  6
CENTER
 62
     2
 10
-339.196136
 20
-120.000000
 11
-121.470490
 21
-120.000000
  0
LINE
  8
0
  6
CENTER
 62
     2
 10
-230.000000
 20
-11.831848
 11
-230.000000
 21
-229.147461
  0
LINE
  8
0
 10
-128.000000
 20
-18.000000
 11
-128.000000
 21
-222.000000
  0
LINE
  8
0
 10
-332.000000
 20
-18.000000
 11
-332.000000
 21
-222.000000
  0
LINE
  8
0
 10
-332.000000
 20
-222.000000
 11
-128.000000
 21
-222.000000
  0
LINE
  8
0
 10
-332.000000
 20
-18.000000
 11
-128.000000
 21
-18.000000
  0
LINE
  8
0
  6
CENTER
 62
     2
 10
-311.000000
 20
-20.791016
 11
-311.000000
 21
-57.528198
  0
LINE
  8
0
  6
CENTER
 62
     2
 10
-328.204254
 20
-39.000000
 11
-294.293030
 21
-39.000000
  0
LINE
  8
0
 10
-297.500000
 20
-31.213257
 11
-297.500000
 21
-46.794189
  0
LINE
  8
0
 10
-324.500000
 20
-31.205811
 11
-324.500000
 21
-46.801758
  0
LINE
  8
0
 10
-297.499939
 20
-46.794209
 11
-311.006439
 21
-54.592186
  0
LINE
  8
0
 10
-311.006592
 20
-23.415199
 11
-324.500122
 21
-31.205704
  0
LINE
  8
0
 10
-324.499939
 20
-46.801701
 11
-311.006409
 21
-54.592186
  0
LINE
  8
0
 10
-311.006470
 20
-23.415228
 11
-297.499969
 21
-31.213200
  0
LINE
  8
0
  6
CENTER
 62
     2
 10
-149.000000
 20
-20.791016
 11
-149.000000
 21
-57.528198
  0
LINE
  8
0
  6
CENTER
 62
     2
 10
-166.204254
 20
-39.000000
 11
-132.293030
 21
-39.000000
  0
LINE
  8
0
 10
-135.500000
 20
-31.213257
 11
-135.500000
 21
-46.794189
  0
LINE
  8
0
 10
-162.500000
 20
-31.205811
 11
-162.500000
 21
-46.801758
  0
LINE
  8
0
 10
-135.500015
 20
-46.794201
 11
-149.006500
 21
-54.592182
  0
LINE
  8
0
 10
-149.006485
 20
-23.415232
 11
-162.500000
 21
-31.205721
  0
LINE
  8
0
 10
-162.500000
 20
-46.801765
 11
-149.006485
 21
-54.592247
  0
LINE
  8
0
 10
-149.006470
 20
-23.415245
 11
-135.499969
 21
-31.213215
  0
LINE
  8
0
  6
CENTER
 62
     2
 10
-149.000000
 20
-182.791016
 11
-149.000000
 21
-219.528198
  0
LINE
  8
0
  6
CENTER
 62
     2
 10
-166.204254
 20
-201.000000
 11
-132.293030
 21
-201.000000
  0
LINE
  8
0
 10
-135.500000
 20
-193.213257
 11
-135.500000
 21
-208.794189
  0
LINE
  8
0
 10
-162.500000
 20
-193.205811
 11
-162.500000
 21
-208.801758
  0
LINE
  8
0
 10
-135.500031
 20
-208.794281
 11
-149.006516
 21
-216.592270
  0
LINE
  8
0
 10
-149.006500
 20
-185.415268
 11
-162.500015
 21
-193.205765
  0
LINE
  8
0
 10
-162.499954
 20
-208.801651
 11
-149.006454
 21
-216.592133
  0
LINE
  8
0
 10
-149.006454
 20
-185.415207
 11
-135.499969
 21
-193.213181
  0
LINE
  8
0
  6
CENTER
 62
     2
 10
-311.000000
 20
-182.791016
 11
-311.000000
 21
-219.528198
  0
LINE
  8
0
  6
CENTER
 62
     2
 10
-328.204254
 20
-201.000000
 11
-294.293030
 21
-201.000000
  0
LINE
  8
0
 10
-297.500000
 20
-193.213257
 11
-297.500000
 21
-208.794189
  0
LINE
  8
0
 10
-324.500000
 20
-193.205811
 11
-324.500000
 21
-208.801758
  0
LINE
  8
0
 10
-297.500000
 20
-208.794189
 11
-311.006500
 21
-216.592178
  0
LINE
  8
0
 10
-311.006531
 20
-185.415298
 11
-324.500031
 21
-193.205780
  0
LINE
  8
0
 10
-324.499908
 20
-208.801620
 11
-311.006378
 21
-216.592117
  0
LINE
  8
0
 10
-311.006500
 20
-185.415161
 11
-297.500031
 21
-193.213135
  0
LINE
  8
0
 10
-195.570450
 20
-148.772537
 11
-192.304489
 21
-152.038498
  0
LINE
  8
0
 10
-201.227402
 20
-154.429382
 11
-197.961395
 21
-157.695389
  0
LINE
  8
0
 10
-192.305038
 20
-152.038528
 11
-193.500473
 21
-156.499985
  0
LINE
  8
0
 10
-200.032318
 20
-149.967880
 11
-201.227768
 21
-154.429321
  0
LINE
  8
0
 10
-197.961502
 20
-157.695480
 11
-193.500046
 21
-156.500046
  0
LINE
  8
0
 10
-200.031937
 20
-149.968109
 11
-195.570541
 21
-148.772690
  0
LINE
  8
0
 10
-201.227234
 20
-85.570717
 11
-197.961273
 21
-82.304749
  0
LINE
  8
0
 10
-195.570374
 20
-91.227493
 11
-192.304413
 21
-87.961533
  0
LINE
  8
0
 10
-197.961334
 20
-82.304619
 11
-193.499878
 21
-83.500061
  0
LINE
  8
0
 10
-200.031876
 20
-90.032013
 11
-195.570496
 21
-91.227440
  0
LINE
  8
0
 10
-192.304550
 20
-87.961487
 11
-193.499985
 21
-83.500092
  0
LINE
  8
0
 10
-200.031921
 20
-90.032028
 11
-201.227341
 21
-85.570641
  0
LINE
  8
0
 10
-264.429382
 20
-91.227234
 11
-267.695343
 21
-87.961266
  0
LINE
  8
0
 10
-258.772461
 20
-85.570435
 11
-262.038483
 21
-82.304428
  0
LINE
  8
0
 10
-267.695679
 20
-87.961349
 11
-266.500244
 21
-83.499954
  0
LINE
  8
0
 10
-259.968048
 20
-90.031898
 11
-258.772614
 21
-85.570511
  0
LINE
  8
0
 10
-262.038574
 20
-82.304558
 11
-266.499969
 21
-83.499985
  0
LINE
  8
0
 10
-259.968018
 20
-90.031975
 11
-264.429413
 21
-91.227402
  0
LINE
  8
0
 10
-258.772522
 20
-154.429443
 11
-262.038513
 21
-157.695404
  0
LINE
  8
0
 10
-264.429382
 20
-148.772614
 11
-267.695374
 21
-152.038574
  0
LINE
  8
0
 10
-262.038666
 20
-157.695450
 11
-266.500122
 21
-156.500000
  0
LINE
  8
0
 10
-259.968018
 20
-149.968140
 11
-264.429474
 21
-148.772690
  0
LINE
  8
0
 10
-267.695221
 20
-152.038452
 11
-266.499817
 21
-156.499847
  0
LINE
  8
0
 10
-259.967590
 20
-149.967941
 11
-258.772156
 21
-154.429337
  0
LINE
  8
0
 10
-207.000000
 20
-110.202026
 11
-207.000000
 21
-129.797974
  0
LINE
  8
0
 10
-253.000000
 20
-110.202026
 11
-253.000000
 21
-129.797974
  0
LINE
  8
0
  6
CENTER
 62
     2
 10
-41.873260
 20
120.000000
 11
314.399994
 21
120.000000
  0
LINE
  8
0
 10
100.000000
 20
222.000000
 11
100.000000
 21
18.000000
  0
LINE
  8
0
  6
CENTER
 62
     2
 10
118.499969
 20
142.095123
 11
118.499969
 21
97.684509
  0
LINE
  8
0
 10
310.999969
 20
222.000000
 11
310.999969
 21
18.000000
  0
LINE
  8
0
 10
139.000000
 20
222.000000
 11
139.000000
 21
18.000000
  0
LINE
  8
0
 10
271.999969
 20
222.000000
 11
271.999969
 21
18.000000
  0
LINE
  8
0
 10
100.000000
 20
222.000000
 11
139.000000
 21
222.000000
  0
LINE
  8
0
  6
CENTER
 62
     2
 10
58.630562
 20
201.000000
 11
353.682465
 21
201.000000
  0
LINE
  8
0
 10
95.400002
 20
186.000000
 11
100.000000
 21
186.000000
  0
LINE
  8
0
 10
95.400002
 20
216.000000
 11
100.000000
 21
216.000000
  0
LINE
  8
0
 10
66.000000
 20
210.000000
 11
80.400002
 21
210.000000
  0
LINE
  8
0
 10
66.000000
 20
192.000000
 11
80.400002
 21
192.000000
  0
LINE
  8
0
 10
65.000000
 20
209.000000
 11
65.000000
 21
193.000000
  0
LINE
  8
0
 10
66.000000
 20
209.999985
 11
64.999977
 21
208.999969
  0
LINE
  8
0
 10
65.000008
 20
192.999954
 11
65.999985
 21
191.999969
  0
LINE
  8
0
 10
65.999985
 20
210.000000
 11
65.999985
 21
192.000000
  0
LINE
  8
0
 10
95.400002
 20
24.000000
 11
100.000000
 21
24.000000
  0
LINE
  8
0
 10
95.400002
 20
54.000000
 11
100.000000
 21
54.000000
  0
LINE
  8
0
 10
66.000000
 20
48.000000
 11
80.400002
 21
48.000000
  0
LINE
  8
0
 10
66.000000
 20
30.000000
 11
80.400002
 21
30.000000
  0
LINE
  8
0
 10
65.000000
 20
47.000000
 11
65.000000
 21
31.000000
  0
LINE
  8
0
 10
65.999962
 20
47.999996
 11
64.999962
 21
46.999992
  0
LINE
  8
0
 10
65.000069
 20
31.000015
 11
66.000084
 21
29.999992
  0
LINE
  8
0
 10
65.999985
 20
48.000000
 11
65.999985
 21
30.000000
  0
LINE
  8
0
 10
315.599976
 20
53.999939
 11
310.999969
 21
53.999939
  0
LINE
  8
0
 10
315.599976
 20
23.999939
 11
310.999969
 21
23.999939
  0
LINE
  8
0
 10
344.999969
 20
29.999939
 11
330.599976
 21
29.999939
  0
LINE
  8
0
 10
344.999969
 20
47.999939
 11
330.599976
 21
47.999939
  0
LINE
  8
0
 10
346.000000
 20
31.000000
 11
346.000000
 21
47.000000
  0
LINE
  8
0
 10
344.999878
 20
30.000156
 11
345.999878
 21
31.000158
  0
LINE
  8
0
 10
345.999878
 20
46.999931
 11
344.999847
 21
47.999954
  0
LINE
  8
0
 10
345.000000
 20
30.000000
 11
345.000000
 21
48.000000
  0
LINE
  8
0
 10
345.000000
 20
192.000000
 11
345.000000
 21
210.000000
  0
LINE
  8
0
 10
315.599976
 20
215.999939
 11
310.999969
 21
215.999939
  0
LINE
  8
0
 10
315.599976
 20
185.999939
 11
310.999969
 21
185.999939
  0
LINE
  8
0
 10
330.600006
 20
187.762817
 11
330.600006
 21
214.129028
  0
LINE
  8
0
 10
344.999969
 20
191.999939
 11
330.599976
 21
191.999939
  0
LINE
  8
0
 10
344.999969
 20
209.999939
 11
330.599976
 21
209.999939
  0
LINE
  8
0
 10
346.000000
 20
193.000000
 11
346.000000
 21
209.000000
  0
LINE
  8
0
 10
344.999817
 20
192.000015
 11
345.999847
 21
193.000046
  0
LINE
  8
0
 10
345.999756
 20
208.999954
 11
344.999786
 21
209.999939
  0
LINE
  8
0
  6
CENTER
 62
     2
 10
58.630562
 20
39.000000
 11
351.216583
 21
39.000000
  0
LINE
  8
0
 10
139.000000
 20
192.000000
 11
271.999969
 21
192.000000
  0
LINE
  8
0
 10
139.000000
 20
210.000000
 11
271.999969
 21
210.000000
  0
LINE
  8
0
 10
139.000000
 20
30.000000
 11
271.999969
 21
30.000000
  0
LINE
  8
0
 10
139.000000
 20
48.000000
 11
271.999969
 21
48.000000
  0
LINE
  8
0
 10
271.999969
 20
222.000000
 11
310.999969
 21
222.000000
  0
LINE
  8
0
 10
100.000000
 20
18.000000
 11
139.000000
 21
18.000000
  0
LINE
  8
0
 10
271.999969
 20
18.000000
 11
310.999969
 21
18.000000
  0
LINE
  8
0
 10
139.000000
 20
23.500000
 11
271.999969
 21
23.500000
  0
LINE
  8
0
 10
139.000000
 20
216.500000
 11
271.999969
 21
216.500000
  0
LINE
  8
0
 62
     2
 10
65.000000
 20
31.400024
 11
80.400002
 21
31.400024
  0
LINE
  8
0
 62
     2
 10
65.000000
 20
46.599976
 11
80.400002
 21
46.599976
  0
LINE
  8
0
 62
     2
 10
65.000000
 20
193.400024
 11
80.400002
 21
193.400024
  0
LINE
  8
0
 62
     2
 10
65.000000
 20
208.599976
 11
80.400002
 21
208.599976
  0
LINE
  8
0
 62
     2
 10
346.000000
 20
208.599976
 11
330.599976
 21
208.599976
  0
LINE
  8
0
 62
     2
 10
346.000000
 20
193.399963
 11
330.599976
 21
193.399963
  0
LINE
  8
0
 62
     2
 10
346.000000
 20
31.399963
 11
330.599976
 21
31.399963
  0
LINE
  8
0
 62
     2
 10
346.000000
 20
46.599976
 11
330.599976
 21
46.599976
  0
LINE
  8
0
 10
90.000000
 20
176.500000
 11
90.000000
 21
63.500000
  0
LINE
  8
0
 10
91.000000
 20
177.500000
 11
91.000000
 21
62.500000
  0
LINE
  8
0
 10
91.000000
 20
62.500000
 11
100.000000
 21
62.500000
  0
LINE
  8
0
 10
91.000000
 20
177.500000
 11
100.000000
 21
177.500000
  0
LINE
  8
0
 10
89.999969
 20
176.500000
 11
90.999969
 21
177.500000
  0
LINE
  8
0
 10
90.000008
 20
63.499985
 11
91.000023
 21
62.499966
  0
LINE
  8
0
 10
60.000000
 20
153.000000
 11
60.000000
 21
87.000000
  0
LINE
  8
0
 10
87.000000
 20
166.000000
 11
87.000000
 21
161.234009
  0
LINE
  8
0
 10
88.000000
 20
167.000000
 11
90.000000
 21
167.000000
  0
LINE
  8
0
 10
88.000000
 20
73.000000
 11
90.000000
 21
73.000000
  0
LINE
  8
0
 10
80.000023
 20
154.740555
 11
61.038475
 21
154.038269
  0
LINE
  8
0
 10
61.038448
 20
85.961533
 11
79.999977
 21
85.259254
  0
LINE
  8
0
 10
81.000000
 20
94.765991
 11
90.000000
 21
94.765991
  0
LINE
  8
0
 10
81.000000
 20
78.765991
 11
90.000000
 21
78.765991
  0
LINE
  8
0
 10
80.000000
 20
93.765991
 11
80.000000
 21
79.765991
  0
LINE
  8
0
 10
79.999977
 20
93.766060
 11
80.999977
 21
94.766060
  0
LINE
  8
0
 10
80.999969
 20
78.766006
 11
79.999985
 21
79.765984
  0
LINE
  8
0
 10
81.000000
 20
94.765991
 11
81.000000
 21
78.765991
  0
LINE
  8
0
 10
81.000000
 20
145.234009
 11
90.000000
 21
145.234009
  0
LINE
  8
0
 10
80.000000
 20
160.234009
 11
80.000000
 21
146.234009
  0
LINE
  8
0
 10
80.999985
 20
145.233917
 11
79.999985
 21
146.233917
  0
LINE
  8
0
 10
81.000000
 20
161.234009
 11
81.000000
 21
145.234009
  0
LINE
  8
0
 10
79.999992
 20
160.233948
 11
80.999992
 21
161.233963
  0
LINE
  8
0
 10
81.000000
 20
161.234009
 11
90.000000
 21
161.234009
  0
LINE
  8
0
 10
87.000000
 20
78.765991
 11
87.000000
 21
74.000000
  0
LINE
  8
0
 10
87.000000
 20
145.234009
 11
87.000000
 21
94.765991
  0
LINE
  8
0
 10
-35.000000
 20
141.750000
 11
-35.000000
 21
98.250000
  0
LINE
  8
0
 10
60.000000
 20
152.999969
 11
61.038456
 21
154.038422
  0
LINE
  8
0
 10
59.999893
 20
86.999931
 11
61.038372
 21
85.961456
  0
LINE
  8
0
 10
61.038452
 20
154.038452
 11
61.038452
 21
85.961548
  0
LINE
  8
0
 10
-34.250000
 20
97.500000
 11
31.000000
 21
97.500000
  0
LINE
  8
0
 10
28.000000
 20
142.500000
 11
28.000000
 21
97.500000
  0
LINE
  8
0
 10
31.000000
 20
142.500000
 11
31.000000
 21
97.500000
  0
LINE
  8
0
 10
49.154701
 20
145.000000
 11
60.000000
 21
145.000000
  0
LINE
  8
0
 10
30.999950
 20
142.500076
 11
31.865902
 21
143.000031
  0
LINE
  8
0
 10
-34.250000
 20
142.500000
 11
31.000000
 21
142.500000
  0
LINE
  8
0
 10
35.330124
 20
97.000000
 11
35.330124
 21
143.000000
  0
LINE
  8
0
 62
     2
 10
-35.000000
 20
141.750000
 11
28.000000
 21
141.750000
  0
LINE
  8
0
 62
     2
 10
27.999998
 20
141.749969
 11
29.607237
 21
142.500015
  0
LINE
  8
0
 10
-34.999981
 20
141.750000
 11
-34.249992
 21
142.499969
  0
LINE
  8
0
 10
-34.250000
 20
142.500000
 11
-34.250000
 21
97.500000
  0
LINE
  8
0
 10
-34.999874
 20
98.250092
 11
-34.249866
 21
97.500092
  0
LINE
  8
0
 62
     2
 10
-35.000000
 20
98.250000
 11
28.000000
 21
98.250000
  0
LINE
  8
0
 62
     2
 10
28.000017
 20
98.250053
 11
29.607241
 21
97.500015
  0
LINE
  8
0
 10
31.865913
 20
143.000000
 11
48.000000
 21
143.000000
  0
LINE
  8
0
 10
48.000008
 20
143.000000
 11
49.154701
 21
144.999985
  0
LINE
  8
0
 10
49.154701
 20
95.000000
 11
60.000000
 21
95.000000
  0
LINE
  8
0
 10
48.000008
 20
97.000015
 11
49.154705
 21
95.000031
  0
LINE
  8
0
 10
31.865913
 20
97.000000
 11
48.000000
 21
97.000000
  0
LINE
  8
0
 10
30.999973
 20
97.499985
 11
31.865925
 21
97.000015
  0
LINE
  8
0
 10
80.400002
 20
214.500000
 11
95.400002
 21
214.500000
  0
LINE
  8
0
 10
81.605774
 20
201.000000
 11
95.400002
 21
201.000000
  0
LINE
  8
0
 10
80.400002
 20
214.500000
 11
80.400002
 21
187.500000
  0
LINE
  8
0
 10
80.400002
 20
187.500000
 11
95.400002
 21
187.500000
  0
LINE
  8
0
 10
95.400002
 20
216.000000
 11
95.400002
 21
186.000000
  0
LINE
  8
0
 10
330.599976
 20
214.500000
 11
315.599976
 21
214.500000
  0
LINE
  8
0
 10
329.394196
 20
201.000000
 11
315.599976
 21
201.000000
  0
LINE
  8
0
 10
330.599976
 20
214.500000
 11
330.599976
 21
187.500000
  0
LINE
  8
0
 10
330.599976
 20
187.500000
 11
315.599976
 21
187.500000
  0
LINE
  8
0
 10
315.599976
 20
216.000000
 11
315.599976
 21
186.000000
  0
LINE
  8
0
 10
80.400002
 20
25.500000
 11
95.400002
 21
25.500000
  0
LINE
  8
0
 10
81.605774
 20
39.000000
 11
95.400002
 21
39.000000
  0
LINE
  8
0
 10
80.400002
 20
25.500000
 11
80.400002
 21
52.500000
  0
LINE
  8
0
 10
80.400002
 20
52.500000
 11
95.400002
 21
52.500000
  0
LINE
  8
0
 10
95.400002
 20
24.000000
 11
95.400002
 21
54.000000
  0
LINE
  8
0
 10
330.599976
 20
25.500000
 11
315.599976
 21
25.500000
  0
LINE
  8
0
 10
329.394196
 20
39.000000
 11
315.599976
 21
39.000000
  0
LINE
  8
0
 10
330.599976
 20
25.500000
 11
330.599976
 21
52.500000
  0
LINE
  8
0
 10
330.599976
 20
52.500000
 11
315.599976
 21
52.500000
  0
LINE
  8
0
 10
315.599976
 20
24.000000
 11
315.599976
 21
54.000000
  0
LINE
  8
0
  6
CENTER
 62
     2
 10
292.499969
 20
142.095123
 11
292.499969
 21
97.684509
  0
CIRCLE
  8
0
 10
118.500000
 20
-120.000000
 40
7.950000
  0
CIRCLE
  8
0
 10
292.499969
 20
-120.000000
 40
7.950000
  0
CIRCLE
  8
0
 10
118.500000
 20
-120.000000
 40
5.150000
  0
CIRCLE
  8
0
 10
292.499969
 20
-120.000000
 40
5.150000
  0
ARC
  8
0
 10
86.478134
 20
-50.685120
 40
6.078137
 50
140.243698
 51
220.001770
  0
ARC
  8
0
 10
86.650482
 20
-27.301941
 40
6.250495
 50
141.551331
 51
218.694305
  0
ARC
  8
0
 10
102.967087
 20
-38.958374
 40
22.567135
 50
159.917755
 51
200.327774
  0
ARC
  8
0
 10
86.478134
 20
-212.685120
 40
6.078140
 50
140.243668
 51
220.001709
  0
ARC
  8
0
 10
86.650482
 20
-189.301941
 40
6.250496
 50
141.551315
 51
218.694321
  0
ARC
  8
0
 10
102.967087
 20
-200.958374
 40
22.567137
 50
159.917740
 51
200.327774
  0
ARC
  8
0
 10
324.521820
 20
-189.314880
 40
6.078140
 50
320.243683
 51
40.001816
  0
ARC
  8
0
 10
324.349487
 20
-212.698059
 40
6.250496
 50
321.551331
 51
38.694408
  0
ARC
  8
0
 10
308.032867
 20
-201.041626
 40
22.567133
 50
339.917786
 51
20.327818
  0
ARC
  8
0
 10
324.349487
 20
-50.698059
 40
6.250494
 50
321.551331
 51
38.694408
  0
ARC
  8
0
 10
308.032867
 20
-39.041626
 40
22.567133
 50
339.917786
 51
20.327805
  0
ARC
  8
0
 10
324.521820
 20
-27.314880
 40
6.078137
 50
320.243713
 51
40.001778
  0
ARC
  8
0
 10
88.000000
 20
-166.000000
 40
1.000000
 50
180.000000
 51
270.000000
  0
ARC
  8
0
 10
88.000000
 20
-74.000000
 40
1.000000
 50
90.000000
 51
180.000000
  0
ARC
  8
0
 10
47.454468
 20
-120.000000
 40
15.588446
 50
141.057571
 51
218.942398
  0
ARC
  8
0
 10
16.750000
 20
-120.000000
 40
32.749996
 50
0.000000
 51
17.408018
  0
ARC
  8
0
 10
16.750000
 20
-120.000000
 40
32.749996
 50
342.591980
 51
0.000000
  0
CIRCLE
  8
0
 10
-311.000000
 20
-39.000000
 40
9.000000
  0
CIRCLE
  8
0
 10
-311.000000
 20
-39.000000
 40
13.000000
  0
CIRCLE
  8
0
 10
-149.000000
 20
-39.000000
 40
9.000000
  0
CIRCLE
  8
0
 10
-149.000000
 20
-39.000000
 40
13.000000
  0
CIRCLE
  8
0
 10
-149.000000
 20
-201.000000
 40
9.000000
  0
CIRCLE
  8
0
 10
-149.000000
 20
-201.000000
 40
13.000000
  0
CIRCLE
  8
0
 10
-311.000000
 20
-201.000000
 40
9.000000
  0
CIRCLE
  8
0
 10
-311.000000
 20
-201.000000
 40
13.000000
  0
CIRCLE
  8
0
 62
     2
 10
-149.000000
 20
-39.000000
 40
7.600000
  0
CIRCLE
  8
0
 62
     2
 10
-311.000000
 20
-39.000000
 40
7.600000
  0
CIRCLE
  8
0
 62
     2
 10
-311.000000
 20
-201.000000
 40
7.600000
  0
CIRCLE
  8
0
 62
     2
 10
-149.000000
 20
-201.000000
 40
7.600000
  0
CIRCLE
  8
0
 10
-230.000000
 20
-120.000000
 40
57.500000
  0
ARC
  8
0
 10
-196.766022
 20
-153.234070
 40
10.000008
 50
56.944412
 51
213.055389
  0
CIRCLE
  8
0
 10
-196.766022
 20
-153.234070
 40
8.000000
  0
CIRCLE
  8
0
 10
-196.765930
 20
-86.765991
 40
8.000000
  0
CIRCLE
  8
0
 10
-263.233978
 20
-86.765930
 40
8.000000
  0
CIRCLE
  8
0
 10
-263.234070
 20
-153.234009
 40
8.000000
  0
ARC
  8
0
 10
-190.765991
 20
-95.985596
 40
0.999995
 50
31.470470
 51
123.055977
  0
ARC
  8
0
 10
-190.766052
 20
-144.014526
 40
1.000009
 50
236.944504
 51
328.530365
  0
ARC
  8
0
 10
-230.000000
 20
-120.000000
 40
46.999996
 50
328.529846
 51
31.470057
  0
ARC
  8
0
 10
-196.765930
 20
-86.765991
 40
9.999995
 50
146.944366
 51
303.055420
  0
ARC
  8
0
 10
-205.985474
 20
-80.766052
 40
1.000005
 50
326.944855
 51
58.530128
  0
ARC
  8
0
 10
-230.000000
 20
-120.000000
 40
46.999996
 50
58.529835
 51
121.470055
  0
ARC
  8
0
 10
-254.014404
 20
-80.765991
 40
1.000006
 50
121.470619
 51
213.055969
  0
ARC
  8
0
 10
-263.233978
 20
-86.765930
 40
10.000001
 50
236.944382
 51
33.055431
  0
ARC
  8
0
 10
-269.233948
 20
-95.985474
 40
0.999994
 50
56.944996
 51
148.529907
  0
ARC
  8
0
 10
-230.000000
 20
-120.000000
 40
47.000011
 50
148.529846
 51
211.470062
  0
ARC
  8
0
 10
-269.234009
 20
-144.014404
 40
0.999999
 50
211.470840
 51
303.056702
  0
ARC
  8
0
 10
-263.234070
 20
-153.234009
 40
10.000008
 50
326.944397
 51
123.055397
  0
ARC
  8
0
 10
-254.014526
 20
-159.233948
 40
1.000009
 50
146.944504
 51
238.530365
  0
ARC
  8
0
 10
-230.000000
 20
-120.000000
 40
46.999996
 50
238.529831
 51
301.470062
  0
ARC
  8
0
 10
-205.985596
 20
-159.234009
 40
0.999999
 50
301.470856
 51
33.055973
  0
CIRCLE
  8
0
 10
-230.000000
 20
-120.000000
 40
25.000000
  0
CIRCLE
  8
0
 10
-230.000000
 20
-120.000000
 40
22.500000
  0
CIRCLE
  8
0
 10
-230.000000
 20
-120.000000
 40
35.000000
  0
CIRCLE
  8
0
 62
     2
 10
-230.000000
 20
-120.000000
 40
21.750000
  0
ARC
  8
0
 10
88.000000
 20
74.000000
 40
1.000000
 50
180.000000
 51
270.000000
  0
ARC
  8
0
 10
88.000000
 20
166.000000
 40
1.000000
 50
90.000000
 51
180.000000
  0
ARC
  8
0
 10
99.896393
 20
207.750000
 40
19.496397
 50
159.743851
 51
200.256104
  0
ARC
  8
0
 10
99.896393
 20
194.250000
 40
19.496395
 50
159.743790
 51
200.256058
  0
ARC
  8
0
 10
311.103577
 20
207.750000
 40
19.496391
 50
339.743835
 51
20.256119
  0
ARC
  8
0
 10
311.103577
 20
194.250000
 40
19.496386
 50
339.743896
 51
20.256161
  0
ARC
  8
0
 10
99.896393
 20
32.250000
 40
19.496395
 50
159.743805
 51
200.256058
  0
ARC
  8
0
 10
99.896393
 20
45.750000
 40
19.496395
 50
159.743866
 51
200.256119
  0
ARC
  8
0
 10
311.103577
 20
32.250000
 40
19.496389
 50
339.743835
 51
20.256107
  0
ARC
  8
0
 10
311.103577
 20
45.750000
 40
19.496395
 50
339.743805
 51
20.256056
  0
CIRCLE
  8
0
 62
     2
 10
292.499969
 20
120.000000
 40
13.220500
  0
CIRCLE
  8
0
 10
292.499969
 20
120.000000
 40
12.058500
  0
CIRCLE
  8
0
 62
     2
 10
118.500000
 20
120.000000
 40
13.220500
  0
CIRCLE
  8
0
 10
118.500000
 20
120.000000
 40
12.058500
  0
TEXT
  8
0
 10
-369.785309
 20
256.649994
 40
9.000000
  1
SD CYLINDER
 50
0.000000
 41
1.052632
 51
0.000000
  7
STANDARD
  0
TEXT
  8
0
 10
242.014816
 20
-274.500000
 40
12.500000
  1
KOGANEI CORP.
 50
0.000000
 41
1.052632
 51
0.000000
  7
STANDARD
  0
TEXT
  8
0
 10
251.264664
 20
256.649994
 40
9.000000
  1
DATE: AUG ,1993
 50
0.000000
 41
1.052632
 51
0.000000
  7
STANDARD
  0
TEXT
  8
0
 10
-384.785309
 20
224.149994
 40
9.000000
  1
MODEL:KA0SDZ180*100
 50
0.000000
 41
1.052632
 51
0.000000
  7
STANDARD
  0
ENDSEC
  0
EOF
