  0
SECTION
  2
HEADER
  0
ENDSEC
  0
SECTION
  2
TABLES
  0
TABLE
  2
LTYPE
 70
     4
  0
LTYPE
  2
CONTINUOUS
 70
    64
  3
Solid line
 72
    65
 73
     0
 40
0.000000
  0
LTYPE
  2
DASHED
 70
    64
  3
__ __ __ __ __ __ __ __ __ __ __ __ __ __ __
 72
    65
 73
     2
 40
3.500000
 49
2.000000
 49
-1.500000
  0
LTYPE
  2
CENTER
 70
    64
  3
____ _ ____ _ ____ _ ____ _ ____ _ ____ _ ____
 72
    65
 73
     4
 40
17.500000
 49
13.000000
 49
-1.500000
 49
1.500000
 49
-1.500000
  0
LTYPE
  2
PHANTOM
 70
    64
  3
_____ _ _ _____ _ _ _____ _ _ _____ _ _ ____  
 72
    65
 73
     6
 40
15.500000
 49
8.000000
 49
-1.500000
 49
1.500000
 49
-1.500000
 49
1.500000
 49
-1.500000
  0
LTYPE
  2
DASHED1
 70
    64
  3
__ __ __ __ __ __ __ __ __ __ __ __ __ __ __
 72
    65
 73
     2
 40
1.500000
 49
1.000000
 49
-0.500000
  0
LTYPE
  2
DASHED2
 70
    64
  3
__ __ __ __ __ __ __ __ __ __ __ __ __ __ __
 72
    65
 73
     2
 40
3.500000
 49
2.500000
 49
-1.000000
  0
LTYPE
  2
DASHED3
 70
    64
  3
__ __ __ __ __ __ __ __ __ __ __ __ __ __ __
 72
    65
 73
     2
 40
6.000000
 49
4.000000
 49
-2.000000
  0
LTYPE
  2
DASHED4
 70
    64
  3
__ __ __ __ __ __ __ __ __ __ __ __ __ __ __
 72
    65
 73
     2
 40
12.000000
 49
10.000000
 49
-2.000000
  0
LTYPE
  2
DASHED5
 70
    64
  3
__ __ __ __ __ __ __ __ __ __ __ __ __ __ __
 72
    65
 73
     2
 40
17.000000
 49
15.000000
 49
-2.000000
  0
LTYPE
  2
DASHED6
 70
    64
  3
__ __ __ __ __ __ __ __ __ __ __ __ __ __ __
 72
    65
 73
     2
 40
29.000000
 49
27.000000
 49
-2.000000
  0
LTYPE
  2
PHANTOM1
 70
    64
  3
_____ _ _ _____ _ _ _____ _ _ _____ _ _ ____  
 72
    65
 73
     6
 40
31.000000
 49
25.000000
 49
-1.500000
 49
1.000000
 49
-1.000000
 49
1.000000
 49
-1.500000
  0
LTYPE
  2
PHANTOM2
 70
    64
  3
_____ _ _ _____ _ _ _____ _ _ _____ _ _ ____  
 72
    65
 73
     6
 40
36.000000
 49
27.000000
 49
-1.500000
 49
2.500000
 49
-1.000000
 49
2.500000
 49
-1.500000
  0
LTYPE
  2
PHANTOM3
 70
    64
  3
_____ _ _ _____ _ _ _____ _ _ _____ _ _ ____  
 72
    65
 73
     6
 40
78.000000
 49
64.000000
 49
-2.000000
 49
4.000000
 49
-2.000000
 49
4.000000
 49
-2.000000
  0
LTYPE
  2
CENTER1
 70
    64
  3
____ _ ____ _ ____ _ ____ _ ____ _ ____ _ ____
 72
    65
 73
     4
 40
19.000000
 49
14.000000
 49
-1.000000
 49
3.000000
 49
-1.000000
  0
LTYPE
  2
CENTER2
 70
    64
  3
____ _ ____ _ ____ _ ____ _ ____ _ ____ _ ____
 72
    65
 73
     4
 40
28.500000
 49
25.000000
 49
-1.000000
 49
1.500000
 49
-1.000000
  0
LTYPE
  2
CENTER3
 70
    64
  3
____ _ ____ _ ____ _ ____ _ ____ _ ____ _ ____
 72
    65
 73
     4
 40
31.500000
 49
27.000000
 49
-1.000000
 49
2.500000
 49
-1.000000
  0
LTYPE
  2
CENTER4
 70
    64
  3
____ _ ____ _ ____ _ ____ _ ____ _ ____ _ ____
 72
    65
 73
     4
 40
50.000000
 49
45.000000
 49
-1.000000
 49
3.000000
 49
-1.000000
  0
LTYPE
  2
CENTER5
 70
    64
  3
____ _ ____ _ ____ _ ____ _ ____ _ ____ _ ____
 72
    65
 73
     4
 40
100.000000
 49
92.000000
 49
-2.000000
 49
4.000000
 49
-2.000000
  0
LTYPE
  2
SBK1
 70
    64
  3
______ _ _ _ ______ _ _ _ ______ _ _ _ _____  
 72
    65
 73
     8
 40
60.500000
 49
45.000000
 49
-2.000000
 49
2.500000
 49
-2.000000
 49
2.500000
 49
-2.000000
 49
2.500000
 49
-2.000000
  0
LTYPE
  2
SBK2
 70
    64
  3
______ _ _ _ ______ _ _ _ ______ _ _ _ _____  
 72
    65
 73
     8
 40
84.000000
 49
64.000000
 49
-2.000000
 49
4.000000
 49
-2.000000
 49
4.000000
 49
-2.000000
 49
4.000000
 49
-2.000000
  0
LTYPE
  2
STCH
 70
    64
  3
__ __ __ __ __ __ __ __ __ __ __ __ __ __ __
 72
    65
 73
     2
 40
3.000000
 49
1.000000
 49
-2.000000
  0
LTYPE
  2
MTCH
 70
    64
  3
_____ _ _ _____ _ _ _____ _ _ _____ _ _ ____  
 72
    65
 73
     6
 40
80.000000
 49
66.000000
 49
-2.000000
 49
4.000000
 49
-2.000000
 49
4.000000
 49
-2.000000
  0
ENDTAB
  0
TABLE
  2
LAYER
 70
     1
  0
LAYER
  2
0
 70
     0
 62
     7
  6
CONTINUOUS
  0
ENDTAB
  0
TABLE
  2
STYLE
 70
     1
  0
STYLE
  2
STANDARD
 70
     0
 40
0.000000
 41
1.000000
 50
0.000000
 71
     0
 42
0.200000
  3
txt
  4
BIGFONT
  0
ENDTAB
  0
TABLE
  2
VIEW
 70
     0
  0
ENDTAB
  0
ENDSEC
  0
SECTION
  2
BLOCKS
  0
ENDSEC
  0
SECTION
  2
ENTITIES
  0
LINE
  8
0
 10
399.799988
 20
276.250000
 11
399.799988
 21
-276.750000
  0
LINE
  8
0
 10
-399.250000
 20
276.250000
 11
-399.250000
 21
-276.750000
  0
LINE
  8
0
 10
-399.250000
 20
276.250000
 11
399.799988
 21
276.250000
  0
LINE
  8
0
 10
-399.250000
 20
-276.750000
 11
399.799988
 21
-276.750000
  0
LINE
  8
0
 10
239.799988
 20
-251.750000
 11
399.799988
 21
-251.750000
  0
LINE
  8
0
 10
239.799988
 20
251.250000
 11
399.799988
 21
251.250000
  0
LINE
  8
0
 10
-399.250000
 20
251.250000
 11
-239.250000
 21
251.250000
  0
LINE
  8
0
 10
239.799988
 20
-251.750000
 11
239.799988
 21
-276.750000
  0
LINE
  8
0
 10
239.799988
 20
251.250000
 11
239.799988
 21
276.250000
  0
LINE
  8
0
 10
-239.250000
 20
276.250000
 11
-239.250000
 21
251.250000
  0
LINE
  8
0
 10
100.000000
 20
-17.000000
 11
100.000000
 21
-243.000000
  0
LINE
  8
0
  6
CENTER
 62
     2
 10
118.500000
 20
-13.534714
 11
118.500000
 21
-141.300003
  0
LINE
  8
0
 10
287.404907
 20
-129.250000
 11
297.595093
 21
-129.250000
  0
LINE
  8
0
 10
287.404907
 20
-130.750000
 11
297.595093
 21
-130.750000
  0
LINE
  8
0
  6
CENTER
 62
     2
 10
292.500000
 20
-13.585709
 11
292.500000
 21
-140.202637
  0
LINE
  8
0
 10
311.000000
 20
-17.000000
 11
311.000000
 21
-243.000000
  0
LINE
  8
0
 10
113.404907
 20
-129.250000
 11
123.595093
 21
-129.250000
  0
LINE
  8
0
 10
113.404907
 20
-130.750000
 11
123.595093
 21
-130.750000
  0
LINE
  8
0
 10
139.000000
 20
-17.000000
 11
139.000000
 21
-243.000000
  0
LINE
  8
0
 10
272.000000
 20
-17.000000
 11
272.000000
 21
-243.000000
  0
LINE
  8
0
  6
DASHED
 62
     2
 10
305.721558
 20
-17.000072
 11
305.229065
 21
-31.100086
  0
LINE
  8
0
  6
DASHED
 62
     2
 10
279.771942
 20
-31.100073
 11
279.279266
 21
-17.000065
  0
LINE
  8
0
  6
DASHED
 62
     2
 10
281.000000
 20
-18.500000
 11
304.000000
 21
-18.500000
  0
LINE
  8
0
  6
DASHED
 62
     2
 10
281.000000
 20
-18.500000
 11
281.000000
 21
-31.100006
  0
LINE
  8
0
  6
DASHED
 62
     2
 10
304.000000
 20
-18.500000
 11
304.000000
 21
-31.100006
  0
LINE
  8
0
  6
DASHED
 62
     2
 10
305.720673
 20
-17.000179
 11
304.000214
 21
-18.500160
  0
LINE
  8
0
  6
DASHED
 62
     2
 10
279.279999
 20
-16.999405
 11
281.000488
 21
-18.499407
  0
LINE
  8
0
  6
DASHED
 62
     2
 10
105.279808
 20
-16.999664
 11
107.000298
 21
-18.499666
  0
LINE
  8
0
  6
DASHED
 62
     2
 10
131.721008
 20
-17.000048
 11
131.228516
 21
-31.100061
  0
LINE
  8
0
  6
DASHED
 62
     2
 10
105.772087
 20
-31.100033
 11
105.279427
 21
-17.000017
  0
LINE
  8
0
  6
DASHED
 62
     2
 10
107.000000
 20
-18.500000
 11
130.000000
 21
-18.500000
  0
LINE
  8
0
  6
DASHED
 62
     2
 10
107.000000
 20
-18.500000
 11
107.000000
 21
-31.100006
  0
LINE
  8
0
  6
DASHED
 62
     2
 10
130.000000
 20
-18.500000
 11
130.000000
 21
-31.100006
  0
LINE
  8
0
  6
DASHED
 62
     2
 10
131.720459
 20
-16.999975
 11
129.999969
 21
-18.499977
  0
LINE
  8
0
 10
100.000000
 20
-17.000000
 11
139.000000
 21
-17.000000
  0
LINE
  8
0
 10
100.000000
 20
-243.000000
 11
139.000000
 21
-243.000000
  0
LINE
  8
0
 10
272.000000
 20
-17.000000
 11
311.000000
 21
-17.000000
  0
LINE
  8
0
 10
272.000000
 20
-243.000000
 11
311.000000
 21
-243.000000
  0
LINE
  8
0
  6
CENTER
 62
     2
 10
61.969086
 20
-221.000000
 11
348.979858
 21
-221.000000
  0
LINE
  8
0
  6
CENTER
 62
     2
 10
61.969086
 20
-39.000000
 11
348.979858
 21
-39.000000
  0
LINE
  8
0
 10
345.000000
 20
-49.000153
 11
332.099976
 21
-49.000153
  0
LINE
  8
0
 10
345.000000
 20
-29.000153
 11
332.099976
 21
-29.000153
  0
LINE
  8
0
 10
346.000000
 20
-48.000000
 11
346.000000
 21
-30.000000
  0
LINE
  8
0
 10
345.000000
 20
-49.000000
 11
345.000000
 21
-29.000000
  0
LINE
  8
0
 10
344.999847
 20
-48.999851
 11
345.999817
 21
-47.999870
  0
LINE
  8
0
 10
345.999847
 20
-30.000177
 11
344.999817
 21
-29.000154
  0
LINE
  8
0
 10
316.100006
 20
-56.320496
 11
316.100006
 21
-21.679504
  0
LINE
  8
0
 10
316.100006
 20
-22.500153
 11
311.000000
 21
-22.500153
  0
LINE
  8
0
 10
316.100006
 20
-55.500153
 11
311.000000
 21
-55.500153
  0
LINE
  8
0
 10
330.471558
 20
-56.320648
 11
316.100006
 21
-56.320648
  0
LINE
  8
0
 10
330.471558
 20
-21.679657
 11
316.100006
 21
-21.679657
  0
LINE
  8
0
 10
332.099976
 20
-53.500000
 11
332.099976
 21
-24.500000
  0
LINE
  8
0
 10
330.599976
 20
-47.660400
 11
316.100006
 21
-47.660400
  0
LINE
  8
0
 10
330.471558
 20
-30.339905
 11
316.100006
 21
-30.339905
  0
LINE
  8
0
 10
332.100281
 20
-53.500206
 11
330.471863
 21
-56.320709
  0
LINE
  8
0
 10
332.100037
 20
-24.499947
 11
330.471619
 21
-21.679443
  0
LINE
  8
0
 10
78.900055
 20
-53.499947
 11
80.528465
 21
-56.320435
  0
LINE
  8
0
 10
66.000000
 20
-29.000000
 11
78.899994
 21
-29.000000
  0
LINE
  8
0
 10
66.000000
 20
-49.000000
 11
78.899994
 21
-49.000000
  0
LINE
  8
0
 10
65.000000
 20
-30.000000
 11
65.000000
 21
-48.000000
  0
LINE
  8
0
 10
66.000000
 20
-29.000000
 11
66.000000
 21
-49.000000
  0
LINE
  8
0
 10
66.000000
 20
-28.999985
 11
64.999992
 21
-29.999987
  0
LINE
  8
0
 10
64.999962
 20
-48.000019
 11
65.999962
 21
-49.000023
  0
LINE
  8
0
 10
94.899994
 20
-21.679504
 11
94.899994
 21
-56.320496
  0
LINE
  8
0
 10
94.899994
 20
-55.500000
 11
100.000000
 21
-55.500000
  0
LINE
  8
0
 10
94.899994
 20
-22.500000
 11
100.000000
 21
-22.500000
  0
LINE
  8
0
 10
80.528412
 20
-21.679504
 11
94.899994
 21
-21.679504
  0
LINE
  8
0
 10
80.528412
 20
-56.320496
 11
94.899994
 21
-56.320496
  0
LINE
  8
0
 10
78.899994
 20
-24.500000
 11
78.899994
 21
-53.500000
  0
LINE
  8
0
 10
80.399994
 20
-30.339752
 11
94.899994
 21
-30.339752
  0
LINE
  8
0
 10
80.528412
 20
-47.660248
 11
94.899994
 21
-47.660248
  0
LINE
  8
0
 10
78.900017
 20
-24.500011
 11
80.528435
 21
-21.679510
  0
LINE
  8
0
 10
78.900024
 20
-235.499969
 11
80.528442
 21
-238.320465
  0
LINE
  8
0
 10
66.000000
 20
-211.000000
 11
78.899994
 21
-211.000000
  0
LINE
  8
0
 10
66.000000
 20
-231.000000
 11
78.899994
 21
-231.000000
  0
LINE
  8
0
 10
65.000000
 20
-212.000000
 11
65.000000
 21
-230.000000
  0
LINE
  8
0
 10
66.000000
 20
-211.000000
 11
66.000000
 21
-231.000000
  0
LINE
  8
0
 10
65.999901
 20
-210.999939
 11
64.999901
 21
-211.999939
  0
LINE
  8
0
 10
65.000000
 20
-229.999985
 11
66.000000
 21
-230.999985
  0
LINE
  8
0
 10
94.899994
 20
-203.679504
 11
94.899994
 21
-238.320496
  0
LINE
  8
0
 10
94.899994
 20
-237.500000
 11
100.000000
 21
-237.500000
  0
LINE
  8
0
 10
94.899994
 20
-204.500000
 11
100.000000
 21
-204.500000
  0
LINE
  8
0
 10
80.528412
 20
-203.679504
 11
94.899994
 21
-203.679504
  0
LINE
  8
0
 10
80.528412
 20
-238.320496
 11
94.899994
 21
-238.320496
  0
LINE
  8
0
 10
78.899994
 20
-206.500000
 11
78.899994
 21
-235.500000
  0
LINE
  8
0
 10
80.399994
 20
-212.339752
 11
94.899994
 21
-212.339752
  0
LINE
  8
0
 10
80.528412
 20
-229.660248
 11
94.899994
 21
-229.660248
  0
LINE
  8
0
 10
78.900017
 20
-206.500031
 11
80.528427
 21
-203.679535
  0
LINE
  8
0
 10
345.000000
 20
-231.000153
 11
332.099976
 21
-231.000153
  0
LINE
  8
0
 10
345.000000
 20
-211.000153
 11
332.099976
 21
-211.000153
  0
LINE
  8
0
 10
346.000000
 20
-230.000000
 11
346.000000
 21
-212.000000
  0
LINE
  8
0
 10
345.000000
 20
-231.000000
 11
345.000000
 21
-211.000000
  0
LINE
  8
0
 10
344.999756
 20
-230.999832
 11
345.999786
 21
-229.999817
  0
LINE
  8
0
 10
345.999908
 20
-212.000015
 11
344.999908
 21
-210.999985
  0
LINE
  8
0
 10
316.100006
 20
-238.320496
 11
316.100006
 21
-203.679504
  0
LINE
  8
0
 10
316.100006
 20
-204.500153
 11
311.000000
 21
-204.500153
  0
LINE
  8
0
 10
316.100006
 20
-237.500153
 11
311.000000
 21
-237.500153
  0
LINE
  8
0
 10
330.471558
 20
-238.320648
 11
316.100006
 21
-238.320648
  0
LINE
  8
0
 10
330.471558
 20
-203.679657
 11
316.100006
 21
-203.679657
  0
LINE
  8
0
 10
332.099976
 20
-235.500000
 11
332.099976
 21
-206.500000
  0
LINE
  8
0
 10
330.599976
 20
-229.660400
 11
316.100006
 21
-229.660400
  0
LINE
  8
0
 10
330.471558
 20
-212.339905
 11
316.100006
 21
-212.339905
  0
LINE
  8
0
 10
332.100586
 20
-235.500290
 11
330.472168
 21
-238.320801
  0
LINE
  8
0
 10
332.100098
 20
-206.500031
 11
330.471680
 21
-203.679535
  0
LINE
  8
0
 10
139.000000
 20
-231.000000
 11
272.000000
 21
-231.000000
  0
LINE
  8
0
 10
139.000000
 20
-211.000000
 11
272.000000
 21
-211.000000
  0
LINE
  8
0
 10
139.000000
 20
-29.000000
 11
272.000000
 21
-29.000000
  0
LINE
  8
0
 10
139.000000
 20
-49.000000
 11
272.000000
 21
-49.000000
  0
LINE
  8
0
  6
CENTER
 62
     2
 10
-50.796021
 20
-130.000000
 11
316.694366
 21
-130.000000
  0
LINE
  8
0
 10
139.000000
 20
-236.500000
 11
272.000000
 21
-236.500000
  0
LINE
  8
0
 10
139.000000
 20
-23.500000
 11
272.000000
 21
-23.500000
  0
LINE
  8
0
 62
     2
 10
65.000000
 20
-229.600006
 11
78.899994
 21
-229.600006
  0
LINE
  8
0
 62
     2
 10
65.000000
 20
-212.399994
 11
78.899994
 21
-212.399994
  0
LINE
  8
0
 62
     2
 10
65.000000
 20
-30.399994
 11
78.899994
 21
-30.399994
  0
LINE
  8
0
 62
     2
 10
65.000000
 20
-47.600006
 11
78.899994
 21
-47.600006
  0
LINE
  8
0
 62
     2
 10
346.000000
 20
-30.400146
 11
332.099976
 21
-30.400146
  0
LINE
  8
0
 62
     2
 10
346.000000
 20
-47.600159
 11
332.099976
 21
-47.600159
  0
LINE
  8
0
 62
     2
 10
346.000000
 20
-212.400146
 11
332.099976
 21
-212.400146
  0
LINE
  8
0
 62
     2
 10
346.000000
 20
-229.600143
 11
332.099976
 21
-229.600143
  0
LINE
  8
0
 10
60.000000
 20
-69.500000
 11
60.000000
 21
-190.500000
  0
LINE
  8
0
 10
61.000000
 20
-191.500000
 11
100.000000
 21
-191.500000
  0
LINE
  8
0
 10
61.000000
 20
-68.500000
 11
100.000000
 21
-68.500000
  0
LINE
  8
0
 10
60.999977
 20
-68.499985
 11
59.999981
 21
-69.499985
  0
LINE
  8
0
 10
60.000011
 20
-190.499954
 11
61.000015
 21
-191.499954
  0
LINE
  8
0
 10
61.000000
 20
-68.500000
 11
61.000000
 21
-191.500000
  0
LINE
  8
0
 10
-45.000000
 20
-103.000000
 11
-45.000000
 21
-157.000000
  0
LINE
  8
0
 10
33.464104
 20
-119.229668
 11
50.000000
 21
-119.229668
  0
LINE
  8
0
 10
33.464096
 20
-140.770325
 11
50.000000
 21
-140.770325
  0
LINE
  8
0
 10
-44.000000
 20
-158.000000
 11
30.000000
 21
-158.000000
  0
LINE
  8
0
 10
-44.000000
 20
-102.000000
 11
30.000000
 21
-102.000000
  0
LINE
  8
0
 10
33.464096
 20
-160.000000
 11
60.000000
 21
-160.000000
  0
LINE
  8
0
 10
33.464111
 20
-100.000000
 11
60.000000
 21
-100.000000
  0
LINE
  8
0
 10
26.000000
 20
-102.000000
 11
26.000000
 21
-158.000000
  0
LINE
  8
0
 10
30.000000
 20
-102.000000
 11
30.000000
 21
-158.000000
  0
LINE
  8
0
 10
50.000000
 20
-119.229668
 11
50.000000
 21
-140.770325
  0
LINE
  8
0
 10
30.000006
 20
-102.000038
 11
33.464115
 21
-100.000031
  0
LINE
  8
0
 10
29.999977
 20
-158.000061
 11
33.464077
 21
-160.000061
  0
LINE
  8
0
 10
33.464096
 20
-160.000000
 11
33.464096
 21
-140.770325
  0
LINE
  8
0
 10
33.464096
 20
-119.229668
 11
33.464096
 21
-100.000000
  0
LINE
  8
0
 62
     2
 10
50.000050
 20
-119.229721
 11
33.464153
 21
-140.770386
  0
LINE
  8
0
 62
     2
 10
49.999989
 20
-140.770309
 11
33.464111
 21
-119.229668
  0
LINE
  8
0
 62
     2
 10
-45.000000
 20
-157.000000
 11
26.000000
 21
-157.000000
  0
LINE
  8
0
 62
     2
 10
-45.000000
 20
-103.000000
 11
26.000000
 21
-103.000000
  0
LINE
  8
0
 62
     2
 10
26.000015
 20
-156.999878
 11
28.857225
 21
-157.999908
  0
LINE
  8
0
 62
     2
 10
25.999964
 20
-102.999962
 11
28.857178
 21
-101.999931
  0
LINE
  8
0
 10
-45.000011
 20
-102.999985
 11
-44.000011
 21
-101.999985
  0
LINE
  8
0
 10
-44.999897
 20
-156.999893
 11
-43.999897
 21
-157.999893
  0
LINE
  8
0
 10
-44.000000
 20
-102.000000
 11
-44.000000
 21
-158.000000
  0
LINE
  8
0
  6
CENTER
 62
     2
 10
-349.333862
 20
-130.000000
 11
-108.500000
 21
-130.000000
  0
LINE
  8
0
  6
CENTER
 62
     2
 10
-230.000000
 20
-11.086060
 11
-230.000000
 21
-250.275970
  0
LINE
  8
0
 10
-117.000000
 20
-17.000000
 11
-117.000000
 21
-243.000000
  0
LINE
  8
0
 10
-343.000000
 20
-17.000000
 11
-343.000000
 21
-243.000000
  0
LINE
  8
0
 10
-343.000000
 20
-243.000000
 11
-117.000000
 21
-243.000000
  0
LINE
  8
0
 10
-343.000000
 20
-17.000000
 11
-117.000000
 21
-17.000000
  0
LINE
  8
0
  6
CENTER
 62
     2
 10
-139.000000
 20
-202.047607
 11
-139.000000
 21
-240.263641
  0
LINE
  8
0
  6
CENTER
 62
     2
 10
-156.020538
 20
-221.000000
 11
-121.470490
 21
-221.000000
  0
LINE
  8
0
 10
-124.000000
 20
-212.339752
 11
-124.000000
 21
-229.660248
  0
LINE
  8
0
 10
-154.000000
 20
-212.339752
 11
-154.000000
 21
-229.660248
  0
LINE
  8
0
 10
-139.000092
 20
-203.679642
 11
-124.000069
 21
-212.339905
  0
LINE
  8
0
 10
-154.000046
 20
-229.660324
 11
-139.000000
 21
-238.320602
  0
LINE
  8
0
 10
-139.000015
 20
-238.320511
 11
-124.000008
 21
-229.660248
  0
LINE
  8
0
 10
-154.000046
 20
-212.339767
 11
-139.000031
 21
-203.679504
  0
LINE
  8
0
  6
CENTER
 62
     2
 10
-139.000000
 20
-20.047607
 11
-139.000000
 21
-58.263641
  0
LINE
  8
0
  6
CENTER
 62
     2
 10
-156.020538
 20
-39.000000
 11
-121.470490
 21
-39.000000
  0
LINE
  8
0
 10
-124.000000
 20
-30.339752
 11
-124.000000
 21
-47.660248
  0
LINE
  8
0
 10
-154.000000
 20
-30.339737
 11
-154.000000
 21
-47.660248
  0
LINE
  8
0
 10
-139.000015
 20
-21.679485
 11
-124.000000
 21
-30.339748
  0
LINE
  8
0
 10
-154.000031
 20
-47.660290
 11
-139.000015
 21
-56.320553
  0
LINE
  8
0
 10
-139.000061
 20
-56.320335
 11
-124.000069
 21
-47.660088
  0
LINE
  8
0
 10
-154.000076
 20
-30.339525
 11
-139.000092
 21
-21.679285
  0
LINE
  8
0
  6
CENTER
 62
     2
 10
-321.000000
 20
-202.047607
 11
-321.000000
 21
-240.263641
  0
LINE
  8
0
  6
CENTER
 62
     2
 10
-338.020508
 20
-221.000000
 11
-303.470490
 21
-221.000000
  0
LINE
  8
0
 10
-306.000000
 20
-212.339752
 11
-306.000000
 21
-229.660248
  0
LINE
  8
0
 10
-336.000000
 20
-212.339737
 11
-336.000000
 21
-229.660248
  0
LINE
  8
0
 10
-321.000092
 20
-203.679718
 11
-306.000092
 21
-212.339966
  0
LINE
  8
0
 10
-336.000122
 20
-229.660507
 11
-321.000122
 21
-238.320755
  0
LINE
  8
0
 10
-321.000092
 20
-238.320419
 11
-306.000092
 21
-229.660172
  0
LINE
  8
0
 10
-336.000122
 20
-212.339706
 11
-321.000122
 21
-203.679459
  0
LINE
  8
0
  6
CENTER
 62
     2
 10
-321.000000
 20
-20.047607
 11
-321.000000
 21
-58.263641
  0
LINE
  8
0
  6
CENTER
 62
     2
 10
-338.020508
 20
-39.000000
 11
-303.470490
 21
-39.000000
  0
LINE
  8
0
 10
-306.000000
 20
-30.339752
 11
-306.000000
 21
-47.660248
  0
LINE
  8
0
 10
-336.000000
 20
-30.339737
 11
-336.000000
 21
-47.660248
  0
LINE
  8
0
 10
-321.000092
 20
-21.679514
 11
-306.000092
 21
-30.339762
  0
LINE
  8
0
 10
-336.000153
 20
-47.660358
 11
-321.000092
 21
-56.320637
  0
LINE
  8
0
 10
-321.000092
 20
-56.320396
 11
-306.000061
 21
-47.660133
  0
LINE
  8
0
 10
-336.000153
 20
-30.339556
 11
-321.000153
 21
-21.679308
  0
LINE
  8
0
 10
-202.000000
 20
-119.229668
 11
-202.000000
 21
-140.770325
  0
LINE
  8
0
 10
-258.000000
 20
-119.229668
 11
-258.000000
 21
-140.770325
  0
LINE
  8
0
 10
-192.742157
 20
-98.399155
 11
-197.203613
 21
-97.203720
  0
LINE
  8
0
 10
-198.399261
 20
-92.742203
 11
-197.203812
 21
-97.203629
  0
LINE
  8
0
 10
-195.133392
 20
-89.475800
 11
-198.399384
 21
-92.741783
  0
LINE
  8
0
 10
-190.671631
 20
-90.671677
 11
-195.133026
 21
-89.476265
  0
LINE
  8
0
 10
-190.671814
 20
-90.671654
 11
-189.476379
 21
-95.133080
  0
LINE
  8
0
 10
-189.476486
 20
-95.132629
 11
-192.742462
 21
-98.398598
  0
LINE
  8
0
 10
-198.399048
 20
-167.259018
 11
-197.204834
 21
-162.797211
  0
LINE
  8
0
 10
-192.743347
 20
-161.601013
 11
-197.204437
 21
-162.797684
  0
LINE
  8
0
 10
-189.476715
 20
-164.865936
 11
-192.743607
 21
-161.600845
  0
LINE
  8
0
 10
-190.671051
 20
-169.327423
 11
-189.476852
 21
-164.865677
  0
LINE
  8
0
 10
-190.670609
 20
-169.327911
 11
-195.131699
 21
-170.524582
  0
LINE
  8
0
 10
-195.131989
 20
-170.524414
 11
-198.398865
 21
-167.259354
  0
LINE
  8
0
 10
-264.866974
 20
-170.524307
 11
-269.328430
 21
-169.328873
  0
LINE
  8
0
 10
-270.524200
 20
-164.867264
 11
-269.328766
 21
-169.328690
  0
LINE
  8
0
 10
-267.258392
 20
-161.600601
 11
-270.524353
 21
-164.866562
  0
LINE
  8
0
 10
-262.796448
 20
-162.796906
 11
-267.257843
 21
-161.601486
  0
LINE
  8
0
 10
-262.796753
 20
-162.796646
 11
-261.601288
 21
-167.258072
  0
LINE
  8
0
 10
-261.601440
 20
-167.257370
 11
-264.867401
 21
-170.523346
  0
LINE
  8
0
 10
-270.524323
 20
-95.134171
 11
-269.330109
 21
-90.672386
  0
LINE
  8
0
 10
-264.868439
 20
-89.475883
 11
-269.329559
 21
-90.672562
  0
LINE
  8
0
 10
-261.601685
 20
-92.741180
 11
-264.868561
 21
-89.476112
  0
LINE
  8
0
 10
-262.796326
 20
-97.202568
 11
-261.602112
 21
-92.740837
  0
LINE
  8
0
 10
-262.795746
 20
-97.202766
 11
-267.256805
 21
-98.399429
  0
LINE
  8
0
 10
-267.256958
 20
-98.399643
 11
-270.523834
 21
-95.134590
  0
LINE
  8
0
 10
100.000000
 20
238.000000
 11
100.000000
 21
12.000000
  0
LINE
  8
0
  6
CENTER
 62
     2
 10
118.500000
 20
143.000000
 11
118.500000
 21
107.000000
  0
LINE
  8
0
  6
CENTER
 62
     2
 10
292.500000
 20
143.000000
 11
292.500000
 21
107.000000
  0
LINE
  8
0
 10
311.000000
 20
238.000000
 11
311.000000
 21
12.000000
  0
LINE
  8
0
 10
139.000000
 20
238.000000
 11
139.000000
 21
12.000000
  0
LINE
  8
0
 10
272.000000
 20
238.000000
 11
272.000000
 21
12.000000
  0
LINE
  8
0
 10
100.000000
 20
238.000000
 11
139.000000
 21
238.000000
  0
LINE
  8
0
 10
100.000000
 20
12.000000
 11
139.000000
 21
12.000000
  0
LINE
  8
0
 10
272.000000
 20
238.000000
 11
311.000000
 21
238.000000
  0
LINE
  8
0
 10
272.000000
 20
12.000000
 11
311.000000
 21
12.000000
  0
LINE
  8
0
  6
CENTER
 62
     2
 10
61.969086
 20
34.000000
 11
348.979858
 21
34.000000
  0
LINE
  8
0
  6
CENTER
 62
     2
 10
61.969086
 20
216.000000
 11
348.979858
 21
216.000000
  0
LINE
  8
0
 10
345.000000
 20
205.999847
 11
332.099976
 21
205.999847
  0
LINE
  8
0
 10
345.000000
 20
225.999847
 11
332.099976
 21
225.999847
  0
LINE
  8
0
 10
346.000000
 20
207.000000
 11
346.000000
 21
225.000000
  0
LINE
  8
0
 10
345.000000
 20
206.000000
 11
345.000000
 21
226.000000
  0
LINE
  8
0
 10
344.999847
 20
206.000061
 11
345.999817
 21
207.000031
  0
LINE
  8
0
 10
345.999878
 20
224.999771
 11
344.999878
 21
225.999771
  0
LINE
  8
0
 10
316.100006
 20
232.499847
 11
311.000000
 21
232.499847
  0
LINE
  8
0
 10
316.100006
 20
199.499847
 11
311.000000
 21
199.499847
  0
LINE
  8
0
 10
66.000000
 20
226.000000
 11
78.899994
 21
226.000000
  0
LINE
  8
0
 10
66.000000
 20
206.000000
 11
78.899994
 21
206.000000
  0
LINE
  8
0
 10
65.000000
 20
225.000000
 11
65.000000
 21
207.000000
  0
LINE
  8
0
 10
66.000000
 20
226.000000
 11
66.000000
 21
206.000000
  0
LINE
  8
0
 10
66.000023
 20
225.999969
 11
65.000023
 21
224.999969
  0
LINE
  8
0
 10
64.999931
 20
206.999969
 11
65.999931
 21
205.999969
  0
LINE
  8
0
 10
94.899994
 20
199.500000
 11
100.000000
 21
199.500000
  0
LINE
  8
0
 10
94.899994
 20
232.500000
 11
100.000000
 21
232.500000
  0
LINE
  8
0
 10
66.000000
 20
44.000000
 11
78.899994
 21
44.000000
  0
LINE
  8
0
 10
66.000000
 20
24.000000
 11
78.899994
 21
24.000000
  0
LINE
  8
0
 10
65.000000
 20
43.000000
 11
65.000000
 21
25.000000
  0
LINE
  8
0
 10
66.000000
 20
44.000000
 11
66.000000
 21
24.000000
  0
LINE
  8
0
 10
65.999954
 20
44.000015
 11
64.999954
 21
43.000011
  0
LINE
  8
0
 10
64.999977
 20
25.000008
 11
65.999969
 21
24.000010
  0
LINE
  8
0
 10
94.899994
 20
17.500000
 11
100.000000
 21
17.500000
  0
LINE
  8
0
 10
94.899994
 20
50.500000
 11
100.000000
 21
50.500000
  0
LINE
  8
0
 10
345.000000
 20
23.999847
 11
332.099976
 21
23.999847
  0
LINE
  8
0
 10
345.000000
 20
43.999847
 11
332.099976
 21
43.999847
  0
LINE
  8
0
 10
346.000000
 20
25.000000
 11
346.000000
 21
43.000000
  0
LINE
  8
0
 10
345.000000
 20
24.000000
 11
345.000000
 21
44.000000
  0
LINE
  8
0
 10
344.999756
 20
24.000162
 11
345.999786
 21
25.000183
  0
LINE
  8
0
 10
345.999908
 20
42.999924
 11
344.999908
 21
43.999924
  0
LINE
  8
0
 10
316.100006
 20
50.499847
 11
311.000000
 21
50.499847
  0
LINE
  8
0
 10
316.100006
 20
17.499847
 11
311.000000
 21
17.499847
  0
LINE
  8
0
 10
139.000000
 20
24.000000
 11
272.000000
 21
24.000000
  0
LINE
  8
0
 10
139.000000
 20
44.000000
 11
272.000000
 21
44.000000
  0
LINE
  8
0
 10
139.000000
 20
226.000000
 11
272.000000
 21
226.000000
  0
LINE
  8
0
 10
139.000000
 20
206.000000
 11
272.000000
 21
206.000000
  0
LINE
  8
0
  6
CENTER
 62
     2
 10
-50.796021
 20
125.000000
 11
316.694366
 21
125.000000
  0
LINE
  8
0
 10
139.000000
 20
18.500000
 11
272.000000
 21
18.500000
  0
LINE
  8
0
 10
139.000000
 20
231.500000
 11
272.000000
 21
231.500000
  0
LINE
  8
0
 62
     2
 10
65.000000
 20
25.399994
 11
78.899994
 21
25.399994
  0
LINE
  8
0
 62
     2
 10
65.000000
 20
42.600006
 11
78.899994
 21
42.600006
  0
LINE
  8
0
 62
     2
 10
65.000000
 20
224.600006
 11
78.899994
 21
224.600006
  0
LINE
  8
0
 62
     2
 10
65.000000
 20
207.399994
 11
78.899994
 21
207.399994
  0
LINE
  8
0
 62
     2
 10
346.000000
 20
224.599854
 11
332.099976
 21
224.599854
  0
LINE
  8
0
 62
     2
 10
346.000000
 20
207.399841
 11
332.099976
 21
207.399841
  0
LINE
  8
0
 62
     2
 10
346.000000
 20
42.599854
 11
332.099976
 21
42.599854
  0
LINE
  8
0
 62
     2
 10
346.000000
 20
25.399857
 11
332.099976
 21
25.399857
  0
LINE
  8
0
 10
60.000000
 20
185.500000
 11
60.000000
 21
64.500000
  0
LINE
  8
0
 10
61.000000
 20
63.500000
 11
100.000000
 21
63.500000
  0
LINE
  8
0
 10
61.000000
 20
186.500000
 11
100.000000
 21
186.500000
  0
LINE
  8
0
 10
60.999977
 20
186.499969
 11
59.999977
 21
185.499969
  0
LINE
  8
0
 10
59.999985
 20
64.499985
 11
60.999989
 21
63.499989
  0
LINE
  8
0
 10
61.000000
 20
186.500000
 11
61.000000
 21
63.500000
  0
LINE
  8
0
 10
-45.000000
 20
152.000000
 11
-45.000000
 21
98.000000
  0
LINE
  8
0
 10
-44.000000
 20
97.000000
 11
30.000000
 21
97.000000
  0
LINE
  8
0
 10
-44.000000
 20
153.000000
 11
30.000000
 21
153.000000
  0
LINE
  8
0
 10
51.154697
 20
95.000000
 11
60.000000
 21
95.000000
  0
LINE
  8
0
 10
51.154701
 20
155.000000
 11
60.000000
 21
155.000000
  0
LINE
  8
0
 10
26.000000
 20
153.000000
 11
26.000000
 21
97.000000
  0
LINE
  8
0
 10
30.000000
 20
153.000000
 11
30.000000
 21
97.000000
  0
LINE
  8
0
 10
33.464096
 20
97.000000
 11
33.464096
 21
153.000000
  0
LINE
  8
0
 62
     2
 10
-45.000000
 20
98.000000
 11
26.000000
 21
98.000000
  0
LINE
  8
0
 62
     2
 10
-45.000000
 20
152.000000
 11
26.000000
 21
152.000000
  0
LINE
  8
0
 62
     2
 10
26.000002
 20
97.999985
 11
28.857212
 21
96.999962
  0
LINE
  8
0
 62
     2
 10
26.000013
 20
151.999924
 11
28.857224
 21
152.999939
  0
LINE
  8
0
 10
-44.999958
 20
151.999985
 11
-43.999954
 21
152.999985
  0
LINE
  8
0
 10
-44.999996
 20
97.999985
 11
-43.999996
 21
96.999985
  0
LINE
  8
0
 10
-44.000000
 20
153.000000
 11
-44.000000
 21
97.000000
  0
LINE
  8
0
 10
78.899994
 20
231.000000
 11
94.899994
 21
231.000000
  0
LINE
  8
0
 10
80.239738
 20
216.000000
 11
94.899994
 21
216.000000
  0
LINE
  8
0
 10
78.899994
 20
231.000000
 11
78.899994
 21
201.000000
  0
LINE
  8
0
 10
78.899994
 20
201.000000
 11
94.899994
 21
201.000000
  0
LINE
  8
0
 10
94.899994
 20
232.500000
 11
94.899994
 21
199.500000
  0
LINE
  8
0
 10
332.100006
 20
201.000000
 11
316.100006
 21
201.000000
  0
LINE
  8
0
 10
330.760254
 20
216.000000
 11
316.100006
 21
216.000000
  0
LINE
  8
0
 10
332.100006
 20
201.000000
 11
332.100006
 21
231.000000
  0
LINE
  8
0
 10
332.100006
 20
231.000000
 11
316.100006
 21
231.000000
  0
LINE
  8
0
 10
316.100006
 20
199.499847
 11
316.100006
 21
232.499847
  0
LINE
  8
0
 10
78.899994
 20
19.000000
 11
94.899994
 21
19.000000
  0
LINE
  8
0
 10
78.899994
 20
19.000000
 11
78.899994
 21
49.000000
  0
LINE
  8
0
 10
80.239738
 20
34.000000
 11
94.899994
 21
34.000000
  0
LINE
  8
0
 10
78.899994
 20
49.000000
 11
94.899994
 21
49.000000
  0
LINE
  8
0
 10
94.899994
 20
17.500000
 11
94.899994
 21
50.500000
  0
LINE
  8
0
 10
316.100006
 20
50.500153
 11
316.100006
 21
17.500153
  0
LINE
  8
0
 10
332.100006
 20
19.000000
 11
316.100006
 21
19.000000
  0
LINE
  8
0
 10
332.100006
 20
49.000000
 11
332.100006
 21
19.000000
  0
LINE
  8
0
 10
330.760254
 20
34.000000
 11
316.100006
 21
34.000000
  0
LINE
  8
0
 10
332.100006
 20
49.000000
 11
316.100006
 21
49.000000
  0
LINE
  8
0
 10
30.000000
 20
97.000000
 11
50.000000
 21
97.000000
  0
LINE
  8
0
 10
30.000000
 20
153.000000
 11
50.000000
 21
153.000000
  0
LINE
  8
0
 10
50.000011
 20
152.999985
 11
51.154713
 21
154.999985
  0
LINE
  8
0
 10
49.999989
 20
96.999985
 11
51.154690
 21
94.999985
  0
CIRCLE
  8
0
 10
118.500000
 20
-130.000000
 40
7.950000
  0
CIRCLE
  8
0
 10
292.500000
 20
-130.000000
 40
7.950000
  0
CIRCLE
  8
0
 10
118.500000
 20
-130.000000
 40
5.150000
  0
CIRCLE
  8
0
 10
292.500000
 20
-130.000000
 40
5.150000
  0
ARC
  8
0
 10
325.528656
 20
-51.990372
 40
6.571341
 50
318.780914
 51
41.219090
  0
ARC
  8
0
 10
308.257294
 20
-39.000000
 40
23.842703
 50
338.701721
 51
21.298334
  0
ARC
  8
0
 10
325.528687
 20
-26.009628
 40
6.571318
 50
318.780731
 51
41.219280
  0
ARC
  8
0
 10
85.471344
 20
-26.009628
 40
6.571336
 50
138.780853
 51
221.219131
  0
ARC
  8
0
 10
102.742706
 20
-39.000000
 40
23.842712
 50
158.701691
 51
201.298309
  0
ARC
  8
0
 10
85.471329
 20
-51.990372
 40
6.571329
 50
138.780823
 51
221.219177
  0
ARC
  8
0
 10
85.471344
 20
-208.009628
 40
6.571337
 50
138.780838
 51
221.219162
  0
ARC
  8
0
 10
102.742706
 20
-221.000000
 40
23.842716
 50
158.701675
 51
201.298294
  0
ARC
  8
0
 10
85.471329
 20
-233.990372
 40
6.571332
 50
138.780792
 51
221.219208
  0
ARC
  8
0
 10
325.528687
 20
-208.009628
 40
6.571320
 50
318.780701
 51
41.219292
  0
ARC
  8
0
 10
325.528687
 20
-233.990372
 40
6.571343
 50
318.780884
 51
41.219116
  0
ARC
  8
0
 10
308.257294
 20
-221.000000
 40
23.842703
 50
338.701691
 51
21.298334
  0
ARC
  8
0
 10
48.475216
 20
-130.000000
 40
18.475216
 50
144.340942
 51
215.659058
  0
ARC
  8
0
 10
21.999985
 20
-130.000000
 40
30.000015
 50
338.960541
 51
21.039465
  0
CIRCLE
  8
0
 10
-139.000000
 20
-221.000000
 40
14.500000
  0
CIRCLE
  8
0
 10
-139.000000
 20
-221.000000
 40
10.000000
  0
CIRCLE
  8
0
 10
-139.000000
 20
-39.000000
 40
14.500000
  0
CIRCLE
  8
0
 10
-139.000000
 20
-39.000000
 40
10.000000
  0
CIRCLE
  8
0
 10
-321.000000
 20
-221.000000
 40
14.500000
  0
CIRCLE
  8
0
 10
-321.000000
 20
-221.000000
 40
10.000000
  0
CIRCLE
  8
0
 10
-321.000000
 20
-39.000000
 40
10.000000
  0
CIRCLE
  8
0
 10
-321.000000
 20
-39.000000
 40
14.500000
  0
CIRCLE
  8
0
 62
     2
 10
-139.000000
 20
-221.000000
 40
8.600000
  0
CIRCLE
  8
0
 62
     2
 10
-321.000000
 20
-221.000000
 40
8.600000
  0
CIRCLE
  8
0
 62
     2
 10
-139.000000
 20
-39.000000
 40
8.600000
  0
CIRCLE
  8
0
 62
     2
 10
-321.000000
 20
-39.000000
 40
8.600000
  0
CIRCLE
  8
0
 10
-230.000000
 20
-130.000000
 40
28.000000
  0
CIRCLE
  8
0
 10
-230.000000
 20
-130.000000
 40
30.000000
  0
CIRCLE
  8
0
 10
-230.000000
 20
-130.000000
 40
61.500000
  0
CIRCLE
  8
0
 10
-193.937561
 20
-93.937553
 40
8.000000
  0
CIRCLE
  8
0
 10
-193.937561
 20
-166.062439
 40
8.000000
  0
CIRCLE
  8
0
 10
-266.062347
 20
-166.062546
 40
8.000000
  0
CIRCLE
  8
0
 10
-266.062561
 20
-93.937660
 40
8.000000
  0
CIRCLE
  8
0
 10
-266.062500
 20
-93.937592
 40
8.750000
  0
CIRCLE
  8
0
 10
-193.937592
 20
-93.937500
 40
8.750000
  0
CIRCLE
  8
0
 10
-193.937500
 20
-166.062408
 40
8.750000
  0
CIRCLE
  8
0
 10
-266.062408
 20
-166.062500
 40
8.750000
  0
CIRCLE
  8
0
 62
     2
 10
-230.000000
 20
-130.000000
 40
27.000000
  0
CIRCLE
  8
0
 62
     2
 10
292.500000
 20
125.000000
 40
13.220500
  0
CIRCLE
  8
0
 10
292.500000
 20
125.000000
 40
12.058500
  0
CIRCLE
  8
0
 62
     2
 10
118.500000
 20
125.000000
 40
13.220500
  0
CIRCLE
  8
0
 10
118.500000
 20
125.000000
 40
12.058500
  0
ARC
  8
0
 10
100.562637
 20
223.500000
 40
21.662640
 50
159.743866
 51
200.256134
  0
ARC
  8
0
 10
100.562637
 20
208.500000
 40
21.662643
 50
159.743790
 51
200.256088
  0
ARC
  8
0
 10
310.437378
 20
208.500000
 40
21.662653
 50
339.743835
 51
20.256126
  0
ARC
  8
0
 10
310.437347
 20
223.500000
 40
21.662659
 50
339.743805
 51
20.256088
  0
ARC
  8
0
 10
100.562637
 20
26.500000
 40
21.662643
 50
159.743790
 51
200.256073
  0
ARC
  8
0
 10
100.562637
 20
41.500000
 40
21.662643
 50
159.743851
 51
200.256134
  0
ARC
  8
0
 10
310.437347
 20
26.500000
 40
21.662647
 50
339.743866
 51
20.256145
  0
ARC
  8
0
 10
310.437378
 20
41.500000
 40
21.662655
 50
339.743835
 51
20.256098
  0
TEXT
  8
0
 10
-369.785309
 20
256.649994
 40
9.000000
  1
SD CYLINDER
 50
0.000000
 41
1.052632
 51
0.000000
  7
STANDARD
  0
TEXT
  8
0
 10
242.014816
 20
-274.500000
 40
12.500000
  1
KOGANEI CORP.
 50
0.000000
 41
1.052632
 51
0.000000
  7
STANDARD
  0
TEXT
  8
0
 10
251.264664
 20
256.649994
 40
9.000000
  1
DATE: AUG ,1993
 50
0.000000
 41
1.052632
 51
0.000000
  7
STANDARD
  0
TEXT
  8
0
 10
-384.785309
 20
224.149994
 40
9.000000
  1
MODEL:KA0SDZ200*100
 50
0.000000
 41
1.052632
 51
0.000000
  7
STANDARD
  0
ENDSEC
  0
EOF
